  0
SECTION
  2
HEADER
  0
ENDSEC
  0
SECTION
  2
TABLES
  0
TABLE
  2
LTYPE
 70
     4
  0
LTYPE
  2
CONTINUOUS
 70
    64
  3
Solid line
 72
    65
 73
     0
 40
0.000000
  0
LTYPE
  2
DASHED
 70
    64
  3
__ __ __ __ __ __ __ __ __ __ __ __ __ __ __
 72
    65
 73
     2
 40
3.500000
 49
2.000000
 49
-1.500000
  0
LTYPE
  2
CENTER
 70
    64
  3
____ _ ____ _ ____ _ ____ _ ____ _ ____ _ ____
 72
    65
 73
     4
 40
17.500000
 49
13.000000
 49
-1.500000
 49
1.500000
 49
-1.500000
  0
LTYPE
  2
PHANTOM
 70
    64
  3
_____ _ _ _____ _ _ _____ _ _ _____ _ _ ____  
 72
    65
 73
     6
 40
15.500000
 49
8.000000
 49
-1.500000
 49
1.500000
 49
-1.500000
 49
1.500000
 49
-1.500000
  0
LTYPE
  2
DASHED1
 70
    64
  3
__ __ __ __ __ __ __ __ __ __ __ __ __ __ __
 72
    65
 73
     2
 40
1.500000
 49
1.000000
 49
-0.500000
  0
LTYPE
  2
DASHED2
 70
    64
  3
__ __ __ __ __ __ __ __ __ __ __ __ __ __ __
 72
    65
 73
     2
 40
3.500000
 49
2.500000
 49
-1.000000
  0
LTYPE
  2
DASHED3
 70
    64
  3
__ __ __ __ __ __ __ __ __ __ __ __ __ __ __
 72
    65
 73
     2
 40
6.000000
 49
4.000000
 49
-2.000000
  0
LTYPE
  2
DASHED4
 70
    64
  3
__ __ __ __ __ __ __ __ __ __ __ __ __ __ __
 72
    65
 73
     2
 40
12.000000
 49
10.000000
 49
-2.000000
  0
LTYPE
  2
DASHED5
 70
    64
  3
__ __ __ __ __ __ __ __ __ __ __ __ __ __ __
 72
    65
 73
     2
 40
17.000000
 49
15.000000
 49
-2.000000
  0
LTYPE
  2
DASHED6
 70
    64
  3
__ __ __ __ __ __ __ __ __ __ __ __ __ __ __
 72
    65
 73
     2
 40
29.000000
 49
27.000000
 49
-2.000000
  0
LTYPE
  2
PHANTOM1
 70
    64
  3
_____ _ _ _____ _ _ _____ _ _ _____ _ _ ____  
 72
    65
 73
     6
 40
31.000000
 49
25.000000
 49
-1.500000
 49
1.000000
 49
-1.000000
 49
1.000000
 49
-1.500000
  0
LTYPE
  2
PHANTOM2
 70
    64
  3
_____ _ _ _____ _ _ _____ _ _ _____ _ _ ____  
 72
    65
 73
     6
 40
36.000000
 49
27.000000
 49
-1.500000
 49
2.500000
 49
-1.000000
 49
2.500000
 49
-1.500000
  0
LTYPE
  2
PHANTOM3
 70
    64
  3
_____ _ _ _____ _ _ _____ _ _ _____ _ _ ____  
 72
    65
 73
     6
 40
78.000000
 49
64.000000
 49
-2.000000
 49
4.000000
 49
-2.000000
 49
4.000000
 49
-2.000000
  0
LTYPE
  2
CENTER1
 70
    64
  3
____ _ ____ _ ____ _ ____ _ ____ _ ____ _ ____
 72
    65
 73
     4
 40
19.000000
 49
14.000000
 49
-1.000000
 49
3.000000
 49
-1.000000
  0
LTYPE
  2
CENTER2
 70
    64
  3
____ _ ____ _ ____ _ ____ _ ____ _ ____ _ ____
 72
    65
 73
     4
 40
28.500000
 49
25.000000
 49
-1.000000
 49
1.500000
 49
-1.000000
  0
LTYPE
  2
CENTER3
 70
    64
  3
____ _ ____ _ ____ _ ____ _ ____ _ ____ _ ____
 72
    65
 73
     4
 40
31.500000
 49
27.000000
 49
-1.000000
 49
2.500000
 49
-1.000000
  0
LTYPE
  2
CENTER4
 70
    64
  3
____ _ ____ _ ____ _ ____ _ ____ _ ____ _ ____
 72
    65
 73
     4
 40
50.000000
 49
45.000000
 49
-1.000000
 49
3.000000
 49
-1.000000
  0
LTYPE
  2
CENTER5
 70
    64
  3
____ _ ____ _ ____ _ ____ _ ____ _ ____ _ ____
 72
    65
 73
     4
 40
100.000000
 49
92.000000
 49
-2.000000
 49
4.000000
 49
-2.000000
  0
LTYPE
  2
SBK1
 70
    64
  3
______ _ _ _ ______ _ _ _ ______ _ _ _ _____  
 72
    65
 73
     8
 40
60.500000
 49
45.000000
 49
-2.000000
 49
2.500000
 49
-2.000000
 49
2.500000
 49
-2.000000
 49
2.500000
 49
-2.000000
  0
LTYPE
  2
SBK2
 70
    64
  3
______ _ _ _ ______ _ _ _ ______ _ _ _ _____  
 72
    65
 73
     8
 40
84.000000
 49
64.000000
 49
-2.000000
 49
4.000000
 49
-2.000000
 49
4.000000
 49
-2.000000
 49
4.000000
 49
-2.000000
  0
LTYPE
  2
STCH
 70
    64
  3
__ __ __ __ __ __ __ __ __ __ __ __ __ __ __
 72
    65
 73
     2
 40
3.000000
 49
1.000000
 49
-2.000000
  0
LTYPE
  2
MTCH
 70
    64
  3
_____ _ _ _____ _ _ _____ _ _ _____ _ _ ____  
 72
    65
 73
     6
 40
80.000000
 49
66.000000
 49
-2.000000
 49
4.000000
 49
-2.000000
 49
4.000000
 49
-2.000000
  0
ENDTAB
  0
TABLE
  2
LAYER
 70
     1
  0
LAYER
  2
0
 70
     0
 62
     7
  6
CONTINUOUS
  0
ENDTAB
  0
TABLE
  2
STYLE
 70
     1
  0
STYLE
  2
STANDARD
 70
     0
 40
0.000000
 41
1.000000
 50
0.000000
 71
     0
 42
0.200000
  3
txt
  4
BIGFONT
  0
ENDTAB
  0
TABLE
  2
VIEW
 70
     0
  0
ENDTAB
  0
ENDSEC
  0
SECTION
  2
BLOCKS
  0
ENDSEC
  0
SECTION
  2
ENTITIES
  0
LINE
  8
0
  6
PHANTOM
 62
     3
 10
-13.446793
 20
-84.661674
 11
-13.446793
 21
-71.335846
  0
LINE
  8
0
  6
PHANTOM
 62
     3
 10
-13.446800
 20
-84.661667
 11
-1.135135
 21
-94.118477
  0
LINE
  8
0
  6
PHANTOM
 62
     3
 10
-13.446797
 20
-71.335846
 11
-1.135126
 21
-61.202656
  0
LINE
  8
0
  6
PHANTOM
 62
     3
 10
-1.135132
 20
-6.859009
 11
-1.135132
 21
-61.202667
  0
LINE
  8
0
  6
DASHED
 62
     2
 10
49.099854
 20
-109.857132
 11
64.599854
 21
-109.857132
  0
LINE
  8
0
  6
DASHED
 62
     2
 10
49.099854
 20
-125.857132
 11
64.599854
 21
-125.857132
  0
LINE
  8
0
  6
DASHED
 62
     2
 10
65.099854
 20
-110.357132
 11
65.099854
 21
-125.357132
  0
LINE
  8
0
  6
DASHED
 62
     2
 10
65.099838
 20
-110.357132
 11
64.599838
 21
-109.857124
  0
LINE
  8
0
  6
DASHED
 62
     2
 10
64.599838
 20
-125.857132
 11
65.099838
 21
-125.357132
  0
LINE
  8
0
  6
CENTER
 62
     2
 10
51.028412
 20
-112.857132
 11
30.485565
 21
-112.857132
  0
LINE
  8
0
  6
DASHED
 62
     2
 10
49.099854
 20
-29.857132
 11
64.599854
 21
-29.857132
  0
LINE
  8
0
  6
DASHED
 62
     2
 10
49.099854
 20
-45.857132
 11
64.599854
 21
-45.857132
  0
LINE
  8
0
  6
DASHED
 62
     2
 10
65.099854
 20
-30.357132
 11
65.099854
 21
-45.357132
  0
LINE
  8
0
  6
DASHED
 62
     2
 10
64.599838
 20
-29.857136
 11
65.099838
 21
-30.357136
  0
LINE
  8
0
  6
DASHED
 62
     2
 10
64.599838
 20
-45.857128
 11
65.099838
 21
-45.357128
  0
LINE
  8
0
 10
49.099854
 20
-21.857132
 11
49.099854
 21
-133.857132
  0
LINE
  8
0
 10
-24.900146
 20
-109.857132
 11
-20.900146
 21
-109.857132
  0
LINE
  8
0
 10
-24.900146
 20
-125.857132
 11
-20.900146
 21
-125.857132
  0
LINE
  8
0
 10
-39.900146
 20
-22.857132
 11
-39.900146
 21
-132.857132
  0
LINE
  8
0
  6
CENTER
 62
     2
 10
-42.900146
 20
-117.857132
 11
-17.214447
 21
-117.857132
  0
LINE
  8
0
 10
-24.900146
 20
-29.857132
 11
-20.900146
 21
-29.857132
  0
LINE
  8
0
 10
-24.900146
 20
-45.857132
 11
-20.900146
 21
-45.857132
  0
LINE
  8
0
 10
-20.900146
 20
-21.857132
 11
-20.900146
 21
-133.842834
  0
LINE
  8
0
 10
-20.900146
 20
-42.214279
 11
49.099854
 21
-42.214279
  0
LINE
  8
0
 10
-20.900146
 20
-47.514282
 11
49.099854
 21
-47.514282
  0
LINE
  8
0
  6
CENTER
 62
     2
 10
-42.900146
 20
-37.857132
 11
-17.214447
 21
-37.857132
  0
LINE
  8
0
 10
-24.900146
 20
-132.857132
 11
-24.900146
 21
-22.857132
  0
LINE
  8
0
 10
49.099854
 20
-63.357132
 11
-20.900146
 21
-63.357132
  0
LINE
  8
0
  6
CENTER
 62
     2
 10
0.099854
 20
-64.485703
 11
0.099854
 21
-91.071419
  0
LINE
  8
0
 10
5.542709
 20
-88.557129
 11
49.099854
 21
-88.557129
  0
LINE
  8
0
 10
9.471268
 20
-85.357132
 11
49.099854
 21
-85.357132
  0
LINE
  8
0
 10
5.542709
 20
-67.157135
 11
49.099854
 21
-67.157135
  0
LINE
  8
0
 10
9.471268
 20
-70.357132
 11
49.099854
 21
-70.357132
  0
LINE
  8
0
  6
CENTER
 62
     2
 10
-0.900146
 20
-55.857132
 11
13.714127
 21
-55.857132
  0
LINE
  8
0
  6
CENTER
 62
     2
 10
-13.900146
 20
-48.357132
 11
-13.900146
 21
-62.742847
  0
LINE
  8
0
  6
CENTER
 62
     2
 10
6.099854
 20
-48.500000
 11
6.099854
 21
-62.871418
  0
LINE
  8
0
 10
-20.900146
 20
-132.857132
 11
49.099854
 21
-132.857132
  0
LINE
  8
0
  6
DASHED
 62
     2
 10
29.099850
 20
-134.857147
 11
28.899849
 21
-130.957123
  0
LINE
  8
0
  6
DASHED
 62
     2
 10
28.099854
 20
-133.857132
 11
28.099854
 21
-130.957123
  0
LINE
  8
0
  6
DASHED
 62
     2
 10
29.099848
 20
-134.857132
 11
28.099842
 21
-133.857117
  0
LINE
  8
0
  6
DASHED
 62
     2
 10
19.099852
 20
-134.857132
 11
20.099852
 21
-133.857132
  0
LINE
  8
0
  6
DASHED
 62
     2
 10
28.099854
 20
-133.857132
 11
20.099854
 21
-133.857132
  0
LINE
  8
0
  6
DASHED
 62
     2
 10
20.099854
 20
-133.857132
 11
20.099854
 21
-130.957123
  0
LINE
  8
0
  6
DASHED
 62
     2
 10
19.099844
 20
-134.857117
 11
19.314131
 21
-130.957123
  0
LINE
  8
0
  6
CENTER
 62
     2
 10
13.942703
 20
-99.857132
 11
-0.800156
 21
-99.857132
  0
LINE
  8
0
  6
CENTER
 62
     2
 10
37.099854
 20
-119.871414
 11
37.099854
 21
-106.514267
  0
LINE
  8
0
  6
CENTER
 62
     2
 10
-1.328720
 20
-112.857132
 11
-14.428726
 21
-112.857132
  0
LINE
  8
0
  6
CENTER
 62
     2
 10
-7.900146
 20
-119.999985
 11
-7.900146
 21
-106.171417
  0
LINE
  8
0
  6
DASHED
 62
     2
 10
-5.900146
 20
-134.857117
 11
-6.900147
 21
-133.857117
  0
LINE
  8
0
  6
DASHED
 62
     2
 10
-5.900154
 20
-134.857117
 11
-6.100154
 21
-130.957123
  0
LINE
  8
0
  6
DASHED
 62
     2
 10
-6.900146
 20
-133.857132
 11
-6.900146
 21
-130.957123
  0
LINE
  8
0
  6
DASHED
 62
     2
 10
-15.900148
 20
-134.857132
 11
-15.685862
 21
-130.957123
  0
LINE
  8
0
  6
DASHED
 62
     2
 10
-14.900146
 20
-133.857132
 11
-14.900146
 21
-130.957123
  0
LINE
  8
0
  6
DASHED
 62
     2
 10
-15.900136
 20
-134.857132
 11
-14.900135
 21
-133.857132
  0
LINE
  8
0
  6
DASHED
 62
     2
 10
-6.900146
 20
-133.857132
 11
-14.900146
 21
-133.857132
  0
LINE
  8
0
  6
CENTER
 62
     2
 10
6.099854
 20
-92.242844
 11
6.099854
 21
-106.771408
  0
LINE
  8
0
  6
CENTER
 62
     2
 10
-6.843018
 20
-99.857132
 11
-20.900146
 21
-99.857132
  0
LINE
  8
0
  6
CENTER
 62
     2
 10
-13.900146
 20
-92.242844
 11
-13.900146
 21
-106.771408
  0
LINE
  8
0
 10
-19.900146
 20
-134.857132
 11
-20.900148
 21
-133.857132
  0
LINE
  8
0
 10
48.099842
 20
-134.857132
 11
49.099842
 21
-133.857132
  0
LINE
  8
0
 10
-20.900146
 20
-85.357132
 11
-9.257294
 21
-85.357132
  0
LINE
  8
0
 10
-20.900146
 20
-88.557129
 11
-5.328720
 21
-88.557129
  0
LINE
  8
0
 10
-20.900146
 20
-90.357132
 11
49.099854
 21
-90.357132
  0
LINE
  8
0
 10
-20.900146
 20
-92.357132
 11
49.099854
 21
-92.357132
  0
LINE
  8
0
 10
-19.900146
 20
-134.857132
 11
48.099854
 21
-134.857132
  0
LINE
  8
0
  6
CENTER
 62
     2
 10
52.999847
 20
-77.857132
 11
-42.643005
 21
-77.857132
  0
LINE
  8
0
 10
-20.900146
 20
-22.857132
 11
49.099854
 21
-22.857132
  0
LINE
  8
0
 10
-24.900146
 20
-73.985703
 11
-23.400146
 21
-73.985703
  0
LINE
  8
0
  6
CENTER
 62
     2
 10
-7.114441
 20
-55.857132
 11
-20.900146
 21
-55.857132
  0
LINE
  8
0
 10
-19.900146
 20
-20.857136
 11
-20.900148
 21
-21.857136
  0
LINE
  8
0
 10
48.099838
 20
-20.857134
 11
49.099842
 21
-21.857136
  0
LINE
  8
0
 10
-20.900146
 20
-70.357132
 11
-9.257294
 21
-70.357132
  0
LINE
  8
0
 10
-20.900146
 20
-67.157135
 11
-5.328720
 21
-67.157135
  0
LINE
  8
0
 10
-20.900146
 20
-65.357132
 11
49.099854
 21
-65.357132
  0
LINE
  8
0
 10
-19.900146
 20
-20.857132
 11
48.099854
 21
-20.857132
  0
LINE
  8
0
 10
-24.900150
 20
-132.857132
 11
-25.900143
 21
-133.857117
  0
LINE
  8
0
 10
-39.900146
 20
-132.857132
 11
-38.900146
 21
-133.857132
  0
LINE
  8
0
 10
-25.900143
 20
-21.857147
 11
-24.900152
 21
-22.857138
  0
LINE
  8
0
 10
-38.900146
 20
-21.857138
 11
-39.900146
 21
-22.857140
  0
LINE
  8
0
 62
     2
 10
-23.400146
 20
-73.985703
 11
-24.900146
 21
-79.799988
  0
LINE
  8
0
 62
     2
 10
-23.400146
 20
-81.742844
 11
-24.900146
 21
-75.928558
  0
LINE
  8
0
 10
-23.400146
 20
-81.742844
 11
-23.400146
 21
-73.985703
  0
LINE
  8
0
 10
-24.900146
 20
-81.742844
 11
-23.400146
 21
-81.742844
  0
LINE
  8
0
 10
-38.900146
 20
-21.857132
 11
-25.900146
 21
-21.857132
  0
LINE
  8
0
 10
-38.900146
 20
-133.857132
 11
-25.900146
 21
-133.857132
  0
LINE
  8
0
 10
-24.900146
 20
-85.857132
 11
-20.900146
 21
-85.857132
  0
LINE
  8
0
 10
-24.900146
 20
-69.857132
 11
-20.900146
 21
-69.857132
  0
LINE
  8
0
  6
CENTER
 62
     2
 10
-10.900146
 20
-136.085693
 11
-10.900146
 21
-129.557129
  0
LINE
  8
0
  6
CENTER
 62
     2
 10
24.099854
 20
-129.685699
 11
24.099854
 21
-137.214264
  0
LINE
  8
0
  6
PHANTOM
 62
     3
 10
26.213455
 20
-142.994034
 11
26.213455
 21
-13.753860
  0
LINE
  8
0
  6
PHANTOM
 62
     3
 10
-1.135132
 20
-142.994034
 11
-1.135132
 21
-94.118484
  0
LINE
  8
0
 10
155.099838
 20
73.442856
 11
155.099838
 21
71.642853
  0
LINE
  8
0
 10
155.099838
 20
91.642853
 11
155.099838
 21
76.642853
  0
LINE
  8
0
 10
153.099838
 20
96.142853
 11
153.099838
 21
72.142853
  0
LINE
  8
0
 10
153.099838
 20
72.142853
 11
155.099838
 21
72.142853
  0
LINE
  8
0
 10
153.099838
 20
96.142853
 11
155.099838
 21
96.142853
  0
LINE
  8
0
  6
CENTER
 62
     2
 10
194.099838
 20
140.328568
 11
194.099838
 21
128.014267
  0
LINE
  8
0
  6
CENTER
 62
     2
 10
165.442688
 20
34.142853
 11
154.699844
 21
34.142853
  0
LINE
  8
0
 10
199.099838
 20
53.785721
 11
199.099838
 21
48.485718
  0
LINE
  8
0
 10
155.099838
 20
119.785706
 11
155.099838
 21
114.771423
  0
LINE
  8
0
 10
199.099838
 20
119.785706
 11
199.099838
 21
114.485703
  0
LINE
  8
0
  6
CENTER
 62
     2
 10
160.099838
 20
46.442856
 11
160.099838
 21
51.871429
  0
LINE
  8
0
  6
CENTER
 62
     2
 10
198.099838
 20
51.142853
 11
190.842697
 21
51.142853
  0
LINE
  8
0
  6
CENTER
 62
     2
 10
198.099838
 20
117.142853
 11
191.042694
 21
117.142853
  0
LINE
  8
0
  6
CENTER
 62
     2
 10
156.099838
 20
117.142853
 11
162.985550
 21
117.142853
  0
LINE
  8
0
 10
175.599838
 20
135.542847
 11
175.599838
 21
141.142853
  0
LINE
  8
0
 10
178.599838
 20
135.542847
 11
178.599838
 21
141.142853
  0
LINE
  8
0
 10
178.599838
 20
32.742859
 11
178.599838
 21
27.142853
  0
LINE
  8
0
 10
175.599838
 20
32.742859
 11
175.599838
 21
27.142853
  0
LINE
  8
0
 62
     2
 10
165.099838
 20
27.142860
 11
164.885559
 21
31.042862
  0
LINE
  8
0
  6
DASHED
 62
     2
 10
164.099838
 20
28.142853
 11
164.099838
 21
31.042862
  0
LINE
  8
0
  6
DASHED
 62
     2
 10
165.099838
 20
27.142870
 11
164.099838
 21
28.142872
  0
LINE
  8
0
  6
DASHED
 62
     2
 10
155.099838
 20
27.142860
 11
156.099838
 21
28.142862
  0
LINE
  8
0
  6
DASHED
 62
     2
 10
164.099838
 20
28.142853
 11
156.099838
 21
28.142853
  0
LINE
  8
0
  6
DASHED
 62
     2
 10
156.099838
 20
28.142853
 11
156.099838
 21
31.042862
  0
LINE
  8
0
  6
DASHED
 62
     2
 10
155.099854
 20
27.142864
 11
155.299850
 21
31.042860
  0
LINE
  8
0
 10
201.099838
 20
53.785721
 11
198.099838
 21
53.785721
  0
LINE
  8
0
 10
198.099838
 20
53.971436
 11
198.099838
 21
55.142853
  0
LINE
  8
0
 10
198.099838
 20
55.142853
 11
193.599838
 21
55.142853
  0
LINE
  8
0
 10
193.599838
 20
47.142853
 11
193.599838
 21
55.142853
  0
LINE
  8
0
 10
198.099838
 20
47.142853
 11
193.599838
 21
47.142853
  0
LINE
  8
0
 10
198.099838
 20
47.142853
 11
198.099838
 21
48.485718
  0
LINE
  8
0
 10
201.099838
 20
48.485718
 11
198.099838
 21
48.485718
  0
LINE
  8
0
 10
198.099838
 20
121.142853
 11
198.099838
 21
119.785706
  0
LINE
  8
0
 10
201.099838
 20
119.785706
 11
198.099838
 21
119.785706
  0
LINE
  8
0
 10
201.099838
 20
114.485703
 11
198.099838
 21
114.485703
  0
LINE
  8
0
 10
198.099838
 20
114.299988
 11
198.099838
 21
113.142853
  0
LINE
  8
0
 10
198.099838
 20
113.142853
 11
193.599838
 21
113.142853
  0
LINE
  8
0
 10
193.599838
 20
121.142853
 11
193.599838
 21
113.142853
  0
LINE
  8
0
 10
198.099838
 20
121.142853
 11
193.599838
 21
121.142853
  0
LINE
  8
0
  6
CENTER
 62
     2
 10
160.099838
 20
25.028580
 11
160.099838
 21
39.728577
  0
LINE
  8
0
  6
CENTER
 62
     2
 10
163.399841
 20
124.142853
 11
190.999832
 21
124.142853
  0
LINE
  8
0
  6
CENTER
 62
     2
 10
157.056992
 20
49.142853
 11
162.942688
 21
49.142853
  0
LINE
  8
0
  6
CENTER
 62
     2
 10
160.099838
 20
140.257126
 11
160.099838
 21
128.642853
  0
LINE
  8
0
  6
CENTER
 62
     2
 10
154.499847
 20
134.142853
 11
165.542694
 21
134.142853
  0
LINE
  8
0
  6
CENTER
 62
     2
 10
188.728409
 20
134.142853
 11
200.214111
 21
134.142853
  0
LINE
  8
0
  6
CENTER
 62
     2
 10
194.099838
 20
39.328568
 11
194.099838
 21
28.785721
  0
LINE
  8
0
  6
CENTER
 62
     2
 10
188.728409
 20
34.142853
 11
200.214111
 21
34.142853
  0
LINE
  8
0
  6
CENTER
 62
     2
 10
163.699844
 20
44.142853
 11
190.514130
 21
44.142853
  0
LINE
  8
0
 10
153.099838
 20
29.142853
 11
153.099838
 21
69.642853
  0
LINE
  8
0
 10
153.099838
 20
139.142853
 11
155.099838
 21
141.142853
  0
LINE
  8
0
 10
153.099838
 20
29.142859
 11
155.099838
 21
27.142855
  0
LINE
  8
0
 10
201.099838
 20
139.142853
 11
199.099838
 21
141.142853
  0
LINE
  8
0
 10
201.099854
 20
29.142860
 11
199.099854
 21
27.142859
  0
LINE
  8
0
 10
155.099838
 20
27.142853
 11
199.099838
 21
27.142853
  0
LINE
  8
0
 10
155.099838
 20
141.142853
 11
199.099838
 21
141.142853
  0
LINE
  8
0
 10
201.099838
 20
53.785721
 11
201.099838
 21
69.642853
  0
LINE
  8
0
 10
201.099838
 20
29.142853
 11
201.099838
 21
48.485718
  0
LINE
  8
0
 10
201.099838
 20
114.485703
 11
201.099838
 21
98.642853
  0
LINE
  8
0
 10
201.099838
 20
139.142853
 11
201.099838
 21
119.785706
  0
LINE
  8
0
 10
199.099823
 20
71.642860
 11
200.999832
 21
69.728569
  0
LINE
  8
0
 10
199.099838
 20
96.642853
 11
199.099838
 21
71.642853
  0
LINE
  8
0
 10
199.099838
 20
73.442856
 11
198.599838
 21
73.442856
  0
LINE
  8
0
 10
198.599838
 20
73.442856
 11
198.099838
 21
72.942856
  0
LINE
  8
0
 10
198.099838
 20
72.942856
 11
196.499832
 21
72.942856
  0
LINE
  8
0
 10
198.099838
 20
77.142853
 11
196.499832
 21
77.142853
  0
LINE
  8
0
 10
198.599838
 20
76.642860
 11
198.099838
 21
77.142853
  0
LINE
  8
0
 10
199.099838
 20
76.642853
 11
198.599838
 21
76.642853
  0
LINE
  8
0
 10
199.099808
 20
96.642845
 11
201.099838
 21
98.642845
  0
LINE
  8
0
 10
199.099838
 20
94.842850
 11
198.599838
 21
94.842850
  0
LINE
  8
0
 10
198.599838
 20
94.842850
 11
198.099838
 21
95.342850
  0
LINE
  8
0
 10
198.099838
 20
95.342850
 11
196.499832
 21
95.342850
  0
LINE
  8
0
 10
198.099838
 20
91.142853
 11
196.499832
 21
91.142853
  0
LINE
  8
0
 10
198.599838
 20
91.642845
 11
198.099838
 21
91.142845
  0
LINE
  8
0
 10
199.099838
 20
91.642853
 11
198.599838
 21
91.642853
  0
LINE
  8
0
 10
156.099838
 20
114.485703
 11
156.099838
 21
113.142853
  0
LINE
  8
0
 10
153.099838
 20
114.485703
 11
153.099838
 21
98.642853
  0
LINE
  8
0
 10
153.099838
 20
114.485703
 11
156.099838
 21
114.485703
  0
LINE
  8
0
 10
153.099838
 20
119.785706
 11
156.099838
 21
119.785706
  0
LINE
  8
0
 10
156.099838
 20
113.142853
 11
160.599838
 21
113.142853
  0
LINE
  8
0
 10
156.099838
 20
121.142853
 11
160.599838
 21
121.142853
  0
LINE
  8
0
 10
156.099838
 20
121.142853
 11
156.099838
 21
119.785706
  0
LINE
  8
0
 10
160.599838
 20
121.142853
 11
160.599838
 21
113.142853
  0
LINE
  8
0
 10
155.099854
 20
71.642860
 11
153.185562
 21
69.728577
  0
LINE
  8
0
 10
155.099838
 20
96.642853
 11
155.099838
 21
94.842850
  0
LINE
  8
0
 10
155.099838
 20
73.442856
 11
155.599838
 21
73.442856
  0
LINE
  8
0
 10
155.599838
 20
73.442856
 11
156.099838
 21
72.942856
  0
LINE
  8
0
 10
156.099838
 20
72.942856
 11
157.699844
 21
72.942856
  0
LINE
  8
0
 10
156.099838
 20
77.142853
 11
157.699844
 21
77.142853
  0
LINE
  8
0
 10
155.599838
 20
76.642860
 11
156.099838
 21
77.142860
  0
LINE
  8
0
 10
155.099838
 20
76.642853
 11
155.599838
 21
76.642853
  0
LINE
  8
0
 10
155.099854
 20
96.642838
 11
153.099838
 21
98.642838
  0
LINE
  8
0
 10
155.099838
 20
94.842850
 11
155.599838
 21
94.842850
  0
LINE
  8
0
 10
155.599838
 20
94.842850
 11
156.099838
 21
95.342850
  0
LINE
  8
0
 10
156.099838
 20
95.342850
 11
157.699844
 21
95.342850
  0
LINE
  8
0
 10
156.099838
 20
91.142853
 11
157.699844
 21
91.142853
  0
LINE
  8
0
 10
155.599838
 20
91.642845
 11
156.099838
 21
91.142845
  0
LINE
  8
0
 10
155.099838
 20
91.642853
 11
155.599838
 21
91.642853
  0
LINE
  8
0
  6
CENTER
 62
     2
 10
148.856995
 20
84.142853
 11
205.328400
 21
84.142853
  0
LINE
  8
0
 10
153.099838
 20
139.142853
 11
153.099838
 21
119.785706
  0
LINE
  8
0
  6
CENTER
 62
     2
 10
177.099838
 20
145.371414
 11
177.099838
 21
22.914291
  0
LINE
  8
0
 10
-143.900146
 20
74.142853
 11
-143.900146
 21
94.142853
  0
LINE
  8
0
 10
-145.900146
 20
72.142853
 11
-143.900146
 21
74.142853
  0
LINE
  8
0
 10
-145.900146
 20
96.142853
 11
-143.900146
 21
94.142853
  0
LINE
  8
0
  6
CENTER
 62
     2
 10
-159.271576
 20
36.142853
 11
-148.171585
 21
36.142853
  0
LINE
  8
0
  6
CENTER
 62
     2
 10
-176.857285
 20
44.142853
 11
-158.843002
 21
44.142853
  0
LINE
  8
0
  6
CENTER
 62
     2
 10
-176.614426
 20
124.142853
 11
-158.885864
 21
124.142853
  0
LINE
  8
0
  6
CENTER
 62
     2
 10
-159.285858
 20
132.142853
 11
-148.514435
 21
132.142853
  0
LINE
  8
0
  6
CENTER
 62
     2
 10
-153.900146
 20
137.571411
 11
-153.900146
 21
126.628555
  0
LINE
  8
0
  6
CENTER
 62
     2
 10
-181.900146
 20
137.399994
 11
-181.900146
 21
126.728561
  0
LINE
  8
0
 10
-145.900146
 20
139.142853
 11
-145.900146
 21
29.142853
  0
LINE
  8
0
 10
-189.900146
 20
139.142853
 11
-189.900146
 21
29.142853
  0
LINE
  8
0
 10
-167.900146
 20
87.028564
 11
-170.400146
 21
85.585709
  0
LINE
  8
0
 10
-167.900146
 20
87.028572
 11
-165.400131
 21
85.585709
  0
LINE
  8
0
 10
-165.400146
 20
85.585709
 11
-165.400146
 21
82.699997
  0
LINE
  8
0
 10
-165.400146
 20
82.699997
 11
-167.900146
 21
81.242851
  0
LINE
  8
0
 10
-167.900146
 20
81.242851
 11
-170.400146
 21
82.699997
  0
LINE
  8
0
 10
-170.400146
 20
85.585709
 11
-170.400146
 21
82.699997
  0
LINE
  8
0
 10
-167.900146
 20
127.028549
 11
-170.400146
 21
125.585686
  0
LINE
  8
0
 10
-167.900131
 20
127.028557
 11
-165.400146
 21
125.585701
  0
LINE
  8
0
 10
-165.400146
 20
125.585709
 11
-165.400146
 21
122.699982
  0
LINE
  8
0
 10
-165.400146
 20
122.699982
 11
-167.900146
 21
121.242836
  0
LINE
  8
0
 10
-167.900146
 20
121.242836
 11
-170.400146
 21
122.699982
  0
LINE
  8
0
 10
-170.400146
 20
125.585709
 11
-170.400146
 21
122.699982
  0
LINE
  8
0
 10
-167.900146
 20
47.028580
 11
-165.400146
 21
45.585724
  0
LINE
  8
0
 10
-165.400146
 20
45.585724
 11
-165.400146
 21
42.699997
  0
LINE
  8
0
 10
-165.400146
 20
42.699997
 11
-167.900146
 21
41.257141
  0
LINE
  8
0
 10
-167.900146
 20
41.257149
 11
-170.400146
 21
42.700005
  0
LINE
  8
0
 10
-170.400146
 20
45.585724
 11
-170.400146
 21
42.699997
  0
LINE
  8
0
 10
-167.900146
 20
47.028572
 11
-170.400146
 21
45.585716
  0
LINE
  8
0
  6
CENTER
 62
     2
 10
-176.471573
 20
36.142853
 11
-187.271561
 21
36.142853
  0
LINE
  8
0
  6
CENTER
 62
     2
 10
-181.900146
 20
30.571426
 11
-181.900146
 21
42.042862
  0
LINE
  8
0
  6
CENTER
 62
     2
 10
-176.471573
 20
132.142853
 11
-187.271561
 21
132.142853
  0
LINE
  8
0
  6
CENTER
 62
     2
 10
-153.900146
 20
30.571426
 11
-153.900146
 21
42.042862
  0
LINE
  8
0
 10
-145.900146
 20
29.142859
 11
-146.900146
 21
28.142857
  0
LINE
  8
0
 10
-189.900146
 20
29.142866
 11
-188.900146
 21
28.142862
  0
LINE
  8
0
 10
-146.900146
 20
140.142853
 11
-145.900146
 21
139.142853
  0
LINE
  8
0
 10
-188.900146
 20
140.142853
 11
-189.900146
 21
139.142853
  0
LINE
  8
0
 10
-188.900146
 20
28.142853
 11
-146.900146
 21
28.142853
  0
LINE
  8
0
 10
-188.900146
 20
140.142853
 11
-146.900146
 21
140.142853
  0
LINE
  8
0
 10
-191.900146
 20
53.785721
 11
-189.900146
 21
53.785721
  0
LINE
  8
0
 10
-191.900146
 20
48.485718
 11
-189.900146
 21
48.485718
  0
LINE
  8
0
 10
-191.900146
 20
114.485703
 11
-189.900146
 21
114.485703
  0
LINE
  8
0
 10
-191.900146
 20
119.785706
 11
-189.900146
 21
119.785706
  0
LINE
  8
0
 10
-143.900146
 20
29.142853
 11
-143.900146
 21
69.642853
  0
LINE
  8
0
 10
-143.900146
 20
139.142853
 11
-145.900146
 21
141.142853
  0
LINE
  8
0
 10
-143.900146
 20
29.142862
 11
-145.900162
 21
27.142860
  0
LINE
  8
0
 10
-191.900146
 20
139.142853
 11
-189.900146
 21
141.142853
  0
LINE
  8
0
 10
-191.900146
 20
29.142857
 11
-189.900146
 21
27.142853
  0
LINE
  8
0
 10
-145.900146
 20
27.142853
 11
-189.900146
 21
27.142853
  0
LINE
  8
0
 10
-145.900146
 20
141.142853
 11
-189.900146
 21
141.142853
  0
LINE
  8
0
 10
-191.900146
 20
53.785721
 11
-191.900146
 21
69.642853
  0
LINE
  8
0
 10
-191.900146
 20
29.142853
 11
-191.900146
 21
48.485718
  0
LINE
  8
0
 10
-191.900146
 20
114.485703
 11
-191.900146
 21
98.642853
  0
LINE
  8
0
 10
-191.900146
 20
139.142853
 11
-191.900146
 21
119.785706
  0
LINE
  8
0
 10
-189.900116
 20
71.642860
 11
-191.800125
 21
69.728577
  0
LINE
  8
0
 10
-189.900116
 20
96.642845
 11
-191.900146
 21
98.642853
  0
LINE
  8
0
 10
-143.900146
 20
114.485703
 11
-143.900146
 21
98.642853
  0
LINE
  8
0
 10
-143.900146
 20
114.485703
 11
-145.900146
 21
114.485703
  0
LINE
  8
0
 10
-143.900146
 20
119.785706
 11
-145.900146
 21
119.785706
  0
LINE
  8
0
 10
-145.900162
 20
71.642853
 11
-143.985870
 21
69.728561
  0
LINE
  8
0
 10
-145.900162
 20
96.642845
 11
-143.900146
 21
98.642845
  0
LINE
  8
0
  6
CENTER
 62
     2
 10
-142.071579
 20
84.142853
 11
-193.942993
 21
84.142853
  0
LINE
  8
0
 10
-143.900146
 20
139.142853
 11
-143.900146
 21
119.785706
  0
LINE
  8
0
  6
CENTER
 62
     2
 10
-167.900146
 20
145.385696
 11
-167.900146
 21
22.699997
  0
LINE
  8
0
  6
PHANTOM
 62
     3
 10
-4.433624
 20
55.442856
 11
1.193619
 21
55.442856
  0
LINE
  8
0
  6
PHANTOM
 62
     3
 10
-4.433624
 20
55.442856
 11
-4.433624
 21
156.582352
  0
LINE
  8
0
 10
49.099854
 20
98.642853
 11
-20.900146
 21
98.642853
  0
LINE
  8
0
  6
CENTER
 62
     2
 10
29.599854
 20
97.514282
 11
29.599854
 21
70.928566
  0
LINE
  8
0
 10
35.042709
 20
73.442856
 11
49.099854
 21
73.442856
  0
LINE
  8
0
 10
38.971283
 20
76.642853
 11
49.099854
 21
76.642853
  0
LINE
  8
0
 10
35.042709
 20
94.842850
 11
49.099854
 21
94.842850
  0
LINE
  8
0
 10
38.971283
 20
91.642853
 11
49.099854
 21
91.642853
  0
LINE
  8
0
  6
DASHED
 62
     2
 10
64.599838
 20
34.142853
 11
65.099838
 21
34.642853
  0
LINE
  8
0
  6
DASHED
 62
     2
 10
65.099838
 20
53.642853
 11
64.599838
 21
54.142849
  0
LINE
  8
0
  6
DASHED
 62
     2
 10
64.599838
 20
114.142845
 11
65.099838
 21
114.642853
  0
LINE
  8
0
  6
DASHED
 62
     2
 10
64.599838
 20
134.142853
 11
65.099838
 21
133.642853
  0
LINE
  8
0
  6
DASHED
 62
     2
 10
65.099854
 20
53.642853
 11
65.099854
 21
34.642853
  0
LINE
  8
0
  6
DASHED
 62
     2
 10
65.099854
 20
133.642853
 11
65.099854
 21
114.642853
  0
LINE
  8
0
  6
CENTER
 62
     2
 10
-0.900146
 20
106.142853
 11
13.714127
 21
106.142853
  0
LINE
  8
0
  6
CENTER
 62
     2
 10
-13.900146
 20
113.642853
 11
-13.900146
 21
99.257141
  0
LINE
  8
0
  6
CENTER
 62
     2
 10
6.099854
 20
113.499985
 11
6.099854
 21
99.128571
  0
LINE
  8
0
 10
49.099854
 20
140.142853
 11
49.099854
 21
28.142853
  0
LINE
  8
0
 10
-20.900146
 20
29.142853
 11
49.099854
 21
29.142853
  0
LINE
  8
0
  6
CENTER
 62
     2
 10
-10.900146
 20
25.914291
 11
-10.900146
 21
32.442856
  0
LINE
  8
0
  6
DASHED
 62
     2
 10
29.099850
 20
27.142855
 11
28.899849
 21
31.042864
  0
LINE
  8
0
  6
DASHED
 62
     2
 10
28.099854
 20
28.142853
 11
28.099854
 21
31.042862
  0
LINE
  8
0
  6
DASHED
 62
     2
 10
29.099846
 20
27.142860
 11
28.099844
 21
28.142860
  0
LINE
  8
0
  6
DASHED
 62
     2
 10
19.099852
 20
27.142855
 11
20.099850
 21
28.142853
  0
LINE
  8
0
  6
DASHED
 62
     2
 10
28.099854
 20
28.142853
 11
20.099854
 21
28.142853
  0
LINE
  8
0
  6
DASHED
 62
     2
 10
20.099854
 20
28.142853
 11
20.099854
 21
31.042862
  0
LINE
  8
0
  6
DASHED
 62
     2
 10
19.099844
 20
27.142855
 11
19.314131
 21
31.042856
  0
LINE
  8
0
  6
CENTER
 62
     2
 10
24.099854
 20
32.314285
 11
24.099854
 21
24.785721
  0
LINE
  8
0
  6
CENTER
 62
     2
 10
13.942703
 20
62.142853
 11
-0.800156
 21
62.142853
  0
LINE
  8
0
  6
CENTER
 62
     2
 10
37.099854
 20
42.128571
 11
37.099854
 21
55.485718
  0
LINE
  8
0
  6
CENTER
 62
     2
 10
51.028412
 20
49.142853
 11
30.499847
 21
49.142853
  0
LINE
  8
0
  6
CENTER
 62
     2
 10
-1.328720
 20
49.142853
 11
-14.428726
 21
49.142853
  0
LINE
  8
0
  6
CENTER
 62
     2
 10
-7.900146
 20
42.000000
 11
-7.900146
 21
55.828568
  0
LINE
  8
0
  6
DASHED
 62
     2
 10
-5.900143
 20
27.142866
 11
-6.900144
 21
28.142868
  0
LINE
  8
0
  6
DASHED
 62
     2
 10
-5.900154
 20
27.142862
 11
-6.100153
 21
31.042858
  0
LINE
  8
0
  6
DASHED
 62
     2
 10
-6.900146
 20
28.142853
 11
-6.900146
 21
31.042862
  0
LINE
  8
0
  6
DASHED
 62
     2
 10
-15.900148
 20
27.142855
 11
-15.685863
 21
31.042854
  0
LINE
  8
0
  6
DASHED
 62
     2
 10
-14.900146
 20
28.142853
 11
-14.900146
 21
31.042862
  0
LINE
  8
0
  6
DASHED
 62
     2
 10
-15.900142
 20
27.142857
 11
-14.900141
 21
28.142857
  0
LINE
  8
0
  6
DASHED
 62
     2
 10
-6.900146
 20
28.142853
 11
-14.900146
 21
28.142853
  0
LINE
  8
0
  6
CENTER
 62
     2
 10
6.099854
 20
69.757141
 11
6.099854
 21
55.228577
  0
LINE
  8
0
  6
CENTER
 62
     2
 10
-6.843018
 20
62.142853
 11
-20.900146
 21
62.142853
  0
LINE
  8
0
  6
CENTER
 62
     2
 10
-13.900146
 20
69.757141
 11
-13.900146
 21
55.228577
  0
LINE
  8
0
 10
-19.900148
 20
27.142859
 11
-20.900148
 21
28.142857
  0
LINE
  8
0
 10
48.099842
 20
27.142857
 11
49.099842
 21
28.142855
  0
LINE
  8
0
 10
-20.900146
 20
140.142853
 11
-20.900146
 21
28.157150
  0
LINE
  8
0
 10
-20.900146
 20
76.642853
 11
20.242706
 21
76.642853
  0
LINE
  8
0
 10
-20.900146
 20
73.442856
 11
24.171280
 21
73.442856
  0
LINE
  8
0
 10
-20.900146
 20
71.642853
 11
49.099854
 21
71.642853
  0
LINE
  8
0
 10
-20.900146
 20
69.642853
 11
49.099854
 21
69.642853
  0
LINE
  8
0
 10
-19.900146
 20
27.142853
 11
48.099854
 21
27.142853
  0
LINE
  8
0
  6
CENTER
 62
     2
 10
52.999847
 20
84.142853
 11
-42.643005
 21
84.142853
  0
LINE
  8
0
 10
-24.900146
 20
114.142853
 11
-20.900146
 21
114.142853
  0
LINE
  8
0
 10
-24.900146
 20
134.142853
 11
-20.900146
 21
134.142853
  0
LINE
  8
0
 10
-24.900146
 20
54.142853
 11
-20.900146
 21
54.142853
  0
LINE
  8
0
 10
-24.900146
 20
34.142853
 11
-20.900146
 21
34.142853
  0
LINE
  8
0
  6
DASHED
 62
     2
 10
49.099854
 20
114.142853
 11
64.599854
 21
114.142853
  0
LINE
  8
0
  6
DASHED
 62
     2
 10
49.099854
 20
134.142853
 11
64.599854
 21
134.142853
  0
LINE
  8
0
  6
DASHED
 62
     2
 10
49.099854
 20
34.142853
 11
64.599854
 21
34.142853
  0
LINE
  8
0
  6
DASHED
 62
     2
 10
49.099854
 20
54.142853
 11
64.599854
 21
54.142853
  0
LINE
  8
0
 10
-20.900146
 20
139.142853
 11
49.099854
 21
139.142853
  0
LINE
  8
0
 10
-24.900146
 20
88.014282
 11
-23.400146
 21
88.014282
  0
LINE
  8
0
  6
CENTER
 62
     2
 10
-7.114441
 20
106.142853
 11
-20.900146
 21
106.142853
  0
LINE
  8
0
 10
-19.900146
 20
141.142853
 11
-20.900148
 21
140.142853
  0
LINE
  8
0
 10
48.099838
 20
141.142853
 11
49.099838
 21
140.142853
  0
LINE
  8
0
 10
-20.900146
 20
91.642853
 11
20.242706
 21
91.642853
  0
LINE
  8
0
 10
-20.900146
 20
94.842850
 11
24.171280
 21
94.842850
  0
LINE
  8
0
 10
-20.900146
 20
96.642853
 11
49.099854
 21
96.642853
  0
LINE
  8
0
 10
-19.900146
 20
141.142853
 11
48.099854
 21
141.142853
  0
LINE
  8
0
 10
-20.900146
 20
119.785706
 11
49.099854
 21
119.785706
  0
LINE
  8
0
 10
-20.900146
 20
114.485703
 11
49.099854
 21
114.485703
  0
LINE
  8
0
 10
-24.900152
 20
29.142859
 11
-25.900143
 21
28.142868
  0
LINE
  8
0
 10
-39.900146
 20
29.142860
 11
-38.900146
 21
28.142859
  0
LINE
  8
0
 10
-25.900145
 20
140.142838
 11
-24.900152
 21
139.142853
  0
LINE
  8
0
 10
-38.900146
 20
140.142853
 11
-39.900143
 21
139.142853
  0
LINE
  8
0
 62
     2
 10
-23.400145
 20
88.014282
 11
-24.900146
 21
82.199997
  0
LINE
  8
0
 62
     2
 10
-23.400146
 20
80.257141
 11
-24.900145
 21
86.071419
  0
LINE
  8
0
 10
-23.400146
 20
80.257141
 11
-23.400146
 21
88.014282
  0
LINE
  8
0
 10
-24.900146
 20
80.257141
 11
-23.400146
 21
80.257141
  0
LINE
  8
0
  6
CENTER
 62
     2
 10
-42.900146
 20
124.142853
 11
-17.214447
 21
124.142853
  0
LINE
  8
0
 10
-39.900146
 20
139.142853
 11
-39.900146
 21
29.142853
  0
LINE
  8
0
 10
-38.900146
 20
140.142853
 11
-25.900146
 21
140.142853
  0
LINE
  8
0
 10
-24.900146
 20
29.142853
 11
-24.900146
 21
139.142853
  0
LINE
  8
0
 10
-38.900146
 20
28.142853
 11
-25.900146
 21
28.142853
  0
LINE
  8
0
  6
CENTER
 62
     2
 10
-42.900146
 20
44.142853
 11
-17.214447
 21
44.142853
  0
LINE
  8
0
 10
-24.900146
 20
76.142853
 11
-20.900146
 21
76.142853
  0
LINE
  8
0
 10
-24.900146
 20
92.142853
 11
-20.900146
 21
92.142853
  0
LINE
  8
0
  6
PHANTOM
 62
     3
 10
14.924118
 20
18.978271
 11
14.924118
 21
148.855194
  0
LINE
  8
0
  6
PHANTOM
 62
     3
 10
1.193619
 20
18.978271
 11
1.193619
 21
55.442856
  0
LINE
  8
0
 10
-16.249985
 20
-145.000000
 11
-16.249985
 21
-185.000000
  0
LINE
  8
0
 10
-36.249985
 20
-145.000000
 11
-36.249985
 21
-185.000000
  0
LINE
  8
0
 10
-76.249985
 20
-145.000000
 11
-76.249985
 21
-185.000000
  0
LINE
  8
0
 10
-96.249985
 20
-145.000000
 11
-96.249985
 21
-185.000000
  0
LINE
  8
0
 10
-116.249985
 20
-145.000000
 11
-116.249985
 21
-185.000000
  0
LINE
  8
0
 10
-136.249985
 20
-145.000000
 11
-136.249985
 21
-185.000000
  0
LINE
  8
0
 10
-156.249985
 20
-145.000000
 11
-156.249985
 21
-185.000000
  0
LINE
  8
0
 10
-176.249985
 20
-145.000000
 11
-176.249985
 21
-185.000000
  0
LINE
  8
0
 10
-196.249985
 20
-145.000000
 11
-196.249985
 21
-185.000000
  0
LINE
  8
0
 10
-216.249985
 20
-145.000000
 11
-216.249985
 21
-185.000000
  0
LINE
  8
0
 10
-236.249985
 20
-145.000000
 11
-236.249985
 21
-185.000000
  0
LINE
  8
0
 10
-271.250000
 20
-177.000000
 11
-16.249985
 21
-177.000000
  0
LINE
  8
0
 10
-271.250000
 20
-185.000000
 11
-16.249985
 21
-185.000000
  0
LINE
  8
0
 10
-271.250000
 20
-169.000000
 11
-16.249985
 21
-169.000000
  0
LINE
  8
0
 10
-271.250000
 20
-153.000000
 11
-240.537186
 21
-153.000000
  0
LINE
  8
0
 10
-271.250000
 20
-145.000000
 11
-16.249985
 21
-145.000000
  0
LINE
  8
0
 10
-271.249756
 20
-184.999985
 11
-271.249756
 21
-144.999985
  0
LINE
  8
0
 10
-236.249817
 20
-168.999939
 11
-240.537003
 21
-152.999939
  0
LINE
  8
0
 10
-56.249985
 20
-145.000000
 11
-56.249985
 21
-185.000000
  0
LINE
  8
0
 10
-121.250000
 20
195.500000
 11
-121.250000
 21
175.500000
  0
LINE
  8
0
 10
282.099854
 20
195.500000
 11
282.099854
 21
-195.000000
  0
LINE
  8
0
 10
-281.250000
 20
195.500000
 11
282.099854
 21
195.500000
  0
LINE
  8
0
 10
-281.250000
 20
195.500000
 11
-281.250000
 21
-195.000000
  0
LINE
  8
0
 10
-281.250000
 20
-195.000000
 11
282.099854
 21
-195.000000
  0
LINE
  8
0
 10
162.099976
 20
-175.000000
 11
162.099976
 21
-195.000000
  0
LINE
  8
0
 10
162.099976
 20
-175.000000
 11
282.099854
 21
-175.000000
  0
LINE
  8
0
 10
162.099976
 20
175.500000
 11
282.099854
 21
175.500000
  0
LINE
  8
0
 10
-281.250000
 20
175.500000
 11
-121.250000
 21
175.500000
  0
LINE
  8
0
 10
162.099976
 20
195.500000
 11
162.099976
 21
175.500000
  0
CIRCLE
  8
0
 10
-6.264114
 20
-84.221092
 40
1.000000
  0
CIRCLE
  8
0
 10
6.463806
 20
-71.493172
 40
1.000000
  0
CIRCLE
  8
0
 10
0.099854
 20
-77.857132
 40
1.650000
  0
CIRCLE
  8
0
 10
0.099854
 20
-77.857132
 40
11.500000
  0
CIRCLE
  8
0
 10
0.099854
 20
-77.857132
 40
11.999999
  0
CIRCLE
  8
0
 10
37.099854
 20
-112.857132
 40
3.999998
  0
CIRCLE
  8
0
 62
     2
 10
37.099854
 20
-112.857132
 40
5.000000
  0
CIRCLE
  8
0
 10
-7.900162
 20
-112.857132
 40
3.999998
  0
CIRCLE
  8
0
 62
     2
 10
-7.900162
 20
-112.857132
 40
5.000000
  0
CIRCLE
  8
0
  6
DASHED
 62
     2
 10
6.099838
 20
-99.857132
 40
4.286999
  0
CIRCLE
  8
0
 10
6.099838
 20
-99.857132
 40
5.499999
  0
CIRCLE
  8
0
 10
6.099838
 20
-99.857132
 40
3.299999
  0
CIRCLE
  8
0
  6
DASHED
 62
     2
 10
-13.900162
 20
-99.857117
 40
4.286999
  0
CIRCLE
  8
0
 10
-13.900162
 20
-99.857117
 40
5.499999
  0
CIRCLE
  8
0
 10
-13.900162
 20
-99.857117
 40
3.299999
  0
CIRCLE
  8
0
  6
DASHED
 62
     2
 10
6.099869
 20
-55.857147
 40
4.286999
  0
CIRCLE
  8
0
 10
6.099869
 20
-55.857147
 40
5.499999
  0
CIRCLE
  8
0
 10
6.099869
 20
-55.857147
 40
3.299999
  0
CIRCLE
  8
0
  6
DASHED
 62
     2
 10
-13.900131
 20
-55.857147
 40
4.286999
  0
CIRCLE
  8
0
 10
-13.900131
 20
-55.857147
 40
5.499999
  0
CIRCLE
  8
0
 10
-13.900131
 20
-55.857147
 40
3.299999
  0
ARC
  8
0
 10
-30.400137
 20
-77.864273
 40
8.002698
 50
331.009949
 51
28.990059
  0
CIRCLE
  8
0
 62
     2
 10
160.099838
 20
34.142853
 40
3.999998
  0
CIRCLE
  8
0
 10
160.099838
 20
34.142853
 40
3.012999
  0
CIRCLE
  8
0
 10
177.099838
 20
124.142853
 40
10.000000
  0
CIRCLE
  8
0
 10
177.099838
 20
44.142853
 40
10.000000
  0
CIRCLE
  8
0
 10
160.099854
 20
49.142853
 40
1.499998
  0
CIRCLE
  8
0
 10
177.099838
 20
84.142853
 40
16.999985
  0
CIRCLE
  8
0
 10
177.099838
 20
124.142853
 40
11.500000
  0
CIRCLE
  8
0
 10
160.099854
 20
134.142853
 40
3.012999
  0
CIRCLE
  8
0
 62
     2
 10
160.099854
 20
134.142853
 40
3.999998
  0
CIRCLE
  8
0
 10
194.099823
 20
134.142853
 40
3.012999
  0
CIRCLE
  8
0
 62
     2
 10
194.099823
 20
134.142853
 40
3.999998
  0
CIRCLE
  8
0
 10
194.099823
 20
34.142853
 40
3.012999
  0
CIRCLE
  8
0
 62
     2
 10
194.099823
 20
34.142853
 40
3.999998
  0
CIRCLE
  8
0
 10
177.099838
 20
44.142853
 40
11.500000
  0
ARC
  8
0
 10
196.499832
 20
75.042854
 40
2.099998
 50
90.000000
 51
270.000000
  0
ARC
  8
0
 10
196.499832
 20
93.242851
 40
2.099998
 50
90.000000
 51
270.000000
  0
ARC
  8
0
 10
157.699844
 20
75.042854
 40
2.099998
 50
270.000000
 51
90.000000
  0
ARC
  8
0
 10
157.699844
 20
93.242851
 40
2.099998
 50
270.000000
 51
90.000000
  0
CIRCLE
  8
0
 10
177.099838
 20
84.142853
 40
10.499999
  0
CIRCLE
  8
0
 10
-167.900146
 20
84.142853
 40
4.599998
  0
CIRCLE
  8
0
 10
-167.900146
 20
124.142853
 40
4.599998
  0
CIRCLE
  8
0
 10
-167.900146
 20
44.142853
 40
4.599998
  0
CIRCLE
  8
0
 10
-181.900146
 20
36.142868
 40
3.374998
  0
CIRCLE
  8
0
 62
     2
 10
-181.900146
 20
36.142868
 40
3.999998
  0
CIRCLE
  8
0
 10
-181.900146
 20
132.142838
 40
3.374998
  0
CIRCLE
  8
0
 62
     2
 10
-181.900146
 20
132.142838
 40
3.999998
  0
CIRCLE
  8
0
 10
-153.900146
 20
36.142868
 40
3.374998
  0
CIRCLE
  8
0
 62
     2
 10
-153.900146
 20
36.142868
 40
3.999998
  0
CIRCLE
  8
0
 10
-153.900146
 20
132.142838
 40
3.374998
  0
CIRCLE
  8
0
 62
     2
 10
-153.900146
 20
132.142838
 40
3.999998
  0
CIRCLE
  8
0
 10
-167.900146
 20
124.142853
 40
7.500000
  0
CIRCLE
  8
0
 10
-167.900146
 20
44.142853
 40
7.500000
  0
CIRCLE
  8
0
 10
-167.900146
 20
84.142853
 40
7.500000
  0
CIRCLE
  8
0
 10
23.235901
 20
77.778893
 40
1.000000
  0
CIRCLE
  8
0
 10
35.963821
 20
90.506813
 40
1.000000
  0
CIRCLE
  8
0
 10
29.599854
 20
84.142853
 40
1.650000
  0
CIRCLE
  8
0
 10
29.599854
 20
84.142853
 40
11.500000
  0
CIRCLE
  8
0
 10
29.599854
 20
84.142853
 40
11.999999
  0
CIRCLE
  8
0
 10
37.099854
 20
49.142853
 40
3.999998
  0
CIRCLE
  8
0
 62
     2
 10
37.099854
 20
49.142853
 40
5.000000
  0
CIRCLE
  8
0
 10
-7.900146
 20
49.142853
 40
3.999998
  0
CIRCLE
  8
0
 62
     2
 10
-7.900146
 20
49.142853
 40
5.000000
  0
CIRCLE
  8
0
  6
DASHED
 62
     2
 10
6.099823
 20
62.142853
 40
4.286999
  0
CIRCLE
  8
0
 10
6.099823
 20
62.142853
 40
5.499999
  0
CIRCLE
  8
0
 10
6.099823
 20
62.142853
 40
3.299999
  0
CIRCLE
  8
0
  6
DASHED
 62
     2
 10
-13.900146
 20
62.142868
 40
4.286999
  0
CIRCLE
  8
0
 10
-13.900146
 20
62.142868
 40
5.499999
  0
CIRCLE
  8
0
 10
-13.900146
 20
62.142868
 40
3.299999
  0
CIRCLE
  8
0
  6
DASHED
 62
     2
 10
6.099869
 20
106.142838
 40
4.286999
  0
CIRCLE
  8
0
 10
6.099869
 20
106.142838
 40
5.499999
  0
CIRCLE
  8
0
 10
6.099869
 20
106.142838
 40
3.299999
  0
CIRCLE
  8
0
  6
DASHED
 62
     2
 10
-13.900131
 20
106.142838
 40
4.286999
  0
CIRCLE
  8
0
 10
-13.900131
 20
106.142838
 40
5.499999
  0
CIRCLE
  8
0
 10
-13.900131
 20
106.142838
 40
3.299999
  0
ARC
  8
0
 10
-30.400150
 20
84.135712
 40
8.002708
 50
331.009979
 51
28.990019
  0
TEXT
  8
0
 62
     3
 10
-30.347742
 20
164.241074
 40
4.500000
  1
STRETCH LINE A
 50
0.000000
 41
1.052632
 51
0.000000
  7
STANDARD
  0
TEXT
  8
0
 62
     3
 10
2.189590
 20
153.284622
 40
4.500000
  1
STRETCH LINE B
 50
0.000000
 41
1.052632
 51
0.000000
  7
STANDARD
  0
TEXT
  8
0
 62
     3
 10
-30.347742
 20
-1.758931
 40
4.500000
  1
STRETCH LINE A
 50
0.000000
 41
1.052632
 51
0.000000
  7
STANDARD
  0
TEXT
  8
0
 62
     3
 10
2.189590
 20
-12.715378
 40
4.500000
  1
STRETCH LINE B
 50
0.000000
 41
1.052632
 51
0.000000
  7
STANDARD
  0
TEXT
  8
0
 10
-256.392670
 20
-184.050003
 40
4.500000
  1
B
 50
0.000000
 41
1.052632
 51
0.000000
  7
STANDARD
  0
TEXT
  8
0
 10
-256.392670
 20
-176.050003
 40
4.500000
  1
A
 50
0.000000
 41
1.052632
 51
0.000000
  7
STANDARD
  0
TEXT
  8
0
 10
-271.892670
 20
-159.324997
 40
4.500000
  1
STRETCH
 50
0.000000
 41
1.052632
 51
0.000000
  7
STANDARD
  0
TEXT
  8
0
 10
-271.892670
 20
-166.074997
 40
4.500000
  1
  PLACE
 50
0.000000
 41
1.052632
 51
0.000000
  7
STANDARD
  0
TEXT
  8
0
 10
-267.642670
 20
-151.550003
 40
4.500000
  1
STROKE
 50
0.000000
 41
1.052632
 51
0.000000
  7
STANDARD
  0
TEXT
  8
0
 10
-231.142654
 20
-160.050003
 40
4.500000
  1
10
 50
0.000000
 41
1.052632
 51
0.000000
  7
STANDARD
  0
TEXT
  8
0
 10
-211.142654
 20
-160.050003
 40
4.500000
  1
20
 50
0.000000
 41
1.052632
 51
0.000000
  7
STANDARD
  0
TEXT
  8
0
 10
-191.142654
 20
-160.050003
 40
4.500000
  1
30
 50
0.000000
 41
1.052632
 51
0.000000
  7
STANDARD
  0
TEXT
  8
0
 10
-171.142654
 20
-160.050003
 40
4.500000
  1
40
 50
0.000000
 41
1.052632
 51
0.000000
  7
STANDARD
  0
TEXT
  8
0
 10
-151.142654
 20
-160.050003
 40
4.500000
  1
50
 50
0.000000
 41
1.052632
 51
0.000000
  7
STANDARD
  0
TEXT
  8
0
 10
-131.142654
 20
-160.050003
 40
4.500000
  1
75
 50
0.000000
 41
1.052632
 51
0.000000
  7
STANDARD
  0
TEXT
  8
0
 10
-113.392654
 20
-160.050003
 40
4.500000
  1
100
 50
0.000000
 41
1.052632
 51
0.000000
  7
STANDARD
  0
TEXT
  8
0
 10
-93.392654
 20
-160.050003
 40
4.500000
  1
125
 50
0.000000
 41
1.052632
 51
0.000000
  7
STANDARD
  0
TEXT
  8
0
 10
-73.392654
 20
-160.050003
 40
4.500000
  1
150
 50
0.000000
 41
1.052632
 51
0.000000
  7
STANDARD
  0
TEXT
  8
0
 10
-53.392658
 20
-160.050003
 40
4.500000
  1
175
 50
0.000000
 41
1.052632
 51
0.000000
  7
STANDARD
  0
TEXT
  8
0
 10
-33.392658
 20
-160.050003
 40
4.500000
  1
200
 50
0.000000
 41
1.052632
 51
0.000000
  7
STANDARD
  0
TEXT
  8
0
 10
-228.742187
 20
-176.050003
 40
4.500000
  1
0
 50
0.000000
 41
1.052632
 51
0.000000
  7
STANDARD
  0
TEXT
  8
0
 10
-228.742187
 20
-184.050003
 40
4.500000
  1
0
 50
0.000000
 41
1.052632
 51
0.000000
  7
STANDARD
  0
TEXT
  8
0
 10
-210.992187
 20
-176.050003
 40
4.500000
  1
10
 50
0.000000
 41
1.052632
 51
0.000000
  7
STANDARD
  0
TEXT
  8
0
 10
-208.742187
 20
-184.050003
 40
4.500000
  1
0
 50
0.000000
 41
1.052632
 51
0.000000
  7
STANDARD
  0
TEXT
  8
0
 10
-190.992187
 20
-176.050003
 40
4.500000
  1
20
 50
0.000000
 41
1.052632
 51
0.000000
  7
STANDARD
  0
TEXT
  8
0
 10
-188.742187
 20
-184.050003
 40
4.500000
  1
0
 50
0.000000
 41
1.052632
 51
0.000000
  7
STANDARD
  0
TEXT
  8
0
 10
-170.992187
 20
-176.050003
 40
4.500000
  1
30
 50
0.000000
 41
1.052632
 51
0.000000
  7
STANDARD
  0
TEXT
  8
0
 10
-168.742187
 20
-184.050003
 40
4.500000
  1
0
 50
0.000000
 41
1.052632
 51
0.000000
  7
STANDARD
  0
TEXT
  8
0
 10
-150.992187
 20
-176.050003
 40
4.500000
  1
40
 50
0.000000
 41
1.052632
 51
0.000000
  7
STANDARD
  0
TEXT
  8
0
 10
-148.742187
 20
-184.050003
 40
4.500000
  1
0
 50
0.000000
 41
1.052632
 51
0.000000
  7
STANDARD
  0
TEXT
  8
0
 10
-130.992187
 20
-176.050003
 40
4.500000
  1
40
 50
0.000000
 41
1.052632
 51
0.000000
  7
STANDARD
  0
TEXT
  8
0
 10
-130.992187
 20
-184.050003
 40
4.500000
  1
25
 50
0.000000
 41
1.052632
 51
0.000000
  7
STANDARD
  0
TEXT
  8
0
 10
-110.992187
 20
-176.050003
 40
4.500000
  1
40
 50
0.000000
 41
1.052632
 51
0.000000
  7
STANDARD
  0
TEXT
  8
0
 10
-110.992187
 20
-184.050003
 40
4.500000
  1
50
 50
0.000000
 41
1.052632
 51
0.000000
  7
STANDARD
  0
TEXT
  8
0
 10
-90.992187
 20
-176.050003
 40
4.500000
  1
90
 50
0.000000
 41
1.052632
 51
0.000000
  7
STANDARD
  0
TEXT
  8
0
 10
-90.992187
 20
-184.050003
 40
4.500000
  1
25
 50
0.000000
 41
1.052632
 51
0.000000
  7
STANDARD
  0
TEXT
  8
0
 10
-70.992187
 20
-176.050003
 40
4.500000
  1
90
 50
0.000000
 41
1.052632
 51
0.000000
  7
STANDARD
  0
TEXT
  8
0
 10
-70.992187
 20
-184.050003
 40
4.500000
  1
50
 50
0.000000
 41
1.052632
 51
0.000000
  7
STANDARD
  0
TEXT
  8
0
 10
-50.992187
 20
-176.050003
 40
4.500000
  1
90
 50
0.000000
 41
1.052632
 51
0.000000
  7
STANDARD
  0
TEXT
  8
0
 10
-50.992187
 20
-184.050003
 40
4.500000
  1
75
 50
0.000000
 41
1.052632
 51
0.000000
  7
STANDARD
  0
TEXT
  8
0
 10
-30.992187
 20
-176.050003
 40
4.500000
  1
90
 50
0.000000
 41
1.052632
 51
0.000000
  7
STANDARD
  0
TEXT
  8
0
 10
-33.242187
 20
-184.050003
 40
4.500000
  1
100
 50
0.000000
 41
1.052632
 51
0.000000
  7
STANDARD
  0
TEXT
  8
0
 10
-173.642654
 20
-143.050003
 40
4.500000
  1
STRETCH LIST
 50
0.000000
 41
1.052632
 51
0.000000
  7
STANDARD
  0
TEXT
  8
0
 10
-35.642658
 20
-145.050003
 40
4.500000
  1
（ｍｍ）
 50
0.000000
 41
0.833333
 51
0.000000
  7
STANDARD
  0
TEXT
  8
0
 10
-232.249710
 20
147.830002
 40
6.300000
  1
SGDAK32*ST(10)-RL
 50
0.000000
 41
1.052632
 51
0.000000
  7
STANDARD
  0
TEXT
  8
0
 10
196.250259
 20
180.830002
 40
6.300000
  1
Ｖｅｒ．　１．０
 50
0.000000
 41
0.833333
 51
0.000000
  7
STANDARD
  0
TEXT
  8
0
 10
167.564667
 20
-192.100006
 40
9.000000
  1
KOGANEI CORP.
 50
0.000000
 41
1.052632
 51
0.000000
  7
STANDARD
  0
TEXT
  8
0
 10
-274.349731
 20
180.830002
 40
6.300000
  1
JIG CYLINDER WITH GUIDE
 50
0.000000
 41
1.052632
 51
0.000000
  7
STANDARD
  0
TEXT
  8
0
 10
-270.049713
 20
155.830002
 40
6.300000
  1
MODEL:SGDAK32*ST(10)-HL
 50
0.000000
 41
1.052632
 51
0.000000
  7
STANDARD
  0
TEXT
  8
0
 62
     2
 10
75.860596
 20
11.833733
 40
3.200000
  1
STROKE:75-200
 50
0.000000
 41
1.052632
 51
0.000000
  7
STANDARD
  0
LINE
  8
0
 62
     2
 10
65.099838
 20
10.833733
 11
117.210602
 21
10.833733
  0
LINE
  8
0
 62
     2
 10
65.099838
 20
10.833733
 11
49.099838
 21
10.833733
  0
LINE
  8
0
 62
     2
 10
65.099838
 20
10.833733
 11
62.202061
 21
10.057276
  0
LINE
  8
0
 62
     2
 10
65.099838
 20
10.833733
 11
62.202061
 21
11.610189
  0
LINE
  8
0
 62
     2
 10
49.099838
 20
10.833733
 11
51.997616
 21
11.610189
  0
LINE
  8
0
 62
     2
 10
49.099838
 20
10.833733
 11
51.997616
 21
10.057276
  0
LINE
  8
0
 62
     2
 10
65.099838
 20
34.642853
 11
65.099838
 21
9.333733
  0
LINE
  8
0
 62
     2
 10
49.099838
 20
28.142853
 11
49.099838
 21
9.333733
  0
ENDSEC
  0
EOF
