  0
SECTION
  2
HEADER
  0
ENDSEC
  0
SECTION
  2
TABLES
  0
TABLE
  2
LTYPE
 70
     4
  0
LTYPE
  2
CONTINUOUS
 70
    64
  3
Solid line
 72
    65
 73
     0
 40
0.000000
  0
LTYPE
  2
DASHED
 70
    64
  3
__ __ __ __ __ __ __ __ __ __ __ __ __ __ __
 72
    65
 73
     2
 40
3.500000
 49
2.000000
 49
-1.500000
  0
LTYPE
  2
CENTER
 70
    64
  3
____ _ ____ _ ____ _ ____ _ ____ _ ____ _ ____
 72
    65
 73
     4
 40
17.500000
 49
13.000000
 49
-1.500000
 49
1.500000
 49
-1.500000
  0
LTYPE
  2
PHANTOM
 70
    64
  3
_____ _ _ _____ _ _ _____ _ _ _____ _ _ ____  
 72
    65
 73
     6
 40
15.500000
 49
8.000000
 49
-1.500000
 49
1.500000
 49
-1.500000
 49
1.500000
 49
-1.500000
  0
LTYPE
  2
DASHED1
 70
    64
  3
__ __ __ __ __ __ __ __ __ __ __ __ __ __ __
 72
    65
 73
     2
 40
1.500000
 49
1.000000
 49
-0.500000
  0
LTYPE
  2
DASHED2
 70
    64
  3
__ __ __ __ __ __ __ __ __ __ __ __ __ __ __
 72
    65
 73
     2
 40
3.500000
 49
2.500000
 49
-1.000000
  0
LTYPE
  2
DASHED3
 70
    64
  3
__ __ __ __ __ __ __ __ __ __ __ __ __ __ __
 72
    65
 73
     2
 40
6.000000
 49
4.000000
 49
-2.000000
  0
LTYPE
  2
DASHED4
 70
    64
  3
__ __ __ __ __ __ __ __ __ __ __ __ __ __ __
 72
    65
 73
     2
 40
12.000000
 49
10.000000
 49
-2.000000
  0
LTYPE
  2
DASHED5
 70
    64
  3
__ __ __ __ __ __ __ __ __ __ __ __ __ __ __
 72
    65
 73
     2
 40
17.000000
 49
15.000000
 49
-2.000000
  0
LTYPE
  2
DASHED6
 70
    64
  3
__ __ __ __ __ __ __ __ __ __ __ __ __ __ __
 72
    65
 73
     2
 40
29.000000
 49
27.000000
 49
-2.000000
  0
LTYPE
  2
PHANTOM1
 70
    64
  3
_____ _ _ _____ _ _ _____ _ _ _____ _ _ ____  
 72
    65
 73
     6
 40
31.000000
 49
25.000000
 49
-1.500000
 49
1.000000
 49
-1.000000
 49
1.000000
 49
-1.500000
  0
LTYPE
  2
PHANTOM2
 70
    64
  3
_____ _ _ _____ _ _ _____ _ _ _____ _ _ ____  
 72
    65
 73
     6
 40
36.000000
 49
27.000000
 49
-1.500000
 49
2.500000
 49
-1.000000
 49
2.500000
 49
-1.500000
  0
LTYPE
  2
PHANTOM3
 70
    64
  3
_____ _ _ _____ _ _ _____ _ _ _____ _ _ ____  
 72
    65
 73
     6
 40
78.000000
 49
64.000000
 49
-2.000000
 49
4.000000
 49
-2.000000
 49
4.000000
 49
-2.000000
  0
LTYPE
  2
CENTER1
 70
    64
  3
____ _ ____ _ ____ _ ____ _ ____ _ ____ _ ____
 72
    65
 73
     4
 40
19.000000
 49
14.000000
 49
-1.000000
 49
3.000000
 49
-1.000000
  0
LTYPE
  2
CENTER2
 70
    64
  3
____ _ ____ _ ____ _ ____ _ ____ _ ____ _ ____
 72
    65
 73
     4
 40
28.500000
 49
25.000000
 49
-1.000000
 49
1.500000
 49
-1.000000
  0
LTYPE
  2
CENTER3
 70
    64
  3
____ _ ____ _ ____ _ ____ _ ____ _ ____ _ ____
 72
    65
 73
     4
 40
31.500000
 49
27.000000
 49
-1.000000
 49
2.500000
 49
-1.000000
  0
LTYPE
  2
CENTER4
 70
    64
  3
____ _ ____ _ ____ _ ____ _ ____ _ ____ _ ____
 72
    65
 73
     4
 40
50.000000
 49
45.000000
 49
-1.000000
 49
3.000000
 49
-1.000000
  0
LTYPE
  2
CENTER5
 70
    64
  3
____ _ ____ _ ____ _ ____ _ ____ _ ____ _ ____
 72
    65
 73
     4
 40
100.000000
 49
92.000000
 49
-2.000000
 49
4.000000
 49
-2.000000
  0
LTYPE
  2
SBK1
 70
    64
  3
______ _ _ _ ______ _ _ _ ______ _ _ _ _____  
 72
    65
 73
     8
 40
60.500000
 49
45.000000
 49
-2.000000
 49
2.500000
 49
-2.000000
 49
2.500000
 49
-2.000000
 49
2.500000
 49
-2.000000
  0
LTYPE
  2
SBK2
 70
    64
  3
______ _ _ _ ______ _ _ _ ______ _ _ _ _____  
 72
    65
 73
     8
 40
84.000000
 49
64.000000
 49
-2.000000
 49
4.000000
 49
-2.000000
 49
4.000000
 49
-2.000000
 49
4.000000
 49
-2.000000
  0
LTYPE
  2
STCH
 70
    64
  3
__ __ __ __ __ __ __ __ __ __ __ __ __ __ __
 72
    65
 73
     2
 40
3.000000
 49
1.000000
 49
-2.000000
  0
LTYPE
  2
MTCH
 70
    64
  3
_____ _ _ _____ _ _ _____ _ _ _____ _ _ ____  
 72
    65
 73
     6
 40
80.000000
 49
66.000000
 49
-2.000000
 49
4.000000
 49
-2.000000
 49
4.000000
 49
-2.000000
  0
ENDTAB
  0
TABLE
  2
LAYER
 70
     1
  0
LAYER
  2
0
 70
     0
 62
     7
  6
CONTINUOUS
  0
ENDTAB
  0
TABLE
  2
STYLE
 70
     1
  0
STYLE
  2
STANDARD
 70
     0
 40
0.000000
 41
1.000000
 50
0.000000
 71
     0
 42
0.200000
  3
txt
  4
BIGFONT
  0
ENDTAB
  0
TABLE
  2
VIEW
 70
     0
  0
ENDTAB
  0
ENDSEC
  0
SECTION
  2
BLOCKS
  0
ENDSEC
  0
SECTION
  2
ENTITIES
  0
LINE
  8
0
 10
-27.199982
 20
-65.233185
 11
-24.199982
 21
-65.233185
  0
LINE
  8
0
  6
CENTER
 62
     2
 10
-38.639980
 20
-45.733185
 11
-22.609982
 21
-45.733185
  0
LINE
  8
0
 10
-23.699982
 20
-35.233185
 11
32.300018
 21
-35.233185
  0
LINE
  8
0
 10
-27.199982
 20
-101.733185
 11
-27.199982
 21
-36.733185
  0
LINE
  8
0
 10
-37.199982
 20
-36.733185
 11
-37.199982
 21
-101.733185
  0
LINE
  8
0
 10
-36.699982
 20
-102.233185
 11
-27.699982
 21
-102.233185
  0
LINE
  8
0
 10
-36.699982
 20
-36.233185
 11
-27.699982
 21
-36.233185
  0
LINE
  8
0
 10
-27.199982
 20
-73.233185
 11
-24.199982
 21
-73.233185
  0
LINE
  8
0
 10
-27.199982
 20
-97.733185
 11
-24.199982
 21
-97.733185
  0
LINE
  8
0
 10
-27.199982
 20
-87.733185
 11
-24.199982
 21
-87.733185
  0
LINE
  8
0
  6
CENTER
 62
     2
 10
-38.639980
 20
-92.733185
 11
-22.259983
 21
-92.733185
  0
LINE
  8
0
 10
-27.199982
 20
-71.173187
 11
-25.699982
 21
-71.173187
  0
LINE
  8
0
 10
-25.699982
 20
-67.303185
 11
-25.699982
 21
-71.173187
  0
LINE
  8
0
 10
-27.199984
 20
-68.273186
 11
-25.699982
 21
-71.173187
  0
LINE
  8
0
 10
-25.699982
 20
-67.303185
 11
-27.199982
 21
-70.203186
  0
LINE
  8
0
 10
-37.199978
 20
-101.733162
 11
-36.699978
 21
-102.233170
  0
LINE
  8
0
 10
-27.199989
 20
-101.733177
 11
-27.699982
 21
-102.233170
  0
LINE
  8
0
 10
-36.699982
 20
-36.233204
 11
-37.199982
 21
-36.733204
  0
LINE
  8
0
 10
-27.699982
 20
-36.233192
 11
-27.199986
 21
-36.733189
  0
LINE
  8
0
 10
-23.699984
 20
-35.233185
 11
-24.199986
 21
-35.733189
  0
LINE
  8
0
 10
32.300007
 20
-35.233181
 11
32.800007
 21
-35.733181
  0
LINE
  8
0
 10
-24.199982
 20
-67.333183
 11
-15.929993
 21
-67.333183
  0
LINE
  8
0
 10
-24.199982
 20
-64.533188
 11
-14.379990
 21
-64.533188
  0
LINE
  8
0
 10
-24.199982
 20
-62.733185
 11
-11.789993
 21
-62.733185
  0
LINE
  8
0
 10
-24.199982
 20
-36.233185
 11
32.800018
 21
-36.233185
  0
LINE
  8
0
 10
-24.199982
 20
-45.083191
 11
32.800018
 21
-45.083191
  0
LINE
  8
0
 10
-24.199982
 20
-49.383194
 11
32.800018
 21
-49.383194
  0
LINE
  8
0
 10
-27.199982
 20
-67.303185
 11
-25.699982
 21
-67.303185
  0
LINE
  8
0
  6
CENTER
 62
     2
 10
-24.199982
 20
-56.233185
 11
-14.169983
 21
-56.233185
  0
LINE
  8
0
  6
DASHED
 62
     2
 10
35.800018
 20
-97.233185
 11
35.800018
 21
-88.233185
  0
LINE
  8
0
  6
DASHED
 62
     2
 10
32.800018
 20
-87.733185
 11
35.300018
 21
-87.733185
  0
LINE
  8
0
  6
DASHED
 62
     2
 10
32.800018
 20
-97.733185
 11
35.300018
 21
-97.733185
  0
LINE
  8
0
  6
DASHED
 62
     2
 10
35.300011
 20
-87.733177
 11
35.800011
 21
-88.233177
  0
LINE
  8
0
  6
DASHED
 62
     2
 10
35.799995
 20
-97.233185
 11
35.299995
 21
-97.733185
  0
LINE
  8
0
  6
DASHED
 62
     2
 10
35.800018
 20
-50.233185
 11
35.800018
 21
-41.233185
  0
LINE
  8
0
  6
DASHED
 62
     2
 10
32.800018
 20
-40.733185
 11
35.300018
 21
-40.733185
  0
LINE
  8
0
  6
DASHED
 62
     2
 10
32.800018
 20
-50.733185
 11
35.300018
 21
-50.733185
  0
LINE
  8
0
  6
DASHED
 62
     2
 10
35.299999
 20
-40.733185
 11
35.799999
 21
-41.233185
  0
LINE
  8
0
  6
DASHED
 62
     2
 10
35.800011
 20
-50.233185
 11
35.300011
 21
-50.733185
  0
LINE
  8
0
 10
-24.199982
 20
-61.233185
 11
32.800018
 21
-61.233185
  0
LINE
  8
0
 10
-27.199982
 20
-40.733185
 11
-24.199982
 21
-40.733185
  0
LINE
  8
0
 10
-27.199982
 20
-50.733185
 11
-24.199982
 21
-50.733185
  0
LINE
  8
0
  6
CENTER
 62
     2
 10
-24.199982
 20
-82.233185
 11
-14.529984
 21
-82.233185
  0
LINE
  8
0
  6
CENTER
 62
     2
 10
-19.199982
 20
-87.433182
 11
-19.199982
 21
-77.403183
  0
LINE
  8
0
  6
CENTER
 62
     2
 10
-9.009995
 20
-82.233185
 11
0.920013
 21
-82.233185
  0
LINE
  8
0
  6
CENTER
 62
     2
 10
-4.199982
 20
-87.433182
 11
-4.199982
 21
-77.483185
  0
LINE
  8
0
 10
-24.199982
 20
-71.133186
 11
-15.929993
 21
-71.133186
  0
LINE
  8
0
  6
CENTER
 62
     2
 10
-11.169983
 20
-88.233185
 11
-17.249985
 21
-88.233185
  0
LINE
  8
0
  6
CENTER
 62
     2
 10
33.980011
 20
-88.233185
 11
21.920013
 21
-88.233185
  0
LINE
  8
0
  6
CENTER
 62
     2
 10
25.300018
 20
-97.363174
 11
25.300018
 21
-84.863182
  0
LINE
  8
0
  6
CENTER
 62
     2
 10
-38.819981
 20
-69.233185
 11
34.870010
 21
-69.233185
  0
LINE
  8
0
 10
-23.699982
 20
-103.233185
 11
32.300018
 21
-103.233185
  0
LINE
  8
0
 10
-24.199982
 20
-102.733185
 11
-24.199982
 21
-35.733185
  0
LINE
  8
0
  6
DASHED
 62
     2
 10
14.300018
 20
-103.233185
 11
14.300018
 21
-100.923172
  0
LINE
  8
0
  6
DASHED
 62
     2
 10
19.300018
 20
-103.233185
 11
19.300018
 21
-100.923172
  0
LINE
  8
0
  6
DASHED
 62
     2
 10
14.700012
 20
-103.233185
 11
14.700012
 21
-100.923172
  0
LINE
  8
0
  6
DASHED
 62
     2
 10
18.900009
 20
-103.233185
 11
18.900009
 21
-100.923172
  0
LINE
  8
0
  6
CENTER
 62
     2
 10
-14.199982
 20
-103.963181
 11
-14.199982
 21
-84.863182
  0
LINE
  8
0
  6
DASHED
 62
     2
 10
-17.699982
 20
-103.233185
 11
-17.699982
 21
-100.923172
  0
LINE
  8
0
  6
DASHED
 62
     2
 10
-12.699982
 20
-103.233185
 11
-12.699982
 21
-100.923172
  0
LINE
  8
0
  6
DASHED
 62
     2
 10
-17.299988
 20
-103.233185
 11
-17.299988
 21
-100.923172
  0
LINE
  8
0
  6
DASHED
 62
     2
 10
-13.099991
 20
-103.233185
 11
-13.099991
 21
-100.923172
  0
LINE
  8
0
 10
-24.199982
 20
-102.233185
 11
32.800018
 21
-102.233185
  0
LINE
  8
0
 10
-24.199982
 20
-77.233185
 11
32.800018
 21
-77.233185
  0
LINE
  8
0
 10
-24.199982
 20
-93.733185
 11
32.800018
 21
-93.733185
  0
LINE
  8
0
 10
-24.199982
 20
-96.243179
 11
32.800018
 21
-96.243179
  0
LINE
  8
0
 10
-24.199982
 20
-99.823181
 11
32.800018
 21
-99.823181
  0
LINE
  8
0
 10
-24.199982
 20
-73.933182
 11
-14.379990
 21
-73.933182
  0
LINE
  8
0
 10
-24.199982
 20
-75.733185
 11
-11.789993
 21
-75.733185
  0
LINE
  8
0
 10
32.800007
 20
-102.733185
 11
32.300007
 21
-103.233192
  0
LINE
  8
0
 10
-24.199984
 20
-102.733185
 11
-23.699982
 21
-103.233185
  0
LINE
  8
0
 62
     2
 10
16.800018
 20
-104.243179
 11
16.800018
 21
-99.953171
  0
LINE
  8
0
 10
32.800018
 20
-102.733185
 11
32.800018
 21
-35.733185
  0
LINE
  8
0
  6
CENTER
 62
     2
 10
-4.199982
 20
-51.283188
 11
-4.199982
 21
-61.213184
  0
LINE
  8
0
  6
CENTER
 62
     2
 10
-19.199982
 20
-51.363190
 11
-19.199982
 21
-61.173187
  0
LINE
  8
0
  6
CENTER
 62
     2
 10
-9.199982
 20
-56.233185
 11
0.930008
 21
-56.233185
  0
LINE
  8
0
  6
CENTER
 62
     2
 10
-15.199982
 20
-103.233185
 11
-15.199982
 21
-100.093170
  0
LINE
  8
0
  6
CENTER
 62
     2
 10
-9.199982
 20
-61.293186
 11
-9.199982
 21
-77.043182
  0
LINE
  8
0
 10
-4.009995
 20
-64.533188
 11
32.800018
 21
-64.533188
  0
LINE
  8
0
 10
-6.599991
 20
-62.733185
 11
32.800018
 21
-62.733185
  0
LINE
  8
0
 10
-2.459991
 20
-67.333183
 11
32.800018
 21
-67.333183
  0
LINE
  8
0
 10
-2.459991
 20
-71.133186
 11
32.800018
 21
-71.133186
  0
LINE
  8
0
 10
-4.009995
 20
-73.933182
 11
32.800018
 21
-73.933182
  0
LINE
  8
0
 10
-6.599991
 20
-75.733185
 11
32.800018
 21
-75.733185
  0
LINE
  8
0
  6
PHANTOM
 62
     3
 10
-17.010651
 20
-77.849106
 11
-17.010651
 21
-60.593426
  0
LINE
  8
0
  6
PHANTOM
 62
     3
 10
-17.010662
 20
-60.593430
 11
-10.966449
 21
-58.973888
  0
LINE
  8
0
  6
PHANTOM
 62
     3
 10
-17.010658
 20
-77.849106
 11
-10.898602
 21
-79.486824
  0
LINE
  8
0
  6
PHANTOM
 62
     3
 10
-10.898605
 20
-109.757416
 11
-10.898605
 21
-79.486824
  0
LINE
  8
0
  6
PHANTOM
 62
     3
 10
9.376923
 20
-109.911026
 11
9.376923
 21
-30.000000
  0
LINE
  8
0
  6
PHANTOM
 62
     3
 10
-10.966446
 20
-58.973885
 11
-10.966446
 21
-23.690170
  0
LINE
  8
0
  6
CENTER
 62
     2
 10
117.300003
 20
16.130005
 11
117.300003
 21
20.100006
  0
LINE
  8
0
  6
DASHED
 62
     2
 10
114.800003
 20
17.000000
 11
114.800003
 21
19.310013
  0
LINE
  8
0
  6
DASHED
 62
     2
 10
119.800003
 20
17.000000
 11
119.800003
 21
19.310013
  0
LINE
  8
0
  6
DASHED
 62
     2
 10
114.800003
 20
21.000000
 11
119.800003
 21
21.000000
  0
LINE
  8
0
  6
DASHED
 62
     2
 10
119.400002
 20
17.000000
 11
119.400002
 21
19.310013
  0
LINE
  8
0
  6
DASHED
 62
     2
 10
115.200005
 20
17.000000
 11
115.200005
 21
19.310013
  0
LINE
  8
0
  6
CENTER
 62
     2
 10
126.800003
 20
14.690002
 11
126.800003
 21
88.119995
  0
LINE
  8
0
  6
CENTER
 62
     2
 10
108.590012
 20
51.000000
 11
144.139999
 21
51.000000
  0
LINE
  8
0
 10
140.300003
 20
52.000000
 11
138.699997
 21
52.000000
  0
LINE
  8
0
 10
140.300003
 20
56.200001
 11
138.699997
 21
56.200001
  0
LINE
  8
0
 10
141.300003
 20
49.799999
 11
141.300003
 21
52.200001
  0
LINE
  8
0
 10
141.000000
 20
55.700001
 11
140.800003
 21
55.700001
  0
LINE
  8
0
 10
141.000000
 20
52.500000
 11
140.800003
 21
52.500000
  0
LINE
  8
0
 10
140.300003
 20
52.000000
 11
140.800003
 21
52.500000
  0
LINE
  8
0
 10
140.800003
 20
55.700001
 11
140.300003
 21
56.200001
  0
LINE
  8
0
 10
141.300003
 20
56.000000
 11
141.300003
 21
57.500000
  0
LINE
  8
0
 10
140.300003
 20
50.000000
 11
138.699997
 21
50.000000
  0
LINE
  8
0
 10
140.300003
 20
45.799999
 11
138.699997
 21
45.799999
  0
LINE
  8
0
 10
141.000000
 20
46.299999
 11
140.800003
 21
46.299999
  0
LINE
  8
0
 10
141.000000
 20
49.500000
 11
140.800003
 21
49.500000
  0
LINE
  8
0
 10
140.300003
 20
50.000000
 11
140.800003
 21
49.500000
  0
LINE
  8
0
 10
140.800003
 20
46.299999
 11
140.300003
 21
45.799999
  0
LINE
  8
0
 10
141.300003
 20
57.499996
 11
142.799988
 21
58.999989
  0
LINE
  8
0
 10
141.300003
 20
46.000000
 11
141.300003
 21
44.500000
  0
LINE
  8
0
 10
141.300003
 20
44.500004
 11
142.799988
 21
43.000008
  0
LINE
  8
0
 10
141.800003
 20
85.000000
 11
111.800003
 21
85.000000
  0
LINE
  8
0
 10
141.800003
 20
84.999985
 11
142.800003
 21
83.999992
  0
LINE
  8
0
 10
115.800003
 20
76.649994
 11
112.300003
 21
76.649994
  0
LINE
  8
0
 10
115.800003
 20
69.349991
 11
112.300003
 21
69.349991
  0
LINE
  8
0
 10
112.300003
 20
75.149994
 11
111.100006
 21
75.149994
  0
LINE
  8
0
 10
112.300003
 20
70.849991
 11
111.100006
 21
70.849991
  0
LINE
  8
0
 10
115.800003
 20
69.349991
 11
115.800003
 21
76.649994
  0
LINE
  8
0
 10
112.300003
 20
69.349991
 11
112.300003
 21
70.849991
  0
LINE
  8
0
 10
112.300003
 20
75.149994
 11
112.300003
 21
76.649994
  0
LINE
  8
0
 10
110.800003
 20
75.449997
 11
110.800003
 21
84.000000
  0
LINE
  8
0
 10
111.800011
 20
84.999992
 11
110.800003
 21
83.999992
  0
LINE
  8
0
  6
CENTER
 62
     2
 10
134.089996
 20
74.500000
 11
119.460007
 21
74.500000
  0
LINE
  8
0
 10
113.300003
 20
52.000000
 11
114.900002
 21
52.000000
  0
LINE
  8
0
 10
113.300003
 20
56.200001
 11
114.900002
 21
56.200001
  0
LINE
  8
0
 10
112.300003
 20
49.799999
 11
112.300003
 21
52.200001
  0
LINE
  8
0
 10
112.600006
 20
55.700001
 11
112.800003
 21
55.700001
  0
LINE
  8
0
 10
112.600006
 20
52.500000
 11
112.800003
 21
52.500000
  0
LINE
  8
0
 10
113.300003
 20
51.999996
 11
112.800003
 21
52.499996
  0
LINE
  8
0
 10
112.800003
 20
55.700005
 11
113.299995
 21
56.199997
  0
LINE
  8
0
 10
112.300003
 20
56.000000
 11
112.300003
 21
57.500000
  0
LINE
  8
0
 10
113.300003
 20
50.000000
 11
114.900002
 21
50.000000
  0
LINE
  8
0
 10
113.300003
 20
45.799999
 11
114.900002
 21
45.799999
  0
LINE
  8
0
 10
112.600006
 20
46.299999
 11
112.800003
 21
46.299999
  0
LINE
  8
0
 10
112.600006
 20
49.500000
 11
112.800003
 21
49.500000
  0
LINE
  8
0
 10
113.300003
 20
50.000000
 11
112.800003
 21
49.500000
  0
LINE
  8
0
 10
112.800003
 20
46.300003
 11
113.300003
 21
45.800003
  0
LINE
  8
0
 10
112.300003
 20
57.500000
 11
110.800011
 21
58.999992
  0
LINE
  8
0
 10
112.300003
 20
46.000000
 11
112.300003
 21
44.500000
  0
LINE
  8
0
 10
112.300003
 20
44.500000
 11
110.800011
 21
43.000008
  0
LINE
  8
0
 10
110.800003
 20
43.000000
 11
110.800003
 21
70.549988
  0
LINE
  8
0
 10
141.800003
 20
17.000008
 11
142.800003
 21
18.000004
  0
LINE
  8
0
  6
CENTER
 62
     2
 10
134.220001
 20
27.500000
 11
119.780006
 21
27.500000
  0
LINE
  8
0
  6
CENTER
 62
     2
 10
116.800003
 20
84.199997
 11
116.800003
 21
77.589996
  0
LINE
  8
0
  6
CENTER
 62
     2
 10
113.440002
 20
81.000000
 11
119.980003
 21
81.000000
  0
LINE
  8
0
  6
CENTER
 62
     2
 10
116.800003
 20
17.800003
 11
116.800003
 21
24.410004
  0
LINE
  8
0
  6
CENTER
 62
     2
 10
120.150002
 20
21.000000
 11
113.610001
 21
21.000000
  0
LINE
  8
0
  6
CENTER
 62
     2
 10
136.800003
 20
84.199997
 11
136.800003
 21
77.589996
  0
LINE
  8
0
  6
CENTER
 62
     2
 10
140.150009
 20
81.000000
 11
133.610001
 21
81.000000
  0
LINE
  8
0
 10
142.800003
 20
59.000000
 11
142.800003
 21
70.549988
  0
LINE
  8
0
 10
142.800003
 20
75.449997
 11
142.800003
 21
84.000000
  0
LINE
  8
0
 10
142.800003
 20
43.000000
 11
142.800003
 21
31.450012
  0
LINE
  8
0
 10
142.800003
 20
26.550003
 11
142.800003
 21
18.000000
  0
LINE
  8
0
 10
136.300003
 20
76.649994
 11
139.800003
 21
76.649994
  0
LINE
  8
0
 10
136.300003
 20
69.349991
 11
139.800003
 21
69.349991
  0
LINE
  8
0
 10
139.800003
 20
75.149994
 11
142.500000
 21
75.149994
  0
LINE
  8
0
 10
139.800003
 20
70.849991
 11
142.500000
 21
70.849991
  0
LINE
  8
0
 10
136.300003
 20
69.349991
 11
136.300003
 21
76.649994
  0
LINE
  8
0
 10
139.800003
 20
69.349991
 11
139.800003
 21
70.849991
  0
LINE
  8
0
 10
139.800003
 20
75.149994
 11
139.800003
 21
76.649994
  0
LINE
  8
0
 10
136.300003
 20
32.650009
 11
136.300003
 21
25.350006
  0
LINE
  8
0
 10
136.300003
 20
25.350006
 11
139.800003
 21
25.350006
  0
LINE
  8
0
 10
136.300003
 20
32.650009
 11
139.800003
 21
32.650009
  0
LINE
  8
0
 10
139.800003
 20
26.850006
 11
142.500000
 21
26.850006
  0
LINE
  8
0
 10
139.800003
 20
31.150009
 11
142.500000
 21
31.150009
  0
LINE
  8
0
 10
139.800003
 20
32.650009
 11
139.800003
 21
31.150009
  0
LINE
  8
0
 10
139.800003
 20
26.850006
 11
139.800003
 21
25.350006
  0
LINE
  8
0
  6
CENTER
 62
     2
 10
115.760002
 20
32.000000
 11
118.900002
 21
32.000000
  0
LINE
  8
0
 10
141.800003
 20
17.000000
 11
111.800003
 21
17.000000
  0
LINE
  8
0
 10
111.800011
 20
17.000002
 11
110.800011
 21
18.000004
  0
LINE
  8
0
 10
110.800003
 20
18.000000
 11
110.800003
 21
20.410004
  0
LINE
  8
0
 10
113.800003
 20
23.990004
 11
110.800003
 21
26.500006
  0
LINE
  8
0
 10
110.800003
 20
26.500000
 11
110.800003
 21
43.000000
  0
LINE
  8
0
 10
110.800003
 20
20.410007
 11
113.800011
 21
23.990013
  0
LINE
  8
0
  6
CENTER
 62
     2
 10
135.210007
 20
73.000000
 11
141.338348
 21
73.000000
  0
LINE
  8
0
  6
CENTER
 62
     2
 10
135.080002
 20
29.000000
 11
140.696335
 21
29.000000
  0
LINE
  8
0
 10
131.990005
 20
30.500000
 11
136.300003
 21
30.500000
  0
LINE
  8
0
 10
132.800003
 20
27.500000
 11
136.300003
 21
27.500000
  0
LINE
  8
0
 10
131.990005
 20
71.500000
 11
136.300003
 21
71.500000
  0
LINE
  8
0
 10
132.800003
 20
74.500000
 11
136.300003
 21
74.500000
  0
LINE
  8
0
  6
CENTER
 62
     2
 10
116.910004
 20
73.000000
 11
111.630005
 21
73.000000
  0
LINE
  8
0
  6
CENTER
 62
     2
 10
117.300003
 20
30.370010
 11
117.300003
 21
33.550003
  0
LINE
  8
0
  6
CENTER
 62
     2
 10
136.800003
 20
17.800003
 11
136.800003
 21
24.410004
  0
LINE
  8
0
  6
CENTER
 62
     2
 10
140.150009
 20
21.000000
 11
133.610001
 21
21.000000
  0
LINE
  8
0
 10
139.800003
 20
26.850006
 11
139.800003
 21
31.150009
  0
LINE
  8
0
 10
113.800003
 20
69.349991
 11
113.800003
 21
76.649994
  0
LINE
  8
0
 10
139.800003
 20
70.849991
 11
139.800003
 21
75.149994
  0
LINE
  8
0
 10
139.800003
 20
52.000000
 11
139.800003
 21
56.200001
  0
LINE
  8
0
 10
139.800003
 20
45.799999
 11
139.800003
 21
50.000000
  0
LINE
  8
0
 10
-139.699997
 20
52.000000
 11
-139.199997
 21
52.000000
  0
LINE
  8
0
 10
-139.699997
 20
56.200001
 11
-139.199997
 21
56.200001
  0
LINE
  8
0
 10
-140.699997
 20
49.799999
 11
-140.699997
 21
52.200001
  0
LINE
  8
0
 10
-140.399994
 20
55.700001
 11
-140.199997
 21
55.700001
  0
LINE
  8
0
 10
-140.399994
 20
52.500000
 11
-140.199997
 21
52.500000
  0
LINE
  8
0
 10
-139.699997
 20
52.000000
 11
-140.199997
 21
52.500000
  0
LINE
  8
0
 10
-140.199997
 20
55.700001
 11
-139.699997
 21
56.199997
  0
LINE
  8
0
 10
-140.699997
 20
56.000000
 11
-140.699997
 21
57.500000
  0
LINE
  8
0
 10
-139.699997
 20
50.000000
 11
-139.199997
 21
50.000000
  0
LINE
  8
0
 10
-139.699997
 20
45.799999
 11
-139.199997
 21
45.799999
  0
LINE
  8
0
 10
-140.399994
 20
46.299999
 11
-140.199997
 21
46.299999
  0
LINE
  8
0
 10
-140.399994
 20
49.500000
 11
-140.199997
 21
49.500000
  0
LINE
  8
0
 10
-139.699997
 20
50.000000
 11
-140.199997
 21
49.500000
  0
LINE
  8
0
 10
-140.199997
 20
46.299999
 11
-139.699997
 21
45.799999
  0
LINE
  8
0
 10
-140.699997
 20
57.499992
 11
-142.199982
 21
58.999989
  0
LINE
  8
0
 10
-140.699997
 20
46.000000
 11
-140.699997
 21
44.500000
  0
LINE
  8
0
 10
-140.699997
 20
44.500000
 11
-142.199982
 21
43.000011
  0
LINE
  8
0
 10
-142.199997
 20
59.000000
 11
-142.199997
 21
70.549988
  0
LINE
  8
0
 10
-141.199982
 20
84.999985
 11
-142.199997
 21
83.999985
  0
LINE
  8
0
 10
-142.199997
 20
75.449997
 11
-142.199997
 21
84.000000
  0
LINE
  8
0
 10
-110.199997
 20
18.000000
 11
-110.199997
 21
20.410004
  0
LINE
  8
0
 10
-111.200005
 20
17.000008
 11
-110.200005
 21
18.000008
  0
LINE
  8
0
 10
-142.199997
 20
43.000000
 11
-142.199997
 21
31.450012
  0
LINE
  8
0
 10
-141.199997
 20
17.000000
 11
-111.199997
 21
17.000000
  0
LINE
  8
0
 10
-141.199997
 20
17.000008
 11
-142.199997
 21
18.000008
  0
LINE
  8
0
 10
-142.199997
 20
26.550003
 11
-142.199997
 21
18.000000
  0
LINE
  8
0
 10
-110.199997
 20
20.410009
 11
-113.199997
 21
23.990013
  0
LINE
  8
0
 10
-113.200005
 20
23.990004
 11
-110.199997
 21
26.500006
  0
LINE
  8
0
 10
-139.199997
 20
75.149994
 11
-141.899994
 21
75.149994
  0
LINE
  8
0
 10
-139.199997
 20
70.849991
 11
-141.899994
 21
70.849991
  0
LINE
  8
0
 10
-139.199997
 20
26.850006
 11
-141.899994
 21
26.850006
  0
LINE
  8
0
 10
-139.199997
 20
31.150009
 11
-141.899994
 21
31.150009
  0
LINE
  8
0
 10
-138.199997
 20
18.000000
 11
-114.199997
 21
18.000000
  0
LINE
  8
0
 10
-138.199982
 20
84.000000
 11
-139.199997
 21
83.000000
  0
LINE
  8
0
 10
-139.199997
 20
19.000015
 11
-138.199982
 21
18.000011
  0
LINE
  8
0
 10
-113.200012
 20
19.000008
 11
-114.200012
 21
18.000006
  0
LINE
  8
0
  6
CENTER
 62
     2
 10
-130.929993
 20
79.000000
 11
-137.660004
 21
79.000000
  0
LINE
  8
0
  6
CENTER
 62
     2
 10
-118.199997
 20
19.460007
 11
-118.199997
 21
26.530014
  0
LINE
  8
0
  6
CENTER
 62
     2
 10
-134.199997
 20
19.460007
 11
-134.199997
 21
26.530014
  0
LINE
  8
0
  6
CENTER
 62
     2
 10
-130.929993
 20
23.000000
 11
-137.660004
 21
23.000000
  0
LINE
  8
0
 10
-139.199997
 20
83.000000
 11
-139.199997
 21
19.000000
  0
LINE
  8
0
 10
-127.699997
 20
75.359985
 11
-127.699997
 21
73.629990
  0
LINE
  8
0
 10
-126.199997
 20
29.240004
 11
-127.699997
 21
28.370005
  0
LINE
  8
0
 10
-127.699997
 20
28.370010
 11
-127.699997
 21
26.640015
  0
LINE
  8
0
 10
-126.199997
 20
25.770012
 11
-127.699989
 21
26.640011
  0
LINE
  8
0
 10
-124.700005
 20
26.640013
 11
-126.200005
 21
25.770010
  0
LINE
  8
0
 10
-124.699997
 20
28.370010
 11
-124.699997
 21
26.640015
  0
LINE
  8
0
 10
-126.199997
 20
29.240002
 11
-124.699997
 21
28.370003
  0
LINE
  8
0
 10
-127.699997
 20
51.860001
 11
-127.699997
 21
50.130001
  0
LINE
  8
0
  6
CENTER
 62
     2
 10
-134.199997
 20
82.219986
 11
-134.199997
 21
75.789993
  0
LINE
  8
0
  6
CENTER
 62
     2
 10
-132.489990
 20
27.500000
 11
-119.769997
 21
27.500000
  0
LINE
  8
0
  6
CENTER
 62
     2
 10
-121.629997
 20
23.000000
 11
-114.570000
 21
23.000000
  0
LINE
  8
0
 10
-113.199997
 20
76.649994
 11
-111.699997
 21
76.649994
  0
LINE
  8
0
 10
-113.199997
 20
69.349991
 11
-111.699997
 21
69.349991
  0
LINE
  8
0
 10
-111.699997
 20
75.149994
 11
-110.500000
 21
75.149994
  0
LINE
  8
0
 10
-111.699997
 20
70.849991
 11
-110.500000
 21
70.849991
  0
LINE
  8
0
 10
-111.699997
 20
69.349991
 11
-111.699997
 21
70.849991
  0
LINE
  8
0
 10
-111.699997
 20
75.149994
 11
-111.699997
 21
76.649994
  0
LINE
  8
0
 10
-110.199997
 20
75.449997
 11
-110.199997
 21
84.000000
  0
LINE
  8
0
 10
-111.199997
 20
84.999985
 11
-110.199997
 21
83.999985
  0
LINE
  8
0
 10
-112.699997
 20
52.000000
 11
-113.199997
 21
52.000000
  0
LINE
  8
0
 10
-112.699997
 20
56.200001
 11
-113.199997
 21
56.200001
  0
LINE
  8
0
 10
-111.699997
 20
49.799999
 11
-111.699997
 21
52.200001
  0
LINE
  8
0
 10
-112.000000
 20
55.700001
 11
-112.199997
 21
55.700001
  0
LINE
  8
0
 10
-112.000000
 20
52.500000
 11
-112.199997
 21
52.500000
  0
LINE
  8
0
 10
-112.699997
 20
52.000000
 11
-112.199997
 21
52.500000
  0
LINE
  8
0
 10
-112.199997
 20
55.700001
 11
-112.699997
 21
56.200001
  0
LINE
  8
0
 10
-111.699997
 20
56.000000
 11
-111.699997
 21
57.500000
  0
LINE
  8
0
 10
-112.699997
 20
50.000000
 11
-113.199997
 21
50.000000
  0
LINE
  8
0
 10
-112.699997
 20
45.799999
 11
-113.199997
 21
45.799999
  0
LINE
  8
0
 10
-112.000000
 20
46.299999
 11
-112.199997
 21
46.299999
  0
LINE
  8
0
 10
-112.000000
 20
49.500000
 11
-112.199997
 21
49.500000
  0
LINE
  8
0
 10
-112.699997
 20
50.000000
 11
-112.199997
 21
49.500000
  0
LINE
  8
0
 10
-112.199997
 20
46.299999
 11
-112.699997
 21
45.799999
  0
LINE
  8
0
 10
-111.699989
 20
57.500000
 11
-110.200005
 21
58.999989
  0
LINE
  8
0
 10
-111.699997
 20
46.000000
 11
-111.699997
 21
44.500000
  0
LINE
  8
0
 10
-111.699997
 20
44.500000
 11
-110.200005
 21
43.000004
  0
LINE
  8
0
 10
-110.199997
 20
59.000000
 11
-110.199997
 21
70.549988
  0
LINE
  8
0
 10
-114.200005
 20
83.999992
 11
-113.199997
 21
82.999985
  0
LINE
  8
0
 10
-124.699997
 20
73.629997
 11
-126.200005
 21
72.759995
  0
LINE
  8
0
 10
-124.699997
 20
75.359985
 11
-124.699997
 21
73.629990
  0
LINE
  8
0
 10
-126.200005
 20
76.229988
 11
-124.700005
 21
75.359985
  0
LINE
  8
0
 10
-124.699997
 20
50.130005
 11
-126.199997
 21
49.260006
  0
LINE
  8
0
 10
-124.699997
 20
51.860001
 11
-124.699997
 21
50.130001
  0
LINE
  8
0
 10
-126.200005
 20
52.730003
 11
-124.700005
 21
51.860004
  0
LINE
  8
0
  6
CENTER
 62
     2
 10
-118.199997
 20
82.109985
 11
-118.199997
 21
75.829987
  0
LINE
  8
0
  6
CENTER
 62
     2
 10
-121.479996
 20
79.000000
 11
-114.979996
 21
79.000000
  0
LINE
  8
0
  6
CENTER
 62
     2
 10
-132.459991
 20
74.500000
 11
-119.970001
 21
74.500000
  0
LINE
  8
0
 10
-126.199997
 20
49.259998
 11
-127.699997
 21
50.129997
  0
LINE
  8
0
 10
-126.199997
 20
52.730003
 11
-127.699997
 21
51.860004
  0
LINE
  8
0
 10
-126.199997
 20
72.759995
 11
-127.699997
 21
73.629997
  0
LINE
  8
0
 10
-126.199989
 20
76.229980
 11
-127.699989
 21
75.359978
  0
LINE
  8
0
 10
-113.199997
 20
83.000000
 11
-113.199997
 21
19.000000
  0
LINE
  8
0
  6
CENTER
 62
     2
 10
-126.199997
 20
87.369995
 11
-126.199997
 21
14.730011
  0
LINE
  8
0
  6
CENTER
 62
     2
 10
-143.359985
 20
51.000000
 11
-109.070007
 21
51.000000
  0
LINE
  8
0
 10
-138.199997
 20
84.000000
 11
-114.199997
 21
84.000000
  0
LINE
  8
0
 10
-110.199997
 20
26.500000
 11
-110.199997
 21
43.000000
  0
LINE
  8
0
 10
-141.199997
 20
85.000000
 11
-111.199997
 21
85.000000
  0
LINE
  8
0
 10
-27.199997
 20
55.000000
 11
-24.199997
 21
55.000000
  0
LINE
  8
0
  6
CENTER
 62
     2
 10
-38.639996
 20
74.500000
 11
-22.609997
 21
74.500000
  0
LINE
  8
0
 10
-23.699997
 20
85.000000
 11
32.300003
 21
85.000000
  0
LINE
  8
0
 10
-27.199997
 20
18.500000
 11
-27.199997
 21
83.500000
  0
LINE
  8
0
 10
-37.199997
 20
83.500000
 11
-37.199997
 21
18.500000
  0
LINE
  8
0
 10
-36.699997
 20
18.000000
 11
-27.699997
 21
18.000000
  0
LINE
  8
0
 10
-36.699997
 20
84.000000
 11
-27.699997
 21
84.000000
  0
LINE
  8
0
 10
-27.199997
 20
47.000000
 11
-24.199997
 21
47.000000
  0
LINE
  8
0
 10
-27.199997
 20
22.500000
 11
-24.199997
 21
22.500000
  0
LINE
  8
0
 10
-27.199997
 20
32.500000
 11
-24.199997
 21
32.500000
  0
LINE
  8
0
  6
CENTER
 62
     2
 10
-38.639996
 20
27.500000
 11
-22.259998
 21
27.500000
  0
LINE
  8
0
 10
-27.199997
 20
49.060001
 11
-25.699997
 21
49.060001
  0
LINE
  8
0
 10
-25.699997
 20
52.930000
 11
-25.699997
 21
49.060001
  0
LINE
  8
0
 62
     2
 10
-27.199997
 20
51.959999
 11
-25.699997
 21
49.060001
  0
LINE
  8
0
 62
     2
 10
-25.699997
 20
52.930004
 11
-27.199997
 21
50.029999
  0
LINE
  8
0
 10
-37.199997
 20
18.500019
 11
-36.699997
 21
18.000019
  0
LINE
  8
0
 10
-27.200001
 20
18.500006
 11
-27.699997
 21
18.000010
  0
LINE
  8
0
 10
-36.700001
 20
83.999985
 11
-37.199997
 21
83.499985
  0
LINE
  8
0
 10
-27.699997
 20
83.999992
 11
-27.200005
 21
83.499992
  0
LINE
  8
0
 10
-23.699999
 20
85.000000
 11
-24.199999
 21
84.500000
  0
LINE
  8
0
 10
32.299995
 20
85.000015
 11
32.799995
 21
84.500008
  0
LINE
  8
0
 10
-24.199997
 20
52.900002
 11
13.569992
 21
52.900002
  0
LINE
  8
0
 10
-24.199997
 20
55.700001
 11
15.110001
 21
55.700001
  0
LINE
  8
0
 10
-24.199997
 20
57.500000
 11
17.699997
 21
57.500000
  0
LINE
  8
0
 10
-24.199997
 20
84.000000
 11
32.800003
 21
84.000000
  0
LINE
  8
0
 10
-24.199997
 20
75.149994
 11
32.800003
 21
75.149994
  0
LINE
  8
0
 10
-24.199997
 20
70.849991
 11
32.800003
 21
70.849991
  0
LINE
  8
0
 10
-27.199997
 20
52.930000
 11
-25.699997
 21
52.930000
  0
LINE
  8
0
  6
CENTER
 62
     2
 10
-24.199997
 20
64.000000
 11
-14.169998
 21
64.000000
  0
LINE
  8
0
  6
DASHED
 62
     2
 10
35.800003
 20
23.000000
 11
35.800003
 21
32.000000
  0
LINE
  8
0
  6
DASHED
 62
     2
 10
32.800003
 20
32.500000
 11
35.300003
 21
32.500000
  0
LINE
  8
0
  6
DASHED
 62
     2
 10
32.800003
 20
22.500000
 11
35.300003
 21
22.500000
  0
LINE
  8
0
  6
DASHED
 62
     2
 10
35.299995
 20
32.500000
 11
35.799995
 21
32.000000
  0
LINE
  8
0
  6
DASHED
 62
     2
 10
35.799984
 20
23.000002
 11
35.299984
 21
22.500002
  0
LINE
  8
0
  6
DASHED
 62
     2
 10
35.800003
 20
70.000000
 11
35.800003
 21
79.000000
  0
LINE
  8
0
  6
DASHED
 62
     2
 10
32.800003
 20
79.500000
 11
35.300003
 21
79.500000
  0
LINE
  8
0
  6
DASHED
 62
     2
 10
32.800003
 20
69.500000
 11
35.300003
 21
69.500000
  0
LINE
  8
0
  6
DASHED
 62
     2
 10
35.299984
 20
79.500000
 11
35.799984
 21
79.000000
  0
LINE
  8
0
  6
DASHED
 62
     2
 10
35.799995
 20
70.000000
 11
35.299995
 21
69.500000
  0
LINE
  8
0
 10
-24.199997
 20
59.000000
 11
32.800003
 21
59.000000
  0
LINE
  8
0
 10
-27.199997
 20
79.500000
 11
-24.199997
 21
79.500000
  0
LINE
  8
0
 10
-27.199997
 20
69.500000
 11
-24.199997
 21
69.500000
  0
LINE
  8
0
  6
CENTER
 62
     2
 10
-24.199997
 20
38.000000
 11
-14.529999
 21
38.000000
  0
LINE
  8
0
  6
CENTER
 62
     2
 10
-19.199997
 20
32.800003
 11
-19.199997
 21
42.830002
  0
LINE
  8
0
  6
CENTER
 62
     2
 10
-9.010010
 20
38.000000
 11
0.919998
 21
38.000000
  0
LINE
  8
0
  6
CENTER
 62
     2
 10
-4.199997
 20
32.800003
 11
-4.199997
 21
42.750000
  0
LINE
  8
0
 10
-24.199997
 20
49.099998
 11
13.569992
 21
49.099998
  0
LINE
  8
0
  6
CENTER
 62
     2
 10
-11.169998
 20
32.000000
 11
-17.250000
 21
32.000000
  0
LINE
  8
0
  6
CENTER
 62
     2
 10
33.979996
 20
32.000000
 11
21.919998
 21
32.000000
  0
LINE
  8
0
  6
CENTER
 62
     2
 10
25.300003
 20
22.870010
 11
25.300003
 21
35.370003
  0
LINE
  8
0
  6
CENTER
 62
     2
 10
-38.819996
 20
51.000000
 11
34.869995
 21
51.000000
  0
LINE
  8
0
 10
-23.699997
 20
17.000000
 11
32.300003
 21
17.000000
  0
LINE
  8
0
 10
-24.199997
 20
17.500000
 11
-24.199997
 21
84.500000
  0
LINE
  8
0
  6
DASHED
 62
     2
 10
14.300003
 20
17.000000
 11
14.300003
 21
19.310013
  0
LINE
  8
0
  6
DASHED
 62
     2
 10
19.300003
 20
17.000000
 11
19.300003
 21
19.310013
  0
LINE
  8
0
  6
DASHED
 62
     2
 10
14.699997
 20
17.000000
 11
14.699997
 21
19.310013
  0
LINE
  8
0
  6
DASHED
 62
     2
 10
18.899994
 20
17.000000
 11
18.899994
 21
19.310013
  0
LINE
  8
0
  6
CENTER
 62
     2
 10
-14.199997
 20
16.270004
 11
-14.199997
 21
35.370003
  0
LINE
  8
0
  6
DASHED
 62
     2
 10
-17.699997
 20
17.000000
 11
-17.699997
 21
19.310013
  0
LINE
  8
0
  6
DASHED
 62
     2
 10
-12.699997
 20
17.000000
 11
-12.699997
 21
19.310013
  0
LINE
  8
0
  6
DASHED
 62
     2
 10
-17.300003
 20
17.000000
 11
-17.300003
 21
19.310013
  0
LINE
  8
0
  6
DASHED
 62
     2
 10
-13.100006
 20
17.000000
 11
-13.100006
 21
19.310013
  0
LINE
  8
0
 10
-24.199997
 20
18.000000
 11
32.800003
 21
18.000000
  0
LINE
  8
0
 10
-24.199997
 20
43.000000
 11
32.800003
 21
43.000000
  0
LINE
  8
0
 10
-24.199997
 20
26.500000
 11
32.800003
 21
26.500000
  0
LINE
  8
0
 10
-24.199997
 20
23.990005
 11
32.800003
 21
23.990005
  0
LINE
  8
0
 10
-24.199997
 20
20.410004
 11
32.800003
 21
20.410004
  0
LINE
  8
0
 10
-24.199997
 20
46.299999
 11
15.110001
 21
46.299999
  0
LINE
  8
0
 10
-24.199997
 20
44.500000
 11
17.699997
 21
44.500000
  0
LINE
  8
0
 10
32.799992
 20
17.499996
 11
32.299992
 21
16.999996
  0
LINE
  8
0
 10
-24.199999
 20
17.500002
 11
-23.699997
 21
17.000004
  0
LINE
  8
0
  6
CENTER
 62
     2
 10
16.800003
 20
15.990005
 11
16.800003
 21
20.280014
  0
LINE
  8
0
 10
32.800003
 20
17.500000
 11
32.800003
 21
84.500000
  0
LINE
  8
0
  6
CENTER
 62
     2
 10
-4.199997
 20
68.949997
 11
-4.199997
 21
59.020000
  0
LINE
  8
0
  6
CENTER
 62
     2
 10
-19.199997
 20
68.869995
 11
-19.199997
 21
59.059998
  0
LINE
  8
0
  6
CENTER
 62
     2
 10
-9.199997
 20
64.000000
 11
0.929993
 21
64.000000
  0
LINE
  8
0
  6
CENTER
 62
     2
 10
-15.199997
 20
17.000000
 11
-15.199997
 21
20.140015
  0
LINE
  8
0
  6
CENTER
 62
     2
 10
20.300003
 20
58.939999
 11
20.300003
 21
43.190002
  0
LINE
  8
0
 10
25.479996
 20
55.700001
 11
32.800003
 21
55.700001
  0
LINE
  8
0
 10
22.889999
 20
57.500000
 11
32.800003
 21
57.500000
  0
LINE
  8
0
 10
27.029999
 20
52.900002
 11
32.800003
 21
52.900002
  0
LINE
  8
0
 10
27.029999
 20
49.099998
 11
32.800003
 21
49.099998
  0
LINE
  8
0
 10
25.479996
 20
46.299999
 11
32.800003
 21
46.299999
  0
LINE
  8
0
 10
22.889999
 20
44.500000
 11
32.800003
 21
44.500000
  0
LINE
  8
0
  6
PHANTOM
 62
     3
 10
-11.777618
 20
35.083000
 11
-8.572037
 21
35.083000
  0
LINE
  8
0
  6
PHANTOM
 62
     3
 10
-8.572037
 20
12.812637
 11
-8.572037
 21
35.083000
  0
LINE
  8
0
  6
PHANTOM
 62
     3
 10
-11.777618
 20
35.083000
 11
-11.777618
 21
99.226700
  0
LINE
  8
0
  6
PHANTOM
 62
     3
 10
9.480453
 20
12.812637
 11
9.480453
 21
91.771194
  0
LINE
  8
0
 10
-54.249985
 20
-93.500000
 11
-54.249985
 21
-123.500000
  0
LINE
  8
0
 10
-69.249985
 20
-93.500000
 11
-69.249985
 21
-123.500000
  0
LINE
  8
0
 10
-84.249985
 20
-93.500000
 11
-84.249985
 21
-123.500000
  0
LINE
  8
0
 10
-99.249985
 20
-93.500000
 11
-99.249985
 21
-123.500000
  0
LINE
  8
0
 10
-114.249985
 20
-93.500000
 11
-114.249985
 21
-123.500000
  0
LINE
  8
0
 10
-129.249985
 20
-93.500000
 11
-129.249985
 21
-123.500000
  0
LINE
  8
0
 10
-144.249985
 20
-93.500000
 11
-144.249985
 21
-123.500000
  0
LINE
  8
0
 10
-184.250000
 20
-123.500000
 11
-184.250000
 21
-93.500000
  0
LINE
  8
0
 10
-159.250000
 20
-111.500008
 11
-162.465393
 21
-99.499985
  0
LINE
  8
0
 10
-184.250000
 20
-93.500000
 11
-54.249985
 21
-93.500000
  0
LINE
  8
0
 10
-184.250000
 20
-99.500000
 11
-162.465378
 21
-99.500000
  0
LINE
  8
0
 10
-184.250000
 20
-111.500000
 11
-54.249985
 21
-111.500000
  0
LINE
  8
0
 10
-184.250000
 20
-123.500000
 11
-54.249985
 21
-123.500000
  0
LINE
  8
0
 10
-184.250000
 20
-117.500000
 11
-54.249985
 21
-117.500000
  0
LINE
  8
0
 10
-159.249985
 20
-93.500000
 11
-159.249985
 21
-123.500000
  0
LINE
  8
0
 10
-84.250000
 20
132.600006
 11
-84.250000
 21
117.600006
  0
LINE
  8
0
 10
-194.250000
 20
132.600006
 11
194.800003
 21
132.600006
  0
LINE
  8
0
 10
194.800003
 20
132.600006
 11
194.800003
 21
-133.500000
  0
LINE
  8
0
 10
-194.250000
 20
132.600006
 11
-194.250000
 21
-133.500000
  0
LINE
  8
0
 10
-194.250000
 20
-133.500000
 11
194.800003
 21
-133.500000
  0
LINE
  8
0
 10
109.800003
 20
-118.500000
 11
109.800003
 21
-133.500000
  0
LINE
  8
0
 10
109.800003
 20
-118.500000
 11
194.800003
 21
-118.500000
  0
LINE
  8
0
 10
109.800003
 20
132.600006
 11
109.800003
 21
117.600006
  0
LINE
  8
0
 10
109.800003
 20
117.600006
 11
194.800003
 21
117.600006
  0
LINE
  8
0
 10
-194.250000
 20
117.600006
 11
-84.250000
 21
117.600006
  0
ARC
  8
0
 10
-29.199986
 20
-69.238182
 40
3.999279
 50
331.063721
 51
28.936281
  0
CIRCLE
  8
0
 10
-19.199982
 20
-56.233185
 40
4.000000
  0
CIRCLE
  8
0
 10
-19.199982
 20
-56.233185
 40
2.099999
  0
CIRCLE
  8
0
  6
DASHED
 62
     2
 10
-19.199982
 20
-56.233185
 40
2.500000
  0
CIRCLE
  8
0
 10
-4.199982
 20
-56.233185
 40
4.000000
  0
CIRCLE
  8
0
 10
-4.199982
 20
-56.233185
 40
2.099999
  0
CIRCLE
  8
0
  6
DASHED
 62
     2
 10
-4.199982
 20
-56.233185
 40
2.500000
  0
CIRCLE
  8
0
 10
-19.199982
 20
-82.233185
 40
4.000000
  0
CIRCLE
  8
0
 10
-19.199982
 20
-82.233185
 40
2.099999
  0
CIRCLE
  8
0
  6
DASHED
 62
     2
 10
-19.199982
 20
-82.233185
 40
2.500000
  0
CIRCLE
  8
0
 10
-4.199966
 20
-82.233185
 40
4.000000
  0
CIRCLE
  8
0
 10
-4.199966
 20
-82.233185
 40
2.099999
  0
CIRCLE
  8
0
  6
DASHED
 62
     2
 10
-4.199966
 20
-82.233185
 40
2.500000
  0
CIRCLE
  8
0
 62
     2
 10
-14.199982
 20
-88.233185
 40
2.500000
  0
CIRCLE
  8
0
 10
-14.199982
 20
-88.233185
 40
2.000000
  0
CIRCLE
  8
0
 62
     2
 10
25.300018
 20
-88.233185
 40
2.500000
  0
CIRCLE
  8
0
 10
25.300018
 20
-88.233185
 40
2.000000
  0
CIRCLE
  8
0
 62
     2
 10
-9.199982
 20
-69.233185
 40
6.500000
  0
CIRCLE
  8
0
 10
-9.199982
 20
-69.233185
 40
7.000000
  0
CIRCLE
  8
0
 10
-4.199982
 20
-69.233185
 40
1.000000
  0
CIRCLE
  8
0
 10
-9.199982
 20
-69.233185
 40
1.500000
  0
CIRCLE
  8
0
 10
-14.199982
 20
-69.233185
 40
1.000000
  0
ARC
  8
0
 10
141.000015
 20
46.000008
 40
0.299988
 50
359.998535
 51
90.000000
  0
ARC
  8
0
 10
138.699997
 20
54.099998
 40
2.099998
 50
90.000000
 51
270.000000
  0
ARC
  8
0
 10
141.000015
 20
55.999992
 40
0.299995
 50
270.000000
 51
0.001457
  0
ARC
  8
0
 10
141.000015
 20
52.200012
 40
0.299988
 50
359.997803
 51
90.002914
  0
ARC
  8
0
 10
141.000015
 20
49.799988
 40
0.299988
 50
269.997101
 51
0.002186
  0
ARC
  8
0
 10
138.699997
 20
47.900002
 40
2.099998
 50
90.000000
 51
270.000000
  0
ARC
  8
0
 10
111.100006
 20
75.449997
 40
0.300003
 50
180.000000
 51
270.000000
  0
ARC
  8
0
 10
111.100006
 20
70.549988
 40
0.300003
 50
90.000000
 51
180.000000
  0
CIRCLE
  8
0
 10
126.800003
 20
74.500000
 40
6.000000
  0
ARC
  8
0
 10
114.900002
 20
47.900002
 40
2.099998
 50
270.000000
 51
90.000000
  0
ARC
  8
0
 10
112.599998
 20
46.000008
 40
0.299995
 50
89.998543
 51
180.001450
  0
ARC
  8
0
 10
114.900002
 20
54.099998
 40
2.099998
 50
270.000000
 51
90.000000
  0
ARC
  8
0
 10
112.599998
 20
55.999992
 40
0.299995
 50
179.998550
 51
270.001465
  0
ARC
  8
0
 10
112.599991
 20
52.200012
 40
0.299988
 50
89.997086
 51
180.002182
  0
ARC
  8
0
 10
112.599991
 20
49.799988
 40
0.299988
 50
179.997818
 51
270.002899
  0
CIRCLE
  8
0
 10
126.800003
 20
27.500000
 40
6.000000
  0
CIRCLE
  8
0
 62
     2
 10
116.800003
 20
81.000000
 40
2.500000
  0
CIRCLE
  8
0
 10
116.800003
 20
81.000000
 40
2.099999
  0
CIRCLE
  8
0
 62
     2
 10
116.800003
 20
21.000000
 40
2.500000
  0
CIRCLE
  8
0
 10
116.800003
 20
21.000000
 40
2.099999
  0
CIRCLE
  8
0
 62
     2
 10
136.800003
 20
81.000000
 40
2.500000
  0
CIRCLE
  8
0
 10
136.800003
 20
81.000000
 40
2.099999
  0
ARC
  8
0
 10
142.500000
 20
31.450012
 40
0.299999
 50
270.000000
 51
0.000000
  0
ARC
  8
0
 10
142.500000
 20
26.550003
 40
0.300003
 50
0.000000
 51
90.000000
  0
ARC
  8
0
 10
142.500000
 20
75.449997
 40
0.300003
 50
270.000000
 51
0.000000
  0
ARC
  8
0
 10
142.500000
 20
70.549988
 40
0.300003
 50
0.000000
 51
90.000000
  0
CIRCLE
  8
0
 10
117.300003
 20
32.000000
 40
1.000000
  0
CIRCLE
  8
0
 10
136.800003
 20
21.000000
 40
2.099999
  0
CIRCLE
  8
0
 62
     2
 10
136.800003
 20
21.000000
 40
2.500000
  0
CIRCLE
  8
0
 10
126.800003
 20
27.500000
 40
5.000000
  0
CIRCLE
  8
0
 10
126.800003
 20
74.500000
 40
5.000000
  0
CIRCLE
  8
0
 10
126.800003
 20
51.000000
 40
9.000000
  0
ARC
  8
0
 10
-140.400009
 20
46.000008
 40
0.299995
 50
90.000000
 51
180.001450
  0
ARC
  8
0
 10
-140.400009
 20
55.999992
 40
0.299988
 50
179.998550
 51
270.000000
  0
ARC
  8
0
 10
-140.400009
 20
52.200012
 40
0.299988
 50
89.997086
 51
180.002182
  0
ARC
  8
0
 10
-140.400009
 20
49.799988
 40
0.299988
 50
179.997818
 51
270.002899
  0
ARC
  8
0
 10
-141.899994
 20
75.449997
 40
0.300003
 50
180.000000
 51
270.000000
  0
ARC
  8
0
 10
-141.899994
 20
70.549988
 40
0.300003
 50
90.000000
 51
180.000000
  0
ARC
  8
0
 10
-141.899994
 20
31.450012
 40
0.300003
 50
180.000000
 51
270.000000
  0
ARC
  8
0
 10
-141.899994
 20
26.550003
 40
0.299999
 50
90.000000
 51
180.000000
  0
CIRCLE
  8
0
 10
-126.199997
 20
27.500000
 40
5.250000
  0
CIRCLE
  8
0
 62
     2
 10
-134.199997
 20
79.000000
 40
2.500000
  0
CIRCLE
  8
0
 10
-134.199997
 20
79.000000
 40
2.099999
  0
CIRCLE
  8
0
 62
     2
 10
-118.199997
 20
23.000000
 40
2.500000
  0
CIRCLE
  8
0
 10
-118.199997
 20
23.000000
 40
2.099999
  0
CIRCLE
  8
0
 62
     2
 10
-134.199997
 20
23.000000
 40
2.500000
  0
CIRCLE
  8
0
 10
-134.199997
 20
23.000000
 40
2.099999
  0
CIRCLE
  8
0
 10
-126.199997
 20
27.500000
 40
4.750000
  0
CIRCLE
  8
0
 10
-126.199997
 20
27.500000
 40
2.849999
  0
ARC
  8
0
 10
-110.500000
 20
75.449997
 40
0.300003
 50
270.000000
 51
0.000000
  0
ARC
  8
0
 10
-110.500000
 20
70.549988
 40
0.300003
 50
0.000000
 51
90.000000
  0
ARC
  8
0
 10
-111.999992
 20
46.000008
 40
0.299995
 50
359.998535
 51
90.001457
  0
ARC
  8
0
 10
-111.999992
 20
55.999992
 40
0.299995
 50
269.998535
 51
0.001457
  0
ARC
  8
0
 10
-111.999985
 20
52.200012
 40
0.299988
 50
359.997803
 51
90.002914
  0
ARC
  8
0
 10
-111.999985
 20
49.799988
 40
0.299988
 50
269.997101
 51
0.002186
  0
CIRCLE
  8
0
 62
     2
 10
-118.199997
 20
79.000000
 40
2.500000
  0
CIRCLE
  8
0
 10
-118.199997
 20
79.000000
 40
2.099999
  0
CIRCLE
  8
0
 10
-126.199997
 20
51.000000
 40
2.849999
  0
CIRCLE
  8
0
 10
-126.199997
 20
51.000000
 40
4.750000
  0
CIRCLE
  8
0
 10
-126.199997
 20
74.500000
 40
2.849999
  0
CIRCLE
  8
0
 10
-126.199997
 20
74.500000
 40
4.750000
  0
CIRCLE
  8
0
 10
-126.199997
 20
51.000000
 40
5.250000
  0
CIRCLE
  8
0
 10
-126.199997
 20
74.500000
 40
5.250000
  0
ARC
  8
0
 10
-29.200001
 20
50.994999
 40
3.999280
 50
331.063660
 51
28.936329
  0
CIRCLE
  8
0
 10
-19.199997
 20
64.000000
 40
4.000000
  0
CIRCLE
  8
0
 10
-19.199997
 20
64.000000
 40
2.099999
  0
CIRCLE
  8
0
  6
DASHED
 62
     2
 10
-19.199997
 20
64.000000
 40
2.500000
  0
CIRCLE
  8
0
 10
-4.199997
 20
64.000000
 40
4.000000
  0
CIRCLE
  8
0
 10
-4.199997
 20
64.000000
 40
2.099999
  0
CIRCLE
  8
0
  6
DASHED
 62
     2
 10
-4.199997
 20
64.000000
 40
2.500000
  0
CIRCLE
  8
0
 10
-19.199997
 20
38.000000
 40
4.000000
  0
CIRCLE
  8
0
 10
-19.199997
 20
38.000000
 40
2.099999
  0
CIRCLE
  8
0
  6
DASHED
 62
     2
 10
-19.199997
 20
38.000000
 40
2.500000
  0
CIRCLE
  8
0
 10
-4.199982
 20
38.000000
 40
4.000000
  0
CIRCLE
  8
0
 10
-4.199982
 20
38.000000
 40
2.099999
  0
CIRCLE
  8
0
  6
DASHED
 62
     2
 10
-4.199982
 20
38.000000
 40
2.500000
  0
CIRCLE
  8
0
 62
     2
 10
-14.199997
 20
32.000000
 40
2.500000
  0
CIRCLE
  8
0
 10
-14.199997
 20
32.000000
 40
2.000000
  0
CIRCLE
  8
0
 62
     2
 10
25.300003
 20
32.000000
 40
2.500000
  0
CIRCLE
  8
0
 10
25.300003
 20
32.000000
 40
2.000000
  0
CIRCLE
  8
0
 62
     2
 10
20.300003
 20
51.000000
 40
6.500000
  0
CIRCLE
  8
0
 10
20.300003
 20
51.000000
 40
7.000000
  0
CIRCLE
  8
0
 10
25.300003
 20
51.000000
 40
1.000000
  0
CIRCLE
  8
0
 10
20.300003
 20
51.000000
 40
1.500000
  0
CIRCLE
  8
0
 10
15.300003
 20
51.000000
 40
1.000000
  0
ARC
  8
0
 10
25.882360
 20
-94.737869
 40
0.417659
 50
344.498413
 51
15.501589
  0
ARC
  8
0
 10
25.727793
 20
-94.800201
 40
0.583565
 50
17.343233
 51
54.572979
  0
ARC
  8
0
 10
25.300018
 20
-95.487694
 40
1.392629
 50
56.628128
 51
123.371872
  0
ARC
  8
0
 10
24.872244
 20
-94.800201
 40
0.583561
 50
125.427025
 51
162.656769
  0
ARC
  8
0
 10
24.717676
 20
-94.737869
 40
0.417659
 50
164.498413
 51
195.501587
  0
ARC
  8
0
 10
24.872244
 20
-94.675537
 40
0.583565
 50
197.343231
 51
234.572983
  0
ARC
  8
0
 10
25.300018
 20
-93.988045
 40
1.392629
 50
236.628128
 51
303.371857
  0
ARC
  8
0
 10
25.727793
 20
-94.675537
 40
0.583561
 50
305.427032
 51
342.656769
  0
ARC
  8
0
 10
-13.617640
 20
-94.737869
 40
0.417659
 50
344.498413
 51
15.501589
  0
ARC
  8
0
 10
-13.772207
 20
-94.800201
 40
0.583565
 50
17.343233
 51
54.572979
  0
ARC
  8
0
 10
-14.199982
 20
-95.487694
 40
1.392629
 50
56.628128
 51
123.371872
  0
ARC
  8
0
 10
-14.627756
 20
-94.800201
 40
0.583561
 50
125.427025
 51
162.656769
  0
ARC
  8
0
 10
-14.782324
 20
-94.737869
 40
0.417659
 50
164.498413
 51
195.501587
  0
ARC
  8
0
 10
-14.627756
 20
-94.675537
 40
0.583565
 50
197.343231
 51
234.572983
  0
ARC
  8
0
 10
-14.199982
 20
-93.988045
 40
1.392629
 50
236.628128
 51
303.371857
  0
ARC
  8
0
 10
-13.772207
 20
-94.675537
 40
0.583561
 50
305.427032
 51
342.656769
  0
ARC
  8
0
 10
25.882345
 20
25.495316
 40
0.417658
 50
344.498901
 51
15.501085
  0
ARC
  8
0
 10
25.727777
 20
25.432983
 40
0.583564
 50
17.342876
 51
54.573193
  0
ARC
  8
0
 10
25.300003
 20
24.745489
 40
1.392634
 50
56.628258
 51
123.371742
  0
ARC
  8
0
 10
24.872229
 20
25.432983
 40
0.583564
 50
125.426804
 51
162.657120
  0
ARC
  8
0
 10
24.717661
 20
25.495316
 40
0.417658
 50
164.498917
 51
195.501083
  0
ARC
  8
0
 10
24.872229
 20
25.557648
 40
0.583564
 50
197.342880
 51
234.573196
  0
ARC
  8
0
 10
25.300003
 20
26.245142
 40
1.392634
 50
236.628265
 51
303.371735
  0
ARC
  8
0
 10
25.727777
 20
25.557648
 40
0.583564
 50
305.426819
 51
342.657135
  0
ARC
  8
0
 10
-13.617655
 20
25.495316
 40
0.417658
 50
344.498901
 51
15.501085
  0
ARC
  8
0
 10
-13.772223
 20
25.432983
 40
0.583564
 50
17.342876
 51
54.573193
  0
ARC
  8
0
 10
-14.199997
 20
24.745489
 40
1.392634
 50
56.628258
 51
123.371742
  0
ARC
  8
0
 10
-14.627771
 20
25.432983
 40
0.583564
 50
125.426804
 51
162.657120
  0
ARC
  8
0
 10
-14.782339
 20
25.495316
 40
0.417658
 50
164.498917
 51
195.501083
  0
ARC
  8
0
 10
-14.627771
 20
25.557648
 40
0.583564
 50
197.342880
 51
234.573196
  0
ARC
  8
0
 10
-14.199997
 20
26.245142
 40
1.392634
 50
236.628265
 51
303.371735
  0
ARC
  8
0
 10
-13.772223
 20
25.557648
 40
0.583564
 50
305.426819
 51
342.657135
  0
TEXT
  8
0
 10
-65.050003
 20
-122.379997
 40
3.200000
  1
50
 50
0.000000
 41
1.052632
 51
0.000000
  7
STANDARD
  0
TEXT
  8
0
 10
-65.050003
 20
-116.379997
 40
3.200000
  1
40
 50
0.000000
 41
1.052632
 51
0.000000
  7
STANDARD
  0
TEXT
  8
0
 10
-80.050003
 20
-122.379997
 40
3.200000
  1
25
 50
0.000000
 41
1.052632
 51
0.000000
  7
STANDARD
  0
TEXT
  8
0
 10
-80.050003
 20
-116.379997
 40
3.200000
  1
40
 50
0.000000
 41
1.052632
 51
0.000000
  7
STANDARD
  0
TEXT
  8
0
 10
-93.449997
 20
-122.379997
 40
3.200000
  1
0
 50
0.000000
 41
1.052632
 51
0.000000
  7
STANDARD
  0
TEXT
  8
0
 10
-95.050003
 20
-116.379997
 40
3.200000
  1
40
 50
0.000000
 41
1.052632
 51
0.000000
  7
STANDARD
  0
TEXT
  8
0
 10
-108.449997
 20
-122.379997
 40
3.200000
  1
0
 50
0.000000
 41
1.052632
 51
0.000000
  7
STANDARD
  0
TEXT
  8
0
 10
-110.050003
 20
-116.379997
 40
3.200000
  1
30
 50
0.000000
 41
1.052632
 51
0.000000
  7
STANDARD
  0
TEXT
  8
0
 10
-123.449997
 20
-122.379997
 40
3.200000
  1
0
 50
0.000000
 41
1.052632
 51
0.000000
  7
STANDARD
  0
TEXT
  8
0
 10
-125.050003
 20
-116.379997
 40
3.200000
  1
20
 50
0.000000
 41
1.052632
 51
0.000000
  7
STANDARD
  0
TEXT
  8
0
 10
-138.449997
 20
-122.379997
 40
3.200000
  1
0
 50
0.000000
 41
1.052632
 51
0.000000
  7
STANDARD
  0
TEXT
  8
0
 10
-140.050003
 20
-116.379997
 40
3.200000
  1
10
 50
0.000000
 41
1.052632
 51
0.000000
  7
STANDARD
  0
TEXT
  8
0
 10
-153.449997
 20
-122.379997
 40
3.200000
  1
0
 50
0.000000
 41
1.052632
 51
0.000000
  7
STANDARD
  0
TEXT
  8
0
 10
-153.449997
 20
-116.379997
 40
3.200000
  1
0
 50
0.000000
 41
1.052632
 51
0.000000
  7
STANDARD
  0
TEXT
  8
0
 10
-68.357002
 20
-92.379997
 40
3.200000
  1
（ｍｍ）
 50
0.000000
 41
0.833333
 51
0.000000
  7
STANDARD
  0
TEXT
  8
0
 10
-138.656998
 20
-92.379997
 40
3.200000
  1
STRETCH LIST
 50
0.000000
 41
1.052632
 51
0.000000
  7
STANDARD
  0
TEXT
  8
0
 10
-66.650002
 20
-104.379997
 40
3.200000
  1
100
 50
0.000000
 41
1.052632
 51
0.000000
  7
STANDARD
  0
TEXT
  8
0
 10
-80.050003
 20
-104.379997
 40
3.200000
  1
75
 50
0.000000
 41
1.052632
 51
0.000000
  7
STANDARD
  0
TEXT
  8
0
 10
-95.050003
 20
-104.379997
 40
3.200000
  1
50
 50
0.000000
 41
1.052632
 51
0.000000
  7
STANDARD
  0
TEXT
  8
0
 10
-110.050003
 20
-104.379997
 40
3.200000
  1
40
 50
0.000000
 41
1.052632
 51
0.000000
  7
STANDARD
  0
TEXT
  8
0
 10
-125.050003
 20
-104.379997
 40
3.200000
  1
30
 50
0.000000
 41
1.052632
 51
0.000000
  7
STANDARD
  0
TEXT
  8
0
 10
-140.050003
 20
-104.379997
 40
3.200000
  1
20
 50
0.000000
 41
1.052632
 51
0.000000
  7
STANDARD
  0
TEXT
  8
0
 10
-155.050003
 20
-104.379997
 40
3.200000
  1
10
 50
0.000000
 41
1.052632
 51
0.000000
  7
STANDARD
  0
TEXT
  8
0
 10
-184.156998
 20
-104.019997
 40
3.200000
  1
STRETCH
 50
0.000000
 41
1.052632
 51
0.000000
  7
STANDARD
  0
TEXT
  8
0
 10
-184.156998
 20
-108.820000
 40
3.200000
  1
  PLACE
 50
0.000000
 41
1.052632
 51
0.000000
  7
STANDARD
  0
TEXT
  8
0
 10
-173.557007
 20
-122.379997
 40
3.200000
  1
B
 50
0.000000
 41
1.052632
 51
0.000000
  7
STANDARD
  0
TEXT
  8
0
 10
-173.557007
 20
-116.379997
 40
3.200000
  1
A
 50
0.000000
 41
1.052632
 51
0.000000
  7
STANDARD
  0
TEXT
  8
0
 10
-181.557007
 20
-98.379997
 40
3.200000
  1
STROKE
 50
0.000000
 41
1.052632
 51
0.000000
  7
STANDARD
  0
TEXT
  8
0
 62
     3
 10
-4.116347
 20
-29.094265
 40
3.200000
  1
STRETCH LINE B
 50
0.000000
 41
1.052632
 51
0.000000
  7
STANDARD
  0
TEXT
  8
0
 62
     3
 10
-23.585932
 20
-21.824429
 40
3.200000
  1
STRETCH LINE A
 50
0.000000
 41
1.052632
 51
0.000000
  7
STANDARD
  0
TEXT
  8
0
 62
     3
 10
-4.116347
 20
92.991707
 40
3.200000
  1
STRETCH LINE B
 50
0.000000
 41
1.052632
 51
0.000000
  7
STANDARD
  0
TEXT
  8
0
 62
     3
 10
-25.741133
 20
100.650490
 40
3.200000
  1
STRETCH LINE A
 50
0.000000
 41
1.052632
 51
0.000000
  7
STANDARD
  0
TEXT
  8
0
 10
-159.892654
 20
98.550003
 40
4.500000
  1
SGDAK16*ST(10)-RL
 50
0.000000
 41
1.052632
 51
0.000000
  7
STANDARD
  0
TEXT
  8
0
 10
-191.242187
 20
122.050003
 40
4.500000
  1
JIG CYLINDER WITH GUIDE
 50
0.000000
 41
1.052632
 51
0.000000
  7
STANDARD
  0
TEXT
  8
0
 10
-186.892654
 20
104.550003
 40
4.500000
  1
MODEL:SGDAK16*ST(10)-HL
 50
0.000000
 41
1.052632
 51
0.000000
  7
STANDARD
  0
TEXT
  8
0
 10
133.907150
 20
122.050003
 40
4.500000
  1
Ｖｅｒ．　１．０
 50
0.000000
 41
0.833333
 51
0.000000
  7
STANDARD
  0
TEXT
  8
0
 10
113.700287
 20
-130.669998
 40
6.300000
  1
KOGANEI CORP.
 50
0.000000
 41
1.052632
 51
0.000000
  7
STANDARD
  0
TEXT
  8
0
 62
     2
 10
38.380970
 20
3.344441
 40
3.200000
  1
STROKE:75-100
 50
0.000000
 41
1.052632
 51
0.000000
  7
STANDARD
  0
LINE
  8
0
 62
     2
 10
35.800003
 20
2.344441
 11
79.730972
 21
2.344441
  0
LINE
  8
0
 62
     2
 10
35.800003
 20
2.344441
 11
32.800003
 21
2.344441
  0
LINE
  8
0
 62
     2
 10
35.800003
 20
2.344441
 11
38.697781
 21
3.120898
  0
LINE
  8
0
 62
     2
 10
35.800003
 20
2.344441
 11
38.697781
 21
1.567984
  0
LINE
  8
0
 62
     2
 10
35.800003
 20
2.344441
 11
41.800003
 21
2.344441
  0
LINE
  8
0
 62
     2
 10
32.800003
 20
2.344441
 11
29.902225
 21
1.567984
  0
LINE
  8
0
 62
     2
 10
32.800003
 20
2.344441
 11
29.902225
 21
3.120898
  0
LINE
  8
0
 62
     2
 10
32.800003
 20
2.344441
 11
26.800003
 21
2.344441
  0
LINE
  8
0
 62
     2
 10
35.800003
 20
23.000000
 11
35.800003
 21
0.844441
  0
LINE
  8
0
 62
     2
 10
32.800003
 20
17.500000
 11
32.800003
 21
0.844441
  0
ENDSEC
  0
EOF
