  0
SECTION
  2
HEADER
  0
ENDSEC
  0
SECTION
  2
TABLES
  0
TABLE
  2
LTYPE
 70
     4
  0
LTYPE
  2
CONTINUOUS
 70
    64
  3
Solid line
 72
    65
 73
     0
 40
0.000000
  0
LTYPE
  2
DASHED
 70
    64
  3
__ __ __ __ __ __ __ __ __ __ __ __ __ __ __
 72
    65
 73
     2
 40
3.500000
 49
2.000000
 49
-1.500000
  0
LTYPE
  2
CENTER
 70
    64
  3
____ _ ____ _ ____ _ ____ _ ____ _ ____ _ ____
 72
    65
 73
     4
 40
17.500000
 49
13.000000
 49
-1.500000
 49
1.500000
 49
-1.500000
  0
LTYPE
  2
PHANTOM
 70
    64
  3
_____ _ _ _____ _ _ _____ _ _ _____ _ _ ____  
 72
    65
 73
     6
 40
15.500000
 49
8.000000
 49
-1.500000
 49
1.500000
 49
-1.500000
 49
1.500000
 49
-1.500000
  0
LTYPE
  2
DASHED1
 70
    64
  3
__ __ __ __ __ __ __ __ __ __ __ __ __ __ __
 72
    65
 73
     2
 40
1.500000
 49
1.000000
 49
-0.500000
  0
LTYPE
  2
DASHED2
 70
    64
  3
__ __ __ __ __ __ __ __ __ __ __ __ __ __ __
 72
    65
 73
     2
 40
3.500000
 49
2.500000
 49
-1.000000
  0
LTYPE
  2
DASHED3
 70
    64
  3
__ __ __ __ __ __ __ __ __ __ __ __ __ __ __
 72
    65
 73
     2
 40
6.000000
 49
4.000000
 49
-2.000000
  0
LTYPE
  2
DASHED4
 70
    64
  3
__ __ __ __ __ __ __ __ __ __ __ __ __ __ __
 72
    65
 73
     2
 40
12.000000
 49
10.000000
 49
-2.000000
  0
LTYPE
  2
DASHED5
 70
    64
  3
__ __ __ __ __ __ __ __ __ __ __ __ __ __ __
 72
    65
 73
     2
 40
17.000000
 49
15.000000
 49
-2.000000
  0
LTYPE
  2
DASHED6
 70
    64
  3
__ __ __ __ __ __ __ __ __ __ __ __ __ __ __
 72
    65
 73
     2
 40
29.000000
 49
27.000000
 49
-2.000000
  0
LTYPE
  2
PHANTOM1
 70
    64
  3
_____ _ _ _____ _ _ _____ _ _ _____ _ _ ____  
 72
    65
 73
     6
 40
31.000000
 49
25.000000
 49
-1.500000
 49
1.000000
 49
-1.000000
 49
1.000000
 49
-1.500000
  0
LTYPE
  2
PHANTOM2
 70
    64
  3
_____ _ _ _____ _ _ _____ _ _ _____ _ _ ____  
 72
    65
 73
     6
 40
36.000000
 49
27.000000
 49
-1.500000
 49
2.500000
 49
-1.000000
 49
2.500000
 49
-1.500000
  0
LTYPE
  2
PHANTOM3
 70
    64
  3
_____ _ _ _____ _ _ _____ _ _ _____ _ _ ____  
 72
    65
 73
     6
 40
78.000000
 49
64.000000
 49
-2.000000
 49
4.000000
 49
-2.000000
 49
4.000000
 49
-2.000000
  0
LTYPE
  2
CENTER1
 70
    64
  3
____ _ ____ _ ____ _ ____ _ ____ _ ____ _ ____
 72
    65
 73
     4
 40
19.000000
 49
14.000000
 49
-1.000000
 49
3.000000
 49
-1.000000
  0
LTYPE
  2
CENTER2
 70
    64
  3
____ _ ____ _ ____ _ ____ _ ____ _ ____ _ ____
 72
    65
 73
     4
 40
28.500000
 49
25.000000
 49
-1.000000
 49
1.500000
 49
-1.000000
  0
LTYPE
  2
CENTER3
 70
    64
  3
____ _ ____ _ ____ _ ____ _ ____ _ ____ _ ____
 72
    65
 73
     4
 40
31.500000
 49
27.000000
 49
-1.000000
 49
2.500000
 49
-1.000000
  0
LTYPE
  2
CENTER4
 70
    64
  3
____ _ ____ _ ____ _ ____ _ ____ _ ____ _ ____
 72
    65
 73
     4
 40
50.000000
 49
45.000000
 49
-1.000000
 49
3.000000
 49
-1.000000
  0
LTYPE
  2
CENTER5
 70
    64
  3
____ _ ____ _ ____ _ ____ _ ____ _ ____ _ ____
 72
    65
 73
     4
 40
100.000000
 49
92.000000
 49
-2.000000
 49
4.000000
 49
-2.000000
  0
LTYPE
  2
SBK1
 70
    64
  3
______ _ _ _ ______ _ _ _ ______ _ _ _ _____  
 72
    65
 73
     8
 40
60.500000
 49
45.000000
 49
-2.000000
 49
2.500000
 49
-2.000000
 49
2.500000
 49
-2.000000
 49
2.500000
 49
-2.000000
  0
LTYPE
  2
SBK2
 70
    64
  3
______ _ _ _ ______ _ _ _ ______ _ _ _ _____  
 72
    65
 73
     8
 40
84.000000
 49
64.000000
 49
-2.000000
 49
4.000000
 49
-2.000000
 49
4.000000
 49
-2.000000
 49
4.000000
 49
-2.000000
  0
LTYPE
  2
STCH
 70
    64
  3
__ __ __ __ __ __ __ __ __ __ __ __ __ __ __
 72
    65
 73
     2
 40
3.000000
 49
1.000000
 49
-2.000000
  0
LTYPE
  2
MTCH
 70
    64
  3
_____ _ _ _____ _ _ _____ _ _ _____ _ _ ____  
 72
    65
 73
     6
 40
80.000000
 49
66.000000
 49
-2.000000
 49
4.000000
 49
-2.000000
 49
4.000000
 49
-2.000000
  0
ENDTAB
  0
TABLE
  2
LAYER
 70
     1
  0
LAYER
  2
0
 70
     0
 62
     7
  6
CONTINUOUS
  0
ENDTAB
  0
TABLE
  2
STYLE
 70
     1
  0
STYLE
  2
STANDARD
 70
     0
 40
0.000000
 41
1.000000
 50
0.000000
 71
     0
 42
0.200000
  3
txt
  4
BIGFONT
  0
ENDTAB
  0
TABLE
  2
VIEW
 70
     0
  0
ENDTAB
  0
ENDSEC
  0
SECTION
  2
BLOCKS
  0
ENDSEC
  0
SECTION
  2
ENTITIES
  0
LINE
  8
0
 10
-26.000000
 20
20.000000
 11
-22.000000
 21
20.000000
  0
LINE
  8
0
 10
-26.000000
 20
-30.000000
 11
-26.000000
 21
58.000000
  0
LINE
  8
0
 10
-38.000000
 20
58.000000
 11
-38.000000
 21
-30.000000
  0
LINE
  8
0
 10
-26.000000
 20
-9.500000
 11
-22.000000
 21
-9.500000
  0
LINE
  8
0
 10
-26.000000
 20
-25.500000
 11
-22.000000
 21
-25.500000
  0
LINE
  8
0
 10
-24.500000
 20
17.316628
 11
-24.500000
 21
10.683372
  0
LINE
  8
0
 10
-26.000000
 20
10.683380
 11
-24.500000
 21
10.683380
  0
LINE
  8
0
 10
-26.000044
 20
12.341688
 11
-24.500010
 21
17.316738
  0
LINE
  8
0
 10
-24.500061
 20
10.683343
 11
-26.000010
 21
15.658110
  0
LINE
  8
0
 10
-26.000000
 20
8.000000
 11
-22.000000
 21
8.000000
  0
LINE
  8
0
 10
-37.000000
 20
-31.000000
 11
-27.000000
 21
-31.000000
  0
LINE
  8
0
 10
-37.000000
 20
59.000000
 11
-27.000000
 21
59.000000
  0
LINE
  8
0
 10
-37.999973
 20
-29.999979
 11
-36.999969
 21
-30.999983
  0
LINE
  8
0
 10
-26.000004
 20
-30.000006
 11
-27.000004
 21
-31.000008
  0
LINE
  8
0
 10
-37.000038
 20
59.000061
 11
-38.000038
 21
58.000061
  0
LINE
  8
0
 10
-26.999996
 20
58.999989
 11
-25.999994
 21
57.999989
  0
LINE
  8
0
 10
-21.500000
 20
60.000000
 11
25.500000
 21
60.000000
  0
LINE
  8
0
 10
-22.000000
 20
18.500000
 11
26.000000
 21
18.500000
  0
LINE
  8
0
 10
-22.000000
 20
21.699997
 11
26.000000
 21
21.699997
  0
LINE
  8
0
 10
-22.000000
 20
24.000000
 11
26.000000
 21
24.000000
  0
LINE
  8
0
 10
-22.000000
 20
25.000000
 11
26.000000
 21
25.000000
  0
LINE
  8
0
 10
-21.500000
 20
59.999950
 11
-22.000002
 21
59.499950
  0
LINE
  8
0
 10
25.499966
 20
60.000027
 11
25.999969
 21
59.500031
  0
LINE
  8
0
 10
-22.000000
 20
58.000000
 11
26.000000
 21
58.000000
  0
LINE
  8
0
 10
-22.000000
 20
43.149994
 11
26.000000
 21
43.149994
  0
LINE
  8
0
 10
-22.000000
 20
38.850006
 11
26.000000
 21
38.850006
  0
LINE
  8
0
  6
CENTER
 62
     2
 10
-21.684387
 20
30.500000
 11
-10.198090
 21
30.500000
  0
LINE
  8
0
  6
CENTER
 62
     2
 10
-40.505138
 20
45.500000
 11
-19.173477
 21
45.500000
  0
LINE
  8
0
  6
CENTER
 62
     2
 10
-40.505138
 20
-17.500000
 11
-19.173477
 21
-17.500000
  0
LINE
  8
0
 10
-26.000000
 20
17.316628
 11
-24.500000
 21
17.316628
  0
LINE
  8
0
  6
DASHED
 62
     2
 10
54.000000
 20
-10.000000
 11
54.000000
 21
-25.000000
  0
LINE
  8
0
  6
DASHED
 62
     2
 10
26.000000
 20
-9.500000
 11
53.500000
 21
-9.500000
  0
LINE
  8
0
  6
DASHED
 62
     2
 10
26.000000
 20
-25.500000
 11
53.500000
 21
-25.500000
  0
LINE
  8
0
  6
DASHED
 62
     2
 10
53.500004
 20
-9.500003
 11
53.999996
 21
-9.999998
  0
LINE
  8
0
  6
DASHED
 62
     2
 10
53.999989
 20
-24.999989
 11
53.499989
 21
-25.499989
  0
LINE
  8
0
  6
DASHED
 62
     2
 10
53.500000
 20
-9.500000
 11
53.500000
 21
-25.500000
  0
LINE
  8
0
  6
DASHED
 62
     2
 10
54.000000
 20
53.000000
 11
54.000000
 21
38.000000
  0
LINE
  8
0
  6
DASHED
 62
     2
 10
26.000000
 20
53.500000
 11
53.500000
 21
53.500000
  0
LINE
  8
0
  6
DASHED
 62
     2
 10
26.000000
 20
37.500000
 11
53.500000
 21
37.500000
  0
LINE
  8
0
  6
DASHED
 62
     2
 10
53.499989
 20
53.499992
 11
53.999989
 21
52.999992
  0
LINE
  8
0
  6
DASHED
 62
     2
 10
53.999992
 20
37.999996
 11
53.499996
 21
37.500004
  0
LINE
  8
0
  6
DASHED
 62
     2
 10
53.500000
 20
53.500000
 11
53.500000
 21
37.500000
  0
LINE
  8
0
 10
-26.000000
 20
53.500000
 11
-22.000000
 21
53.500000
  0
LINE
  8
0
 10
-26.000000
 20
37.500000
 11
-22.000000
 21
37.500000
  0
LINE
  8
0
  6
CENTER
 62
     2
 10
4.000000
 20
-8.537125
 11
4.000000
 21
4.202271
  0
LINE
  8
0
  6
CENTER
 62
     2
 10
-21.684387
 20
-2.500000
 11
-10.198090
 21
-2.500000
  0
LINE
  8
0
  6
CENTER
 62
     2
 10
-16.000000
 20
-8.537125
 11
-16.000000
 21
3.452881
  0
LINE
  8
0
 10
-22.000000
 20
3.000000
 11
26.000000
 21
3.000000
  0
LINE
  8
0
 10
-22.000000
 20
4.000000
 11
26.000000
 21
4.000000
  0
LINE
  8
0
 10
-22.000000
 20
9.500000
 11
26.000000
 21
9.500000
  0
LINE
  8
0
 10
-22.000000
 20
6.300003
 11
26.000000
 21
6.300003
  0
LINE
  8
0
  6
CENTER
 62
     2
 10
16.000000
 20
-22.325974
 11
16.000000
 21
-9.244629
  0
LINE
  8
0
 10
-22.000000
 20
-31.500000
 11
-22.000000
 21
59.500000
  0
LINE
  8
0
  6
CENTER
 62
     2
 10
-2.164734
 20
-2.500000
 11
10.000000
 21
-2.500000
  0
LINE
  8
0
 10
26.000000
 20
59.500000
 11
26.000000
 21
-31.500000
  0
LINE
  8
0
 10
-21.500000
 20
-32.000000
 11
25.500000
 21
-32.000000
  0
LINE
  8
0
  6
DASHED
 62
     2
 10
0.717010
 20
-29.183239
 11
0.717010
 21
-32.000000
  0
LINE
  8
0
  6
DASHED
 62
     2
 10
0.268005
 20
-29.183245
 11
0.136028
 21
-32.000008
  0
LINE
  8
0
  6
DASHED
 62
     2
 10
9.282990
 20
-29.183239
 11
9.282990
 21
-32.000000
  0
LINE
  8
0
  6
DASHED
 62
     2
 10
9.732137
 20
-29.183243
 11
9.864115
 21
-32.000000
  0
LINE
  8
0
 10
-22.000000
 20
-31.000000
 11
26.000000
 21
-31.000000
  0
LINE
  8
0
  6
CENTER
 62
     2
 10
10.311069
 20
-15.000000
 11
22.912643
 21
-15.000000
  0
LINE
  8
0
  6
CENTER
 62
     2
 10
-10.000000
 20
-22.058258
 11
-10.000000
 21
-8.899372
  0
LINE
  8
0
  6
DASHED
 62
     2
 10
-14.283005
 20
-29.183239
 11
-14.283005
 21
-32.000000
  0
LINE
  8
0
  6
DASHED
 62
     2
 10
-14.732031
 20
-29.183239
 11
-14.864009
 21
-32.000019
  0
LINE
  8
0
  6
DASHED
 62
     2
 10
-5.717010
 20
-29.183239
 11
-5.717010
 21
-32.000000
  0
LINE
  8
0
  6
DASHED
 62
     2
 10
-5.267918
 20
-29.183243
 11
-5.135942
 21
-31.999990
  0
LINE
  8
0
  6
CENTER
 62
     2
 10
-15.583229
 20
-15.000000
 11
-4.189739
 21
-15.000000
  0
LINE
  8
0
  6
CENTER
 62
     2
 10
-40.452652
 20
14.000000
 11
28.806305
 21
14.000000
  0
LINE
  8
0
 10
26.000008
 20
-31.499992
 11
25.500006
 21
-31.999992
  0
LINE
  8
0
 10
-22.000006
 20
-31.499964
 11
-21.500006
 21
-31.999966
  0
LINE
  8
0
  6
CENTER
 62
     2
 10
-10.000000
 20
-33.913498
 11
-10.000000
 21
-27.715897
  0
LINE
  8
0
  6
CENTER
 62
     2
 10
4.000000
 20
36.796261
 11
4.000000
 21
24.243965
  0
LINE
  8
0
  6
CENTER
 62
     2
 10
-16.000000
 20
36.677841
 11
-16.000000
 21
24.243965
  0
LINE
  8
0
  6
CENTER
 62
     2
 10
-2.174232
 20
30.500000
 11
10.259644
 21
30.500000
  0
LINE
  8
0
  6
PHANTOM
 62
     3
 10
11.599998
 20
64.400002
 11
11.599998
 21
-10.400002
  0
LINE
  8
0
  6
PHANTOM
 62
     3
 10
-3.599998
 20
72.800003
 11
-3.599998
 21
-37.000000
  0
LINE
  8
0
  6
PHANTOM
 62
     3
 10
-1.099998
 20
-10.400002
 11
-1.099998
 21
-37.000000
  0
LINE
  8
0
  6
PHANTOM
 62
     3
 10
-1.099998
 20
-10.400002
 11
11.599998
 21
-10.400002
  0
LINE
  8
0
  6
CENTER
 62
     2
 10
5.000000
 20
-33.913498
 11
5.000000
 21
-27.715897
  0
LINE
  8
0
 10
-135.999985
 20
16.309408
 11
-133.999985
 21
15.154710
  0
LINE
  8
0
  6
CENTER
 62
     2
 10
-136.000000
 20
63.872604
 11
-136.000000
 21
-35.152332
  0
LINE
  8
0
 10
-157.000000
 20
58.000000
 11
-157.000000
 21
43.949997
  0
LINE
  8
0
 10
-116.000000
 20
-32.000000
 11
-155.000000
 21
-32.000000
  0
LINE
  8
0
 10
-117.000000
 20
60.000000
 11
-155.000000
 21
60.000000
  0
LINE
  8
0
  6
CENTER
 62
     2
 10
-112.173523
 20
14.000000
 11
-159.777618
 21
14.000000
  0
LINE
  8
0
 10
-115.000000
 20
3.000000
 11
-115.000000
 21
-31.000000
  0
LINE
  8
0
 10
-157.000000
 20
38.050003
 11
-157.000000
 21
25.000000
  0
LINE
  8
0
 10
-116.999908
 20
60.000080
 11
-114.999908
 21
58.000076
  0
LINE
  8
0
 10
-155.000031
 20
-32.000053
 11
-157.000031
 21
-30.000048
  0
LINE
  8
0
 10
-155.000031
 20
60.000034
 11
-157.000061
 21
58.000008
  0
LINE
  8
0
 10
-116.000000
 20
21.699997
 11
-116.500000
 21
21.699997
  0
LINE
  8
0
 10
-116.500031
 20
21.700008
 11
-117.000053
 21
22.200024
  0
LINE
  8
0
 10
-116.000000
 20
18.500000
 11
-116.500000
 21
18.500000
  0
LINE
  8
0
 10
-116.499992
 20
18.499937
 11
-117.000008
 21
17.999929
  0
LINE
  8
0
 10
-115.000000
 20
58.000031
 11
-115.000000
 21
43.449997
  0
LINE
  8
0
 10
-116.000000
 20
24.422653
 11
-116.000000
 21
21.699997
  0
LINE
  8
0
 10
-116.000000
 20
18.500000
 11
-116.000000
 21
9.500000
  0
LINE
  8
0
 10
-155.000000
 20
43.649994
 11
-156.700012
 21
43.649994
  0
LINE
  8
0
 10
-155.000000
 20
38.350006
 11
-156.700012
 21
38.350006
  0
LINE
  8
0
 10
-115.299988
 20
38.850006
 11
-117.000000
 21
38.850006
  0
LINE
  8
0
 10
-115.299988
 20
43.149994
 11
-117.000000
 21
43.149994
  0
LINE
  8
0
 10
-115.000000
 20
38.550003
 11
-115.000000
 21
25.000000
  0
LINE
  8
0
 10
-114.999962
 20
-30.999964
 11
-115.999992
 21
-31.999985
  0
LINE
  8
0
 10
-116.000000
 20
6.300003
 11
-116.500000
 21
6.300003
  0
LINE
  8
0
 10
-116.500061
 20
6.300010
 11
-117.000069
 21
5.800001
  0
LINE
  8
0
 10
-116.000000
 20
9.500000
 11
-116.500000
 21
9.500000
  0
LINE
  8
0
 10
-116.499969
 20
9.500060
 11
-116.999985
 21
10.000069
  0
LINE
  8
0
 10
-116.000000
 20
3.577354
 11
-116.000000
 21
6.300003
  0
LINE
  8
0
 10
-116.000008
 20
24.422686
 11
-115.000023
 21
25.000029
  0
LINE
  8
0
 10
-116.000000
 20
3.577339
 11
-114.999985
 21
2.999975
  0
LINE
  8
0
 10
-156.000015
 20
3.577366
 11
-157.000061
 21
2.999995
  0
LINE
  8
0
 10
-156.000000
 20
21.699997
 11
-155.500000
 21
21.699997
  0
LINE
  8
0
 10
-155.500000
 20
21.700010
 11
-154.999985
 21
22.200024
  0
LINE
  8
0
 10
-156.000000
 20
18.500000
 11
-155.500000
 21
18.500000
  0
LINE
  8
0
 10
-155.500031
 20
18.499956
 11
-155.000015
 21
17.999958
  0
LINE
  8
0
 10
-156.000000
 20
24.422653
 11
-156.000000
 21
21.699997
  0
LINE
  8
0
 10
-156.000000
 20
18.500000
 11
-156.000000
 21
9.500000
  0
LINE
  8
0
 10
-156.000000
 20
6.300003
 11
-155.500000
 21
6.300003
  0
LINE
  8
0
 10
-155.500015
 20
6.300009
 11
-154.999985
 21
5.799994
  0
LINE
  8
0
 10
-156.000000
 20
9.500000
 11
-155.500000
 21
9.500000
  0
LINE
  8
0
 10
-155.499985
 20
9.500029
 11
-154.999969
 21
10.000037
  0
LINE
  8
0
 10
-156.000000
 20
3.577354
 11
-156.000000
 21
6.300003
  0
LINE
  8
0
 10
-156.000015
 20
24.422617
 11
-157.000031
 21
24.999981
  0
LINE
  8
0
 10
-157.000000
 20
-30.000000
 11
-157.000000
 21
-15.949997
  0
LINE
  8
0
 10
-155.000000
 20
-15.650002
 11
-156.700012
 21
-15.650002
  0
LINE
  8
0
 10
-155.000000
 20
-10.349998
 11
-156.700012
 21
-10.349998
  0
LINE
  8
0
 10
-154.000000
 20
59.000000
 11
-118.000000
 21
59.000000
  0
LINE
  8
0
 10
-154.000000
 20
-31.000000
 11
-118.000000
 21
-31.000000
  0
LINE
  8
0
 10
-153.999985
 20
59.000000
 11
-154.999985
 21
57.999996
  0
LINE
  8
0
 10
-117.999901
 20
59.000114
 11
-116.999901
 21
58.000114
  0
LINE
  8
0
 10
-154.999985
 20
-29.999990
 11
-153.999985
 21
-30.999992
  0
LINE
  8
0
 10
-117.000008
 20
-29.999975
 11
-118.000008
 21
-30.999968
  0
LINE
  8
0
  6
CENTER
 62
     2
 10
-149.000000
 20
-28.603226
 11
-149.000000
 21
-19.512543
  0
LINE
  8
0
  6
CENTER
 62
     2
 10
-154.428070
 20
-24.000000
 11
-144.033188
 21
-24.000000
  0
LINE
  8
0
  6
CENTER
 62
     2
 10
-153.710083
 20
52.000000
 11
-144.225800
 21
52.000000
  0
LINE
  8
0
  6
CENTER
 62
     2
 10
-123.000000
 20
-28.603226
 11
-123.000000
 21
-19.512543
  0
LINE
  8
0
 10
-136.000000
 20
-15.190611
 11
-137.999985
 21
-16.345304
  0
LINE
  8
0
 10
-138.000000
 20
-16.345299
 11
-138.000000
 21
-18.654701
  0
LINE
  8
0
 10
-136.000000
 20
-19.809370
 11
-137.999985
 21
-18.654680
  0
LINE
  8
0
 10
-133.999969
 20
-18.654715
 11
-135.999969
 21
-19.809414
  0
LINE
  8
0
 10
-134.000000
 20
-16.345299
 11
-134.000000
 21
-18.654701
  0
LINE
  8
0
 10
-135.999969
 20
-15.190583
 11
-133.999969
 21
-16.345280
  0
LINE
  8
0
 10
-135.999985
 20
16.309372
 11
-137.999985
 21
15.154675
  0
LINE
  8
0
 10
-138.000000
 20
15.154701
 11
-138.000000
 21
12.845301
  0
LINE
  8
0
 10
-135.999985
 20
11.690605
 11
-137.999985
 21
12.845307
  0
LINE
  8
0
 10
-134.000000
 20
12.845281
 11
-136.000000
 21
11.690579
  0
LINE
  8
0
 10
-134.000000
 20
15.154699
 11
-134.000000
 21
12.845299
  0
LINE
  8
0
 10
-136.000000
 20
47.809376
 11
-137.999985
 21
46.654678
  0
LINE
  8
0
 10
-138.000000
 20
46.654701
 11
-138.000000
 21
44.345299
  0
LINE
  8
0
 10
-136.000015
 20
43.190613
 11
-138.000000
 21
44.345306
  0
LINE
  8
0
 10
-133.999985
 20
44.345280
 11
-135.999985
 21
43.190582
  0
LINE
  8
0
 10
-134.000000
 20
46.654701
 11
-134.000000
 21
44.345299
  0
LINE
  8
0
 10
-135.999985
 20
47.809402
 11
-134.000000
 21
46.654705
  0
LINE
  8
0
 10
-155.000000
 20
58.000000
 11
-155.000000
 21
-30.000000
  0
LINE
  8
0
 10
-117.000000
 20
58.000000
 11
-117.000000
 21
-30.000000
  0
LINE
  8
0
 10
-157.000000
 20
-10.050003
 11
-157.000000
 21
3.000000
  0
LINE
  8
0
  6
CENTER
 62
     2
 10
-149.000000
 20
56.643517
 11
-149.000000
 21
47.159233
  0
LINE
  8
0
  6
CENTER
 62
     2
 10
-123.000000
 20
56.573776
 11
-123.000000
 21
47.159233
  0
LINE
  8
0
  6
CENTER
 62
     2
 10
-127.767776
 20
52.000000
 11
-118.144020
 21
52.000000
  0
LINE
  8
0
  6
CENTER
 62
     2
 10
-143.119156
 20
45.500000
 11
-128.901382
 21
45.500000
  0
LINE
  8
0
  6
CENTER
 62
     2
 10
-142.988602
 20
-17.500000
 11
-128.622147
 21
-17.500000
  0
LINE
  8
0
  6
CENTER
 62
     2
 10
-127.225555
 20
-24.000000
 11
-118.812668
 21
-24.000000
  0
LINE
  8
0
 10
142.000000
 20
21.699997
 11
141.499985
 21
21.699997
  0
LINE
  8
0
  6
DASHED
 62
     2
 10
102.768097
 20
-29.183239
 11
102.636124
 21
-32.000000
  0
LINE
  8
0
  6
DASHED
 62
     2
 10
103.216995
 20
-29.183239
 11
103.216995
 21
-32.000000
  0
LINE
  8
0
  6
DASHED
 62
     2
 10
111.783005
 20
-29.183239
 11
111.783005
 21
-32.000000
  0
LINE
  8
0
  6
DASHED
 62
     2
 10
112.232246
 20
-29.183237
 11
112.364227
 21
-31.999989
  0
LINE
  8
0
  6
CENTER
 62
     2
 10
122.000000
 20
62.663757
 11
122.000000
 21
-35.729996
  0
LINE
  8
0
 10
143.000000
 20
58.000000
 11
143.000000
 21
43.949997
  0
LINE
  8
0
 10
102.000000
 20
-32.000000
 11
141.000000
 21
-32.000000
  0
LINE
  8
0
 10
103.000000
 20
60.000000
 11
141.000000
 21
60.000000
  0
LINE
  8
0
  6
CENTER
 62
     2
 10
111.054314
 20
45.500000
 11
133.158630
 21
45.500000
  0
LINE
  8
0
  6
CENTER
 62
     2
 10
98.173523
 20
14.000000
 11
145.777618
 21
14.000000
  0
LINE
  8
0
 10
101.000000
 20
3.000000
 11
101.000000
 21
-31.000000
  0
LINE
  8
0
 10
143.000000
 20
38.050003
 11
143.000000
 21
25.000000
  0
LINE
  8
0
 10
102.999870
 20
60.000099
 11
100.999870
 21
58.000095
  0
LINE
  8
0
 10
140.999985
 20
-32.000011
 11
142.999985
 21
-30.000006
  0
LINE
  8
0
 10
141.000000
 20
60.000015
 11
143.000000
 21
58.000004
  0
LINE
  8
0
 10
103.000015
 20
22.199997
 11
104.599991
 21
22.199997
  0
LINE
  8
0
 10
102.000000
 20
21.699997
 11
102.500015
 21
21.699997
  0
LINE
  8
0
 10
102.500046
 20
21.700027
 11
103.000038
 21
22.200016
  0
LINE
  8
0
 10
102.000000
 20
18.500000
 11
102.500015
 21
18.500000
  0
LINE
  8
0
 10
102.499992
 20
18.499928
 11
103.000000
 21
17.999929
  0
LINE
  8
0
 10
103.000015
 20
18.000000
 11
104.599991
 21
18.000000
  0
LINE
  8
0
 10
101.000000
 20
58.000031
 11
101.000000
 21
43.449997
  0
LINE
  8
0
 10
102.000000
 20
24.422653
 11
102.000000
 21
21.699997
  0
LINE
  8
0
 10
102.000000
 20
18.500000
 11
102.000000
 21
9.500000
  0
LINE
  8
0
 10
135.500000
 20
45.149994
 11
140.000000
 21
45.149994
  0
LINE
  8
0
 10
135.500000
 20
36.850006
 11
140.000000
 21
36.850006
  0
LINE
  8
0
 10
140.000000
 20
43.649994
 11
142.699997
 21
43.649994
  0
LINE
  8
0
 10
140.000000
 20
38.350006
 11
142.699997
 21
38.350006
  0
LINE
  8
0
 10
140.000000
 20
45.149994
 11
140.000000
 21
43.649994
  0
LINE
  8
0
 10
140.000000
 20
38.350006
 11
140.000000
 21
36.850006
  0
LINE
  8
0
 10
104.000000
 20
44.649994
 11
104.000000
 21
43.149994
  0
LINE
  8
0
 10
108.000000
 20
44.649994
 11
108.000000
 21
37.350006
  0
LINE
  8
0
 10
104.000000
 20
44.649994
 11
108.000000
 21
44.649994
  0
LINE
  8
0
 10
104.000000
 20
37.350006
 11
108.000000
 21
37.350006
  0
LINE
  8
0
 10
101.300003
 20
38.850006
 11
104.000000
 21
38.850006
  0
LINE
  8
0
 10
101.300003
 20
43.149994
 11
104.000000
 21
43.149994
  0
LINE
  8
0
 10
104.000000
 20
38.850006
 11
104.000000
 21
37.350006
  0
LINE
  8
0
 10
101.000000
 20
38.550003
 11
101.000000
 21
25.000000
  0
LINE
  8
0
 10
135.500000
 20
45.149994
 11
135.500000
 21
36.850006
  0
LINE
  8
0
 10
100.999985
 20
-30.999990
 11
101.999992
 21
-31.999990
  0
LINE
  8
0
 10
103.000015
 20
5.800003
 11
104.599991
 21
5.800003
  0
LINE
  8
0
 10
102.000000
 20
6.300003
 11
102.500015
 21
6.300003
  0
LINE
  8
0
 10
102.500031
 20
6.300007
 11
103.000031
 21
5.800006
  0
LINE
  8
0
 10
102.000000
 20
9.500000
 11
102.500015
 21
9.500000
  0
LINE
  8
0
 10
102.500008
 20
9.500046
 11
103.000008
 21
10.000046
  0
LINE
  8
0
 10
103.000015
 20
10.000000
 11
104.599991
 21
10.000000
  0
LINE
  8
0
 10
102.000000
 20
3.577347
 11
102.000000
 21
6.300003
  0
LINE
  8
0
 10
101.999992
 20
24.422647
 11
100.999985
 21
25.000008
  0
LINE
  8
0
 10
101.999992
 20
3.577367
 11
100.999962
 21
3.000000
  0
LINE
  8
0
 10
142.000000
 20
3.577362
 11
143.000031
 21
2.999988
  0
LINE
  8
0
 10
140.999985
 20
22.199997
 11
139.400009
 21
22.199997
  0
LINE
  8
0
 10
142.000000
 20
21.699997
 11
141.499985
 21
21.699997
  0
LINE
  8
0
 10
141.499969
 20
21.700018
 11
140.999969
 21
22.200020
  0
LINE
  8
0
 10
142.000000
 20
18.500000
 11
141.499985
 21
18.500000
  0
LINE
  8
0
 10
141.500015
 20
18.499941
 11
141.000031
 21
17.999954
  0
LINE
  8
0
 10
140.999985
 20
18.000000
 11
139.400009
 21
18.000000
  0
LINE
  8
0
 10
142.000000
 20
24.422653
 11
142.000000
 21
21.699997
  0
LINE
  8
0
 10
142.000000
 20
18.500000
 11
142.000000
 21
9.500000
  0
LINE
  8
0
 10
140.999985
 20
5.800003
 11
139.400009
 21
5.800003
  0
LINE
  8
0
 10
142.000000
 20
6.300003
 11
141.499985
 21
6.300003
  0
LINE
  8
0
 10
141.499969
 20
6.299985
 11
140.999969
 21
5.799984
  0
LINE
  8
0
 10
142.000000
 20
9.500000
 11
141.499985
 21
9.500000
  0
LINE
  8
0
 10
141.500000
 20
9.500024
 11
141.000000
 21
10.000024
  0
LINE
  8
0
 10
140.999985
 20
10.000000
 11
139.400009
 21
10.000000
  0
LINE
  8
0
 10
142.000000
 20
3.577347
 11
142.000000
 21
6.300003
  0
LINE
  8
0
 10
142.000000
 20
24.422659
 11
143.000000
 21
25.000015
  0
LINE
  8
0
 10
143.000000
 20
-30.000000
 11
143.000000
 21
-15.949997
  0
LINE
  8
0
 10
143.000000
 20
-10.050003
 11
143.000000
 21
3.000000
  0
LINE
  8
0
 10
135.500000
 20
-17.149994
 11
140.000000
 21
-17.149994
  0
LINE
  8
0
 10
135.500000
 20
-8.850006
 11
140.000000
 21
-8.850006
  0
LINE
  8
0
 10
140.000000
 20
-15.649994
 11
142.699997
 21
-15.649994
  0
LINE
  8
0
 10
140.000000
 20
-10.350006
 11
142.699997
 21
-10.350006
  0
LINE
  8
0
 10
140.000000
 20
-17.149994
 11
140.000000
 21
-15.649994
  0
LINE
  8
0
 10
140.000000
 20
-10.350006
 11
140.000000
 21
-8.850006
  0
LINE
  8
0
 10
135.500000
 20
-17.149994
 11
135.500000
 21
-8.850006
  0
LINE
  8
0
  6
CENTER
 62
     2
 10
111.054314
 20
-17.500000
 11
133.158630
 21
-17.500000
  0
LINE
  8
0
  6
CENTER
 62
     2
 10
107.000000
 20
-21.953461
 11
107.000000
 21
-30.418503
  0
LINE
  8
0
  6
CENTER
 62
     2
 10
111.278610
 20
-26.000000
 11
102.643509
 21
-26.000000
  0
LINE
  8
0
  6
CENTER
 62
     2
 10
137.000000
 20
49.953461
 11
137.000000
 21
58.418503
  0
LINE
  8
0
  6
CENTER
 62
     2
 10
141.278610
 20
54.000000
 11
132.643509
 21
54.000000
  0
LINE
  8
0
 10
128.708206
 20
-11.500000
 11
135.500000
 21
-11.500000
  0
LINE
  8
0
 10
130.485291
 20
-14.500000
 11
135.500000
 21
-14.500000
  0
LINE
  8
0
 10
128.708206
 20
39.500000
 11
135.500000
 21
39.500000
  0
LINE
  8
0
 10
130.485291
 20
42.500000
 11
135.500000
 21
42.500000
  0
LINE
  8
0
  6
CENTER
 62
     2
 10
107.000000
 20
49.953461
 11
107.000000
 21
58.418503
  0
LINE
  8
0
  6
CENTER
 62
     2
 10
102.721390
 20
54.000000
 11
111.356491
 21
54.000000
  0
LINE
  8
0
  6
CENTER
 62
     2
 10
134.033691
 20
41.000000
 11
138.158524
 21
41.000000
  0
LINE
  8
0
  6
CENTER
 62
     2
 10
133.903961
 20
-13.000000
 11
137.688660
 21
-13.000000
  0
LINE
  8
0
  6
CENTER
 62
     2
 10
104.000000
 20
41.000000
 11
110.123619
 21
41.000000
  0
LINE
  8
0
  6
CENTER
 62
     2
 10
107.500000
 20
-27.690659
 11
107.500000
 21
-33.820633
  0
LINE
  8
0
  6
CENTER
 62
     2
 10
105.510475
 20
-15.000000
 11
109.597702
 21
-15.000000
  0
LINE
  8
0
  6
CENTER
 62
     2
 10
107.500008
 20
-13.125015
 11
107.500008
 21
-17.017609
  0
LINE
  8
0
  6
CENTER
 62
     2
 10
137.000000
 20
-21.953461
 11
137.000000
 21
-30.418503
  0
LINE
  8
0
  6
CENTER
 62
     2
 10
141.278610
 20
-26.000000
 11
132.643509
 21
-26.000000
  0
LINE
  8
0
 10
103.000000
 20
43.149994
 11
103.000000
 21
38.850006
  0
LINE
  8
0
 10
141.000000
 20
43.649994
 11
141.000000
 21
38.350006
  0
LINE
  8
0
 10
103.000000
 20
22.199997
 11
103.000000
 21
18.000000
  0
LINE
  8
0
 10
103.000000
 20
10.000000
 11
103.000000
 21
5.800003
  0
LINE
  8
0
 10
141.000000
 20
22.199997
 11
141.000000
 21
18.000000
  0
LINE
  8
0
 10
141.000000
 20
10.000000
 11
141.000000
 21
5.800003
  0
LINE
  8
0
 10
141.000000
 20
-10.350006
 11
141.000000
 21
-15.649994
  0
LINE
  8
0
 10
-194.250000
 20
132.600006
 11
194.800003
 21
132.600006
  0
LINE
  8
0
 10
194.800003
 20
132.600006
 11
194.800003
 21
-133.500000
  0
LINE
  8
0
 10
-194.250000
 20
132.600006
 11
-194.250000
 21
-133.500000
  0
LINE
  8
0
 10
-194.250000
 20
-133.500000
 11
194.800003
 21
-133.500000
  0
LINE
  8
0
 10
109.800003
 20
-118.500000
 11
109.800003
 21
-133.500000
  0
LINE
  8
0
 10
109.800003
 20
-118.500000
 11
194.800003
 21
-118.500000
  0
LINE
  8
0
 10
109.800003
 20
132.600006
 11
109.800003
 21
117.600006
  0
LINE
  8
0
 10
109.800003
 20
117.600006
 11
194.800003
 21
117.600006
  0
LINE
  8
0
 10
-194.250000
 20
117.600006
 11
-84.250000
 21
117.600006
  0
LINE
  8
0
 10
-84.250000
 20
132.600006
 11
-84.250000
 21
117.600006
  0
LINE
  8
0
 10
-184.250000
 20
-123.500000
 11
-39.250000
 21
-123.500000
  0
LINE
  8
0
 10
-184.250000
 20
-123.500000
 11
-184.250000
 21
-92.500000
  0
LINE
  8
0
 10
-184.250000
 20
-115.500000
 11
-39.250000
 21
-115.500000
  0
LINE
  8
0
 10
-184.250000
 20
-107.500000
 11
-39.250000
 21
-107.500000
  0
LINE
  8
0
 10
-159.250000
 20
-123.500000
 11
-159.250000
 21
-92.500000
  0
LINE
  8
0
 10
-135.250000
 20
-123.500000
 11
-135.250000
 21
-92.500000
  0
LINE
  8
0
 10
-147.250000
 20
-123.500000
 11
-147.250000
 21
-92.500000
  0
LINE
  8
0
 10
-123.250000
 20
-123.500000
 11
-123.250000
 21
-92.500000
  0
LINE
  8
0
 10
-111.250000
 20
-123.500000
 11
-111.250000
 21
-92.500000
  0
LINE
  8
0
 10
-99.250000
 20
-123.500000
 11
-99.250000
 21
-92.500000
  0
LINE
  8
0
 10
-159.250046
 20
-107.500015
 11
-161.929535
 21
-97.500023
  0
LINE
  8
0
 10
-184.250000
 20
-97.500000
 11
-161.929489
 21
-97.500000
  0
LINE
  8
0
 10
-184.250000
 20
-92.500000
 11
-39.250000
 21
-92.500000
  0
LINE
  8
0
 10
-39.250000
 20
-123.500000
 11
-39.250000
 21
-92.500000
  0
LINE
  8
0
 10
-87.250000
 20
-123.500000
 11
-87.250000
 21
-92.500000
  0
LINE
  8
0
 10
-75.250000
 20
-123.500000
 11
-75.250000
 21
-92.500000
  0
LINE
  8
0
 10
-63.250000
 20
-123.500000
 11
-63.250000
 21
-92.500000
  0
LINE
  8
0
 10
-51.250000
 20
-123.500000
 11
-51.250000
 21
-92.500000
  0
CIRCLE
  8
0
 10
-10.000000
 20
-15.000000
 40
4.283003
  0
CIRCLE
  8
0
 62
     2
 10
-10.000000
 20
-15.000000
 40
4.864004
  0
ARC
  8
0
 10
-29.500000
 20
14.000000
 40
6.000000
 50
326.442688
 51
33.557331
  0
CIRCLE
  8
0
 10
4.000000
 20
30.500000
 40
4.750000
  0
CIRCLE
  8
0
 10
4.000000
 20
30.500000
 40
2.600000
  0
CIRCLE
  8
0
  6
DASHED
 62
     2
 10
4.000000
 20
30.500000
 40
3.000000
  0
CIRCLE
  8
0
 10
-16.000000
 20
30.500000
 40
4.750000
  0
CIRCLE
  8
0
  6
DASHED
 62
     2
 10
-16.000000
 20
30.500000
 40
3.000000
  0
CIRCLE
  8
0
 10
-16.000000
 20
30.500000
 40
2.600000
  0
CIRCLE
  8
0
 10
4.000000
 20
-2.500000
 40
4.750000
  0
CIRCLE
  8
0
  6
DASHED
 62
     2
 10
4.000000
 20
-2.500000
 40
3.000000
  0
CIRCLE
  8
0
 10
4.000000
 20
-2.500000
 40
2.600000
  0
CIRCLE
  8
0
 10
-16.000000
 20
-2.500000
 40
2.600000
  0
CIRCLE
  8
0
  6
DASHED
 62
     2
 10
-16.000000
 20
-2.500000
 40
3.000000
  0
CIRCLE
  8
0
 10
-16.000000
 20
-2.500000
 40
4.750000
  0
CIRCLE
  8
0
 62
     2
 10
16.000000
 20
-15.000000
 40
4.864004
  0
CIRCLE
  8
0
 10
16.000000
 20
-15.000000
 40
4.283003
  0
CIRCLE
  8
0
 10
-136.000000
 20
45.500000
 40
3.400000
  0
CIRCLE
  8
0
 10
-136.000000
 20
45.500000
 40
5.250000
  0
ARC
  8
0
 10
-156.700012
 20
43.949997
 40
0.300003
 50
180.000000
 51
270.000000
  0
ARC
  8
0
 10
-156.700012
 20
38.050003
 40
0.299999
 50
90.000000
 51
180.000000
  0
ARC
  8
0
 10
-156.700012
 20
-10.050003
 40
0.300003
 50
180.000000
 51
270.000000
  0
ARC
  8
0
 10
-156.700012
 20
-15.949997
 40
0.300000
 50
90.000000
 51
180.000000
  0
ARC
  8
0
 10
-115.299988
 20
43.449997
 40
0.299999
 50
270.000000
 51
0.000000
  0
ARC
  8
0
 10
-115.299988
 20
38.550003
 40
0.300003
 50
0.000000
 51
90.000000
  0
CIRCLE
  8
0
 10
-136.000000
 20
45.500000
 40
5.750000
  0
CIRCLE
  8
0
 10
-136.000000
 20
14.000000
 40
5.750000
  0
CIRCLE
  8
0
 62
     2
 10
-149.000000
 20
-24.000000
 40
3.000000
  0
CIRCLE
  8
0
 10
-149.000000
 20
-24.000000
 40
2.500000
  0
CIRCLE
  8
0
 10
-136.000000
 20
-17.500000
 40
5.750000
  0
CIRCLE
  8
0
 10
-149.000000
 20
52.000000
 40
2.500000
  0
CIRCLE
  8
0
 62
     2
 10
-149.000000
 20
52.000000
 40
3.000000
  0
CIRCLE
  8
0
 10
-123.000000
 20
-24.000000
 40
2.500000
  0
CIRCLE
  8
0
 62
     2
 10
-123.000000
 20
-24.000000
 40
3.000000
  0
CIRCLE
  8
0
 10
-123.000000
 20
52.000000
 40
2.500000
  0
CIRCLE
  8
0
 62
     2
 10
-123.000000
 20
52.000000
 40
3.000000
  0
CIRCLE
  8
0
 10
-136.000000
 20
-17.500000
 40
5.250000
  0
CIRCLE
  8
0
 10
-136.000000
 20
-17.500000
 40
3.400000
  0
CIRCLE
  8
0
 10
-136.000000
 20
14.000000
 40
5.250000
  0
CIRCLE
  8
0
 10
-136.000000
 20
14.000000
 40
3.400000
  0
ARC
  8
0
 10
104.599991
 20
20.100006
 40
2.100000
 50
270.000000
 51
90.000000
  0
ARC
  8
0
 10
104.599991
 20
7.899994
 40
2.100000
 50
270.000000
 51
90.000000
  0
ARC
  8
0
 10
139.400009
 20
7.899994
 40
2.100000
 50
90.000000
 51
270.000000
  0
ARC
  8
0
 10
139.400009
 20
20.100006
 40
2.100000
 50
90.000000
 51
270.000000
  0
CIRCLE
  8
0
 10
122.000000
 20
45.500000
 40
9.000000
  0
CIRCLE
  8
0
 10
122.000000
 20
-17.500000
 40
9.000000
  0
CIRCLE
  8
0
 10
122.000000
 20
14.000000
 40
14.000001
  0
CIRCLE
  8
0
 62
     2
 10
107.000000
 20
-26.000000
 40
3.000000
  0
CIRCLE
  8
0
 10
107.000000
 20
-26.000000
 40
2.500000
  0
CIRCLE
  8
0
 62
     2
 10
137.000000
 20
54.000000
 40
3.000000
  0
CIRCLE
  8
0
 10
137.000000
 20
54.000000
 40
2.500000
  0
ARC
  8
0
 10
142.699997
 20
43.949997
 40
0.299999
 50
270.000000
 51
0.000000
  0
ARC
  8
0
 10
142.699997
 20
38.050003
 40
0.300003
 50
0.000000
 51
90.000000
  0
ARC
  8
0
 10
101.300003
 20
43.449997
 40
0.300003
 50
180.000000
 51
270.000000
  0
ARC
  8
0
 10
101.300003
 20
38.550003
 40
0.299999
 50
90.000000
 51
180.000000
  0
ARC
  8
0
 10
142.699997
 20
-15.949997
 40
0.300003
 50
0.000000
 51
90.000000
  0
ARC
  8
0
 10
142.699997
 20
-10.050003
 40
0.300000
 50
270.000000
 51
0.000000
  0
CIRCLE
  8
0
 10
107.500008
 20
-15.000000
 40
1.000000
  0
CIRCLE
  8
0
 62
     2
 10
107.000000
 20
54.000000
 40
3.000000
  0
CIRCLE
  8
0
 10
107.000000
 20
54.000000
 40
2.500000
  0
CIRCLE
  8
0
 62
     2
 10
137.000000
 20
-26.000000
 40
3.000000
  0
CIRCLE
  8
0
 10
137.000000
 20
-26.000000
 40
2.500000
  0
CIRCLE
  8
0
 10
122.000000
 20
45.500000
 40
8.000000
  0
CIRCLE
  8
0
 10
122.000000
 20
-17.500000
 40
8.000000
  0
TEXT
  8
0
 10
133.907150
 20
122.050003
 40
4.500000
  1
Ver. 1.0
 50
0.000000
 41
1.052631
 51
0.000000
  7
STANDARD
  0
TEXT
  8
0
 10
113.700279
 20
-130.669998
 40
6.300000
  1
KOGANEI CORP.
 50
0.000000
 41
1.052632
 51
0.000000
  7
STANDARD
  0
TEXT
  8
0
 10
-191.392654
 20
122.050003
 40
4.500000
  1
JIG CYLINDER WITH GUIDE
 50
0.000000
 41
1.052632
 51
0.000000
  7
STANDARD
  0
TEXT
  8
0
 10
-186.892654
 20
104.550003
 40
4.500000
  1
MODEL:SGDA25*ST(10)
 50
0.000000
 41
1.052632
 51
0.000000
  7
STANDARD
  0
TEXT
  8
0
 10
-181.557144
 20
-96.879997
 40
3.200000
  1
STROKE
 50
0.000000
 41
1.052631
 51
0.000000
  7
STANDARD
  0
TEXT
  8
0
 10
-173.557144
 20
-113.379997
 40
3.200000
  1
A
 50
0.000000
 41
1.052631
 51
0.000000
  7
STANDARD
  0
TEXT
  8
0
 10
-184.496872
 20
-101.019997
 40
3.200000
  1
STRETCH
 50
0.000000
 41
1.052631
 51
0.000000
  7
STANDARD
  0
TEXT
  8
0
 10
-184.496872
 20
-105.820000
 40
3.200000
  1
  PLACE
 50
0.000000
 41
1.052631
 51
0.000000
  7
STANDARD
  0
TEXT
  8
0
 10
-156.657150
 20
-101.879997
 40
3.200000
  1
10
 50
0.000000
 41
1.052631
 51
0.000000
  7
STANDARD
  0
TEXT
  8
0
 10
-144.657150
 20
-101.879997
 40
3.200000
  1
20
 50
0.000000
 41
1.052631
 51
0.000000
  7
STANDARD
  0
TEXT
  8
0
 10
-132.657150
 20
-101.879997
 40
3.200000
  1
30
 50
0.000000
 41
1.052631
 51
0.000000
  7
STANDARD
  0
TEXT
  8
0
 10
-120.657158
 20
-101.879997
 40
3.200000
  1
50
 50
0.000000
 41
1.052631
 51
0.000000
  7
STANDARD
  0
TEXT
  8
0
 10
-108.657158
 20
-101.879997
 40
3.200000
  1
75
 50
0.000000
 41
1.052631
 51
0.000000
  7
STANDARD
  0
TEXT
  8
0
 10
-98.257156
 20
-101.879997
 40
3.200000
  1
100
 50
0.000000
 41
1.052631
 51
0.000000
  7
STANDARD
  0
TEXT
  8
0
 10
-51.857143
 20
-91.379997
 40
3.200000
  1
(mm)
 50
0.000000
 41
1.052631
 51
0.000000
  7
STANDARD
  0
TEXT
  8
0
 10
-131.157135
 20
-91.379997
 40
3.200000
  1
STRETCH LIST
 50
0.000000
 41
1.052631
 51
0.000000
  7
STANDARD
  0
TEXT
  8
0
 10
-173.557007
 20
-121.379997
 40
3.200000
  1
B
 50
0.000000
 41
1.052632
 51
0.000000
  7
STANDARD
  0
TEXT
  8
0
 10
-159.892654
 20
97.550003
 40
4.500000
  1
SGDAF25*ST(10)
 50
0.000000
 41
1.052632
 51
0.000000
  7
STANDARD
  0
TEXT
  8
0
 62
     3
 10
2.692858
 20
66.120003
 40
3.200000
  1
STRETCH LINE A
 50
0.000000
 41
1.052632
 51
0.000000
  7
STANDARD
  0
TEXT
  8
0
 10
-86.257019
 20
-101.879997
 40
3.200000
  1
125
 50
0.000000
 41
1.052632
 51
0.000000
  7
STANDARD
  0
TEXT
  8
0
 10
-74.257019
 20
-101.879997
 40
3.200000
  1
150
 50
0.000000
 41
1.052632
 51
0.000000
  7
STANDARD
  0
TEXT
  8
0
 10
-62.257015
 20
-101.879997
 40
3.200000
  1
175
 50
0.000000
 41
1.052632
 51
0.000000
  7
STANDARD
  0
TEXT
  8
0
 10
-50.257015
 20
-101.879997
 40
3.200000
  1
200
 50
0.000000
 41
1.052632
 51
0.000000
  7
STANDARD
  0
TEXT
  8
0
 10
-155.057007
 20
-113.379997
 40
3.200000
  1
0
 50
0.000000
 41
1.052632
 51
0.000000
  7
STANDARD
  0
TEXT
  8
0
 10
-143.057007
 20
-113.379997
 40
3.200000
  1
0
 50
0.000000
 41
1.052632
 51
0.000000
  7
STANDARD
  0
TEXT
  8
0
 10
-131.057007
 20
-113.379997
 40
3.200000
  1
0
 50
0.000000
 41
1.052632
 51
0.000000
  7
STANDARD
  0
TEXT
  8
0
 10
-119.056999
 20
-113.379997
 40
3.200000
  1
0
 50
0.000000
 41
1.052632
 51
0.000000
  7
STANDARD
  0
TEXT
  8
0
 10
-108.656998
 20
-113.379997
 40
3.200000
  1
25
 50
0.000000
 41
1.052632
 51
0.000000
  7
STANDARD
  0
TEXT
  8
0
 10
-96.656998
 20
-113.379997
 40
3.200000
  1
50
 50
0.000000
 41
1.052632
 51
0.000000
  7
STANDARD
  0
TEXT
  8
0
 10
-84.656998
 20
-113.379997
 40
3.200000
  1
25
 50
0.000000
 41
1.052632
 51
0.000000
  7
STANDARD
  0
TEXT
  8
0
 10
-72.656998
 20
-113.379997
 40
3.200000
  1
50
 50
0.000000
 41
1.052632
 51
0.000000
  7
STANDARD
  0
TEXT
  8
0
 10
-60.657001
 20
-113.379997
 40
3.200000
  1
75
 50
0.000000
 41
1.052632
 51
0.000000
  7
STANDARD
  0
TEXT
  8
0
 10
-50.257000
 20
-113.379997
 40
3.200000
  1
100
 50
0.000000
 41
1.052632
 51
0.000000
  7
STANDARD
  0
TEXT
  8
0
 10
-155.057007
 20
-121.379997
 40
3.200000
  1
0
 50
0.000000
 41
1.052632
 51
0.000000
  7
STANDARD
  0
TEXT
  8
0
 10
-144.656998
 20
-121.379997
 40
3.200000
  1
10
 50
0.000000
 41
1.052632
 51
0.000000
  7
STANDARD
  0
TEXT
  8
0
 10
-132.656998
 20
-121.379997
 40
3.200000
  1
20
 50
0.000000
 41
1.052632
 51
0.000000
  7
STANDARD
  0
TEXT
  8
0
 10
-120.656998
 20
-121.379997
 40
3.200000
  1
40
 50
0.000000
 41
1.052632
 51
0.000000
  7
STANDARD
  0
TEXT
  8
0
 10
-108.656998
 20
-121.379997
 40
3.200000
  1
40
 50
0.000000
 41
1.052632
 51
0.000000
  7
STANDARD
  0
TEXT
  8
0
 10
-96.656998
 20
-121.379997
 40
3.200000
  1
40
 50
0.000000
 41
1.052632
 51
0.000000
  7
STANDARD
  0
TEXT
  8
0
 10
-84.656998
 20
-121.379997
 40
3.200000
  1
90
 50
0.000000
 41
1.052632
 51
0.000000
  7
STANDARD
  0
TEXT
  8
0
 10
-72.656998
 20
-121.379997
 40
3.200000
  1
90
 50
0.000000
 41
1.052632
 51
0.000000
  7
STANDARD
  0
TEXT
  8
0
 10
-60.657001
 20
-121.379997
 40
3.200000
  1
90
 50
0.000000
 41
1.052632
 51
0.000000
  7
STANDARD
  0
TEXT
  8
0
 10
-48.657001
 20
-121.379997
 40
3.200000
  1
90
 50
0.000000
 41
1.052632
 51
0.000000
  7
STANDARD
  0
TEXT
  8
0
 62
     3
 10
-13.307000
 20
75.120003
 40
3.200000
  1
STRETCH LINE B
 50
0.000000
 41
1.052632
 51
0.000000
  7
STANDARD
  0
TEXT
  8
0
 62
     2
 10
55.342403
 20
-46.000000
 40
3.200000
  1
STROKE=75-200
 50
0.000000
 41
1.052632
 51
0.000000
  7
STANDARD
  0
LINE
  8
0
 62
     2
 10
54.000000
 20
-47.000000
 11
96.692406
 21
-47.000000
  0
LINE
  8
0
 62
     2
 10
26.000000
 20
-47.000000
 11
54.000000
 21
-47.000000
  0
LINE
  8
0
 62
     2
 10
26.000000
 20
-47.000000
 11
28.897778
 21
-46.223541
  0
LINE
  8
0
 62
     2
 10
26.000000
 20
-47.000000
 11
28.897778
 21
-47.776459
  0
LINE
  8
0
 62
     2
 10
54.000000
 20
-47.000000
 11
51.102222
 21
-47.776459
  0
LINE
  8
0
 62
     2
 10
54.000000
 20
-47.000000
 11
51.102222
 21
-46.223541
  0
LINE
  8
0
 62
     2
 10
26.000000
 20
-31.500000
 11
26.000000
 21
-48.500000
  0
LINE
  8
0
 62
     2
 10
54.000000
 20
-25.000000
 11
54.000000
 21
-48.500000
  0
ENDSEC
  0
EOF
