  0
SECTION
  2
HEADER
  0
ENDSEC
  0
SECTION
  2
TABLES
  0
TABLE
  2
LTYPE
 70
     4
  0
LTYPE
  2
CONTINUOUS
 70
    64
  3
Solid line
 72
    65
 73
     0
 40
0.000000
  0
LTYPE
  2
DASHED
 70
    64
  3
__ __ __ __ __ __ __ __ __ __ __ __ __ __ __
 72
    65
 73
     2
 40
3.500000
 49
2.000000
 49
-1.500000
  0
LTYPE
  2
CENTER
 70
    64
  3
____ _ ____ _ ____ _ ____ _ ____ _ ____ _ ____
 72
    65
 73
     4
 40
17.500000
 49
13.000000
 49
-1.500000
 49
1.500000
 49
-1.500000
  0
LTYPE
  2
PHANTOM
 70
    64
  3
_____ _ _ _____ _ _ _____ _ _ _____ _ _ ____  
 72
    65
 73
     6
 40
15.500000
 49
8.000000
 49
-1.500000
 49
1.500000
 49
-1.500000
 49
1.500000
 49
-1.500000
  0
LTYPE
  2
DASHED1
 70
    64
  3
__ __ __ __ __ __ __ __ __ __ __ __ __ __ __
 72
    65
 73
     2
 40
1.500000
 49
1.000000
 49
-0.500000
  0
LTYPE
  2
DASHED2
 70
    64
  3
__ __ __ __ __ __ __ __ __ __ __ __ __ __ __
 72
    65
 73
     2
 40
3.500000
 49
2.500000
 49
-1.000000
  0
LTYPE
  2
DASHED3
 70
    64
  3
__ __ __ __ __ __ __ __ __ __ __ __ __ __ __
 72
    65
 73
     2
 40
6.000000
 49
4.000000
 49
-2.000000
  0
LTYPE
  2
DASHED4
 70
    64
  3
__ __ __ __ __ __ __ __ __ __ __ __ __ __ __
 72
    65
 73
     2
 40
12.000000
 49
10.000000
 49
-2.000000
  0
LTYPE
  2
DASHED5
 70
    64
  3
__ __ __ __ __ __ __ __ __ __ __ __ __ __ __
 72
    65
 73
     2
 40
17.000000
 49
15.000000
 49
-2.000000
  0
LTYPE
  2
DASHED6
 70
    64
  3
__ __ __ __ __ __ __ __ __ __ __ __ __ __ __
 72
    65
 73
     2
 40
29.000000
 49
27.000000
 49
-2.000000
  0
LTYPE
  2
PHANTOM1
 70
    64
  3
_____ _ _ _____ _ _ _____ _ _ _____ _ _ ____  
 72
    65
 73
     6
 40
31.000000
 49
25.000000
 49
-1.500000
 49
1.000000
 49
-1.000000
 49
1.000000
 49
-1.500000
  0
LTYPE
  2
PHANTOM2
 70
    64
  3
_____ _ _ _____ _ _ _____ _ _ _____ _ _ ____  
 72
    65
 73
     6
 40
36.000000
 49
27.000000
 49
-1.500000
 49
2.500000
 49
-1.000000
 49
2.500000
 49
-1.500000
  0
LTYPE
  2
PHANTOM3
 70
    64
  3
_____ _ _ _____ _ _ _____ _ _ _____ _ _ ____  
 72
    65
 73
     6
 40
78.000000
 49
64.000000
 49
-2.000000
 49
4.000000
 49
-2.000000
 49
4.000000
 49
-2.000000
  0
LTYPE
  2
CENTER1
 70
    64
  3
____ _ ____ _ ____ _ ____ _ ____ _ ____ _ ____
 72
    65
 73
     4
 40
19.000000
 49
14.000000
 49
-1.000000
 49
3.000000
 49
-1.000000
  0
LTYPE
  2
CENTER2
 70
    64
  3
____ _ ____ _ ____ _ ____ _ ____ _ ____ _ ____
 72
    65
 73
     4
 40
28.500000
 49
25.000000
 49
-1.000000
 49
1.500000
 49
-1.000000
  0
LTYPE
  2
CENTER3
 70
    64
  3
____ _ ____ _ ____ _ ____ _ ____ _ ____ _ ____
 72
    65
 73
     4
 40
31.500000
 49
27.000000
 49
-1.000000
 49
2.500000
 49
-1.000000
  0
LTYPE
  2
CENTER4
 70
    64
  3
____ _ ____ _ ____ _ ____ _ ____ _ ____ _ ____
 72
    65
 73
     4
 40
50.000000
 49
45.000000
 49
-1.000000
 49
3.000000
 49
-1.000000
  0
LTYPE
  2
CENTER5
 70
    64
  3
____ _ ____ _ ____ _ ____ _ ____ _ ____ _ ____
 72
    65
 73
     4
 40
100.000000
 49
92.000000
 49
-2.000000
 49
4.000000
 49
-2.000000
  0
LTYPE
  2
SBK1
 70
    64
  3
______ _ _ _ ______ _ _ _ ______ _ _ _ _____  
 72
    65
 73
     8
 40
60.500000
 49
45.000000
 49
-2.000000
 49
2.500000
 49
-2.000000
 49
2.500000
 49
-2.000000
 49
2.500000
 49
-2.000000
  0
LTYPE
  2
SBK2
 70
    64
  3
______ _ _ _ ______ _ _ _ ______ _ _ _ _____  
 72
    65
 73
     8
 40
84.000000
 49
64.000000
 49
-2.000000
 49
4.000000
 49
-2.000000
 49
4.000000
 49
-2.000000
 49
4.000000
 49
-2.000000
  0
LTYPE
  2
STCH
 70
    64
  3
__ __ __ __ __ __ __ __ __ __ __ __ __ __ __
 72
    65
 73
     2
 40
3.000000
 49
1.000000
 49
-2.000000
  0
LTYPE
  2
MTCH
 70
    64
  3
_____ _ _ _____ _ _ _____ _ _ _____ _ _ ____  
 72
    65
 73
     6
 40
80.000000
 49
66.000000
 49
-2.000000
 49
4.000000
 49
-2.000000
 49
4.000000
 49
-2.000000
  0
ENDTAB
  0
TABLE
  2
LAYER
 70
     1
  0
LAYER
  2
0
 70
     0
 62
     7
  6
CONTINUOUS
  0
ENDTAB
  0
TABLE
  2
STYLE
 70
     1
  0
STYLE
  2
STANDARD
 70
     0
 40
0.000000
 41
1.000000
 50
0.000000
 71
     0
 42
0.200000
  3
txt
  4
BIGFONT
  0
ENDTAB
  0
TABLE
  2
VIEW
 70
     0
  0
ENDTAB
  0
ENDSEC
  0
SECTION
  2
BLOCKS
  0
ENDSEC
  0
SECTION
  2
ENTITIES
  0
LINE
  8
0
 10
-26.000000
 20
19.000000
 11
-22.000000
 21
19.000000
  0
LINE
  8
0
 10
-26.000000
 20
53.000011
 11
-26.000000
 21
-25.000000
  0
LINE
  8
0
 10
-38.000000
 20
53.000004
 11
-38.000000
 21
-25.000000
  0
LINE
  8
0
 10
-21.500000
 20
55.000000
 11
23.500000
 21
55.000000
  0
LINE
  8
0
 10
-37.000000
 20
54.000008
 11
-27.000000
 21
54.000008
  0
LINE
  8
0
 10
-37.000000
 20
-26.000000
 11
-27.000000
 21
-26.000000
  0
LINE
  8
0
 10
-26.000000
 20
-7.999969
 11
-22.000000
 21
-7.999969
  0
LINE
  8
0
 10
-26.000000
 20
-22.000031
 11
-22.000000
 21
-22.000031
  0
LINE
  8
0
 10
-24.500000
 20
17.000008
 11
-24.500000
 21
11.000008
  0
LINE
  8
0
 10
-26.000000
 20
11.000008
 11
-24.500000
 21
11.000008
  0
LINE
  8
0
 10
-26.000011
 20
15.499852
 11
-24.500055
 21
10.999988
  0
LINE
  8
0
 10
-24.500025
 20
17.000074
 11
-26.000044
 21
12.500013
  0
LINE
  8
0
 10
-26.000000
 20
9.000000
 11
-22.000000
 21
9.000000
  0
LINE
  8
0
  6
CENTER
 62
     2
 10
-40.516109
 20
43.000000
 11
-19.431671
 21
43.000000
  0
LINE
  8
0
 10
-37.999954
 20
-24.999960
 11
-36.999954
 21
-25.999958
  0
LINE
  8
0
 10
-27.000027
 20
-25.999996
 11
-26.000027
 21
-24.999996
  0
LINE
  8
0
 10
-36.999958
 20
53.999969
 11
-37.999958
 21
52.999966
  0
LINE
  8
0
 10
-27.000004
 20
54.000000
 11
-26.000013
 21
53.000008
  0
LINE
  8
0
 10
-21.500038
 20
55.000042
 11
-22.000032
 21
54.500046
  0
LINE
  8
0
 10
23.499977
 20
54.999992
 11
23.999979
 21
54.499992
  0
LINE
  8
0
  6
CENTER
 62
     2
 10
-21.464264
 20
29.000000
 11
-9.884720
 21
29.000000
  0
LINE
  8
0
 10
-22.000000
 20
23.000000
 11
24.000000
 21
23.000000
  0
LINE
  8
0
 10
-22.000000
 20
21.408516
 11
24.000000
 21
21.408516
  0
LINE
  8
0
 10
-22.000000
 20
19.599998
 11
24.000000
 21
19.599998
  0
LINE
  8
0
 10
-22.000000
 20
16.400002
 11
24.000000
 21
16.400002
  0
LINE
  8
0
 10
-22.000000
 20
53.000015
 11
24.000000
 21
53.000015
  0
LINE
  8
0
 10
-26.000000
 20
17.000008
 11
-24.500000
 21
17.000008
  0
LINE
  8
0
  6
CENTER
 62
     2
 10
-40.809616
 20
-14.999977
 11
-19.431671
 21
-14.999977
  0
LINE
  8
0
  6
DASHED
 62
     2
 10
24.000000
 20
-7.999947
 11
46.500000
 21
-7.999947
  0
LINE
  8
0
  6
DASHED
 62
     2
 10
24.000000
 20
-22.000008
 11
46.500000
 21
-22.000008
  0
LINE
  8
0
  6
DASHED
 62
     2
 10
47.000000
 20
-8.499943
 11
47.000000
 21
-21.500008
  0
LINE
  8
0
  6
DASHED
 62
     2
 10
46.499969
 20
-7.999964
 11
46.999973
 21
-8.499962
  0
LINE
  8
0
  6
DASHED
 62
     2
 10
46.999985
 20
-21.499989
 11
46.499985
 21
-21.999990
  0
LINE
  8
0
  6
DASHED
 62
     2
 10
46.500000
 20
-7.999947
 11
46.500000
 21
-22.000008
  0
LINE
  8
0
  6
DASHED
 62
     2
 10
24.000000
 20
50.000031
 11
46.500000
 21
50.000031
  0
LINE
  8
0
  6
DASHED
 62
     2
 10
24.000000
 20
35.999969
 11
46.500000
 21
35.999969
  0
LINE
  8
0
  6
DASHED
 62
     2
 10
47.000000
 20
49.500034
 11
47.000000
 21
36.499969
  0
LINE
  8
0
  6
DASHED
 62
     2
 10
46.499973
 20
49.999996
 11
46.999977
 21
49.499996
  0
LINE
  8
0
  6
DASHED
 62
     2
 10
47.000000
 20
36.499977
 11
46.500000
 21
35.999973
  0
LINE
  8
0
  6
DASHED
 62
     2
 10
46.500000
 20
50.000031
 11
46.500000
 21
35.999969
  0
LINE
  8
0
 10
-26.000000
 20
50.000031
 11
-22.000000
 21
50.000031
  0
LINE
  8
0
 10
-26.000000
 20
35.999969
 11
-22.000000
 21
35.999969
  0
LINE
  8
0
  6
CENTER
 62
     2
 10
4.000000
 20
5.049103
 11
4.000000
 21
-6.876099
  0
LINE
  8
0
  6
CENTER
 62
     2
 10
-16.000000
 20
5.049103
 11
-16.000000
 21
-7.048920
  0
LINE
  8
0
  6
CENTER
 62
     2
 10
-21.464264
 20
-1.000000
 11
-9.884720
 21
-1.000000
  0
LINE
  8
0
 10
-22.000000
 20
54.500000
 11
-22.000000
 21
-26.500000
  0
LINE
  8
0
 10
24.000000
 20
54.500000
 11
24.000000
 21
-26.500000
  0
LINE
  8
0
 10
-21.499985
 20
-27.000000
 11
23.500000
 21
-27.000000
  0
LINE
  8
0
  6
CENTER
 62
     2
 10
-1.934570
 20
-1.000000
 11
10.163452
 21
-1.000000
  0
LINE
  8
0
 10
-22.000000
 20
11.600006
 11
24.000000
 21
11.600006
  0
LINE
  8
0
 10
-22.000000
 20
8.399994
 11
24.000000
 21
8.399994
  0
LINE
  8
0
 10
-22.000000
 20
6.591492
 11
24.000000
 21
6.591492
  0
LINE
  8
0
 10
-22.000000
 20
5.000000
 11
24.000000
 21
5.000000
  0
LINE
  8
0
 10
-22.000000
 20
-26.000000
 11
24.000000
 21
-26.000000
  0
LINE
  8
0
  6
CENTER
 62
     2
 10
8.134235
 20
-13.000000
 11
21.220306
 21
-13.000000
  0
LINE
  8
0
 10
24.000013
 20
-26.500008
 11
23.500013
 21
-27.000008
  0
LINE
  8
0
 10
-21.999937
 20
-26.499922
 11
-21.499918
 21
-26.999924
  0
LINE
  8
0
  6
CENTER
 62
     2
 10
14.000000
 20
-6.690786
 11
14.000000
 21
-20.188122
  0
LINE
  8
0
  6
DASHED
 62
     2
 10
-15.283005
 20
-24.065567
 11
-15.283005
 21
-27.000000
  0
LINE
  8
0
  6
DASHED
 62
     2
 10
-15.726466
 20
-24.065565
 11
-15.863956
 21
-26.999983
  0
LINE
  8
0
  6
DASHED
 62
     2
 10
-6.716995
 20
-24.065567
 11
-6.716995
 21
-27.000000
  0
LINE
  8
0
  6
CENTER
 62
     2
 10
-16.891266
 20
-13.000000
 11
-5.067215
 21
-13.000000
  0
LINE
  8
0
  6
DASHED
 62
     2
 10
-6.273357
 20
-24.065567
 11
-6.135868
 21
-26.999971
  0
LINE
  8
0
  6
DASHED
 62
     2
 10
-0.283005
 20
-24.065567
 11
-0.283005
 21
-27.000000
  0
LINE
  8
0
  6
DASHED
 62
     2
 10
-0.726491
 20
-24.065573
 11
-0.863983
 21
-27.000015
  0
LINE
  8
0
  6
DASHED
 62
     2
 10
8.726683
 20
-24.065571
 11
8.864173
 21
-26.999996
  0
LINE
  8
0
  6
DASHED
 62
     2
 10
8.283005
 20
-24.065567
 11
8.283005
 21
-27.000000
  0
LINE
  8
0
  6
CENTER
 62
     2
 10
-11.000000
 20
-7.005547
 11
-11.000000
 21
-19.588707
  0
LINE
  8
0
  6
CENTER
 62
     2
 10
-11.000000
 20
-22.554718
 11
-11.000000
 21
-27.914230
  0
LINE
  8
0
  6
CENTER
 62
     2
 10
-16.000000
 20
35.242153
 11
-16.000000
 21
22.726143
  0
LINE
  8
0
  6
CENTER
 62
     2
 10
4.000000
 20
35.118233
 11
4.000000
 21
22.726143
  0
LINE
  8
0
  6
CENTER
 62
     2
 10
-2.359837
 20
29.000000
 11
10.280090
 21
29.000000
  0
LINE
  8
0
 10
-22.000000
 20
43.149994
 11
24.000000
 21
43.149994
  0
LINE
  8
0
 10
-22.000000
 20
38.850006
 11
24.000000
 21
38.850006
  0
LINE
  8
0
  6
CENTER
 62
     2
 10
-40.297558
 20
14.000000
 11
26.230499
 21
14.000000
  0
LINE
  8
0
  6
PHANTOM
 62
     3
 10
-4.500000
 20
70.000000
 11
-4.500000
 21
-32.800003
  0
LINE
  8
0
  6
PHANTOM
 62
     3
 10
-2.000000
 20
-8.400002
 11
11.000000
 21
-8.400002
  0
LINE
  8
0
  6
PHANTOM
 62
     3
 10
-2.000000
 20
-8.400002
 11
-2.000000
 21
-32.800003
  0
LINE
  8
0
  6
PHANTOM
 62
     3
 10
11.000000
 20
63.000000
 11
11.000000
 21
-8.400002
  0
LINE
  8
0
  6
CENTER
 62
     2
 10
4.000000
 20
-22.554718
 11
4.000000
 21
-27.914230
  0
LINE
  8
0
 10
-156.000000
 20
53.000000
 11
-156.000000
 21
43.649994
  0
LINE
  8
0
 10
-117.000000
 20
-27.000000
 11
-154.000000
 21
-27.000000
  0
LINE
  8
0
 10
-118.000000
 20
55.000000
 11
-154.000000
 21
55.000000
  0
LINE
  8
0
 10
-116.000000
 20
5.000015
 11
-116.000000
 21
-26.000000
  0
LINE
  8
0
 10
-156.000000
 20
38.350006
 11
-156.000000
 21
22.999985
  0
LINE
  8
0
 10
-117.999924
 20
55.000069
 11
-115.999924
 21
53.000065
  0
LINE
  8
0
 10
-154.000061
 20
-27.000055
 11
-156.000061
 21
-25.000051
  0
LINE
  8
0
 10
-154.000046
 20
55.000053
 11
-156.000061
 21
53.000034
  0
LINE
  8
0
 10
-116.000000
 20
53.000031
 11
-116.000000
 21
43.149994
  0
LINE
  8
0
 10
-118.000023
 20
6.129896
 11
-116.000053
 21
4.999937
  0
LINE
  8
0
 10
-118.000046
 20
21.870129
 11
-116.000061
 21
23.000097
  0
LINE
  8
0
 10
-153.999985
 20
21.870014
 11
-155.999969
 21
22.999975
  0
LINE
  8
0
 10
-154.000015
 20
6.130131
 11
-156.000015
 21
5.000159
  0
LINE
  8
0
 10
-154.000000
 20
43.649994
 11
-156.000000
 21
43.649994
  0
LINE
  8
0
 10
-154.000000
 20
38.350006
 11
-156.000000
 21
38.350006
  0
LINE
  8
0
 10
-116.000000
 20
38.850006
 11
-118.000000
 21
38.850006
  0
LINE
  8
0
 10
-116.000000
 20
43.149994
 11
-118.000000
 21
43.149994
  0
LINE
  8
0
 10
-116.000000
 20
38.850006
 11
-116.000000
 21
22.999977
  0
LINE
  8
0
 10
-154.000000
 20
-15.650002
 11
-156.000000
 21
-15.650002
  0
LINE
  8
0
 10
-154.000000
 20
-10.349998
 11
-156.000000
 21
-10.349998
  0
LINE
  8
0
 10
-156.000000
 20
-10.349998
 11
-156.000000
 21
5.000015
  0
LINE
  8
0
 10
-156.000000
 20
-25.000000
 11
-156.000000
 21
-15.650002
  0
LINE
  8
0
 10
-115.999969
 20
-26.000025
 11
-116.999977
 21
-27.000029
  0
LINE
  8
0
 10
-153.000000
 20
54.000000
 11
-119.000000
 21
54.000000
  0
LINE
  8
0
 10
-153.000000
 20
-26.000000
 11
-119.000000
 21
-26.000000
  0
LINE
  8
0
 10
-152.999924
 20
53.999950
 11
-153.999924
 21
52.999954
  0
LINE
  8
0
 10
-118.999947
 20
54.000076
 11
-117.999947
 21
53.000088
  0
LINE
  8
0
 10
-153.999939
 20
-24.999949
 11
-152.999939
 21
-25.999950
  0
LINE
  8
0
 10
-117.999992
 20
-24.999989
 11
-118.999992
 21
-25.999990
  0
LINE
  8
0
  6
CENTER
 62
     2
 10
-148.000000
 20
-23.553108
 11
-148.000000
 21
-14.512543
  0
LINE
  8
0
  6
CENTER
 62
     2
 10
-152.666290
 20
-19.000000
 11
-143.432892
 21
-19.000000
  0
LINE
  8
0
  6
CENTER
 62
     2
 10
-153.428070
 20
47.000000
 11
-142.033188
 21
47.000000
  0
LINE
  8
0
  6
CENTER
 62
     2
 10
-124.000000
 20
-23.603226
 11
-124.000000
 21
-14.512543
  0
LINE
  8
0
 10
-135.999969
 20
45.309322
 11
-137.999969
 21
44.154625
  0
LINE
  8
0
 10
-138.000000
 20
44.154701
 11
-138.000000
 21
41.845299
  0
LINE
  8
0
 10
-135.999985
 20
40.690613
 11
-137.999985
 21
41.845314
  0
LINE
  8
0
 10
-133.999939
 20
41.845200
 11
-135.999924
 21
40.690510
  0
LINE
  8
0
 10
-134.000000
 20
44.154701
 11
-134.000000
 21
41.845299
  0
LINE
  8
0
 10
-135.999969
 20
45.309422
 11
-134.000000
 21
44.154736
  0
LINE
  8
0
 10
-135.999954
 20
16.309427
 11
-133.999954
 21
15.154732
  0
LINE
  8
0
 10
-135.999939
 20
16.309343
 11
-137.999939
 21
15.154645
  0
LINE
  8
0
 10
-138.000000
 20
15.154701
 11
-138.000000
 21
12.845299
  0
LINE
  8
0
 10
-135.999954
 20
11.690631
 11
-137.999954
 21
12.845344
  0
LINE
  8
0
 10
-133.999954
 20
12.845208
 11
-135.999954
 21
11.690506
  0
LINE
  8
0
 10
-134.000000
 20
15.154701
 11
-134.000000
 21
12.845299
  0
LINE
  8
0
 10
-135.999939
 20
-12.690554
 11
-133.999939
 21
-13.845249
  0
LINE
  8
0
 10
-135.999985
 20
-12.690659
 11
-137.999985
 21
-13.845361
  0
LINE
  8
0
 10
-138.000000
 20
-13.845299
 11
-138.000000
 21
-16.154701
  0
LINE
  8
0
 10
-135.999954
 20
-17.309347
 11
-137.999954
 21
-16.154646
  0
LINE
  8
0
 10
-133.999939
 20
-16.154760
 11
-135.999954
 21
-17.309469
  0
LINE
  8
0
 10
-134.000000
 20
-13.845299
 11
-134.000000
 21
-16.154701
  0
LINE
  8
0
 10
-118.000000
 20
53.000004
 11
-118.000000
 21
-25.000000
  0
LINE
  8
0
 10
-154.000000
 20
53.000000
 11
-154.000000
 21
-25.000000
  0
LINE
  8
0
  6
CENTER
 62
     2
 10
-136.000000
 20
58.071976
 11
-136.000000
 21
-29.893639
  0
LINE
  8
0
  6
CENTER
 62
     2
 10
-157.247726
 20
14.000000
 11
-114.471771
 21
14.000000
  0
LINE
  8
0
  6
CENTER
 62
     2
 10
-148.000000
 20
51.874393
 11
-148.000000
 21
42.104095
  0
LINE
  8
0
  6
CENTER
 62
     2
 10
-124.000000
 20
51.805099
 11
-124.000000
 21
42.311974
  0
LINE
  8
0
  6
CENTER
 62
     2
 10
-128.769547
 20
47.000000
 11
-119.137833
 21
47.000000
  0
LINE
  8
0
  6
CENTER
 62
     2
 10
-143.390335
 20
43.000000
 11
-128.423080
 21
43.000000
  0
LINE
  8
0
  6
CENTER
 62
     2
 10
-128.103592
 20
-19.000000
 11
-119.716721
 21
-19.000000
  0
LINE
  8
0
  6
CENTER
 62
     2
 10
-143.251846
 20
-15.000000
 11
-128.707764
 21
-15.000000
  0
LINE
  8
0
  6
CENTER
 62
     2
 10
122.000000
 20
57.663757
 11
122.000000
 21
-30.309998
  0
LINE
  8
0
 10
103.000000
 20
-27.000000
 11
140.000000
 21
-27.000000
  0
LINE
  8
0
 10
104.000000
 20
55.000000
 11
140.000000
 21
55.000000
  0
LINE
  8
0
  6
CENTER
 62
     2
 10
112.043839
 20
43.000000
 11
132.492874
 21
43.000000
  0
LINE
  8
0
  6
CENTER
 62
     2
 10
104.913284
 20
50.000000
 11
113.356491
 21
50.000000
  0
LINE
  8
0
  6
CENTER
 62
     2
 10
100.461182
 20
14.000000
 11
143.137253
 21
14.000000
  0
LINE
  8
0
  6
CENTER
 62
     2
 10
111.206543
 20
-15.000000
 11
133.190002
 21
-15.000000
  0
LINE
  8
0
 10
103.999924
 20
55.000053
 11
101.999924
 21
53.000050
  0
LINE
  8
0
 10
140.000031
 20
-27.000040
 11
142.000031
 21
-25.000036
  0
LINE
  8
0
 10
140.000061
 20
55.000027
 11
142.000061
 21
53.000019
  0
LINE
  8
0
 10
105.298798
 20
20.100006
 11
106.898773
 21
20.100006
  0
LINE
  8
0
 10
104.298782
 20
19.600006
 11
104.798798
 21
19.600006
  0
LINE
  8
0
 10
104.798836
 20
19.599993
 11
105.298828
 21
20.099987
  0
LINE
  8
0
 10
104.298782
 20
16.399994
 11
104.798798
 21
16.399994
  0
LINE
  8
0
 10
104.798744
 20
16.399940
 11
105.298752
 21
15.899940
  0
LINE
  8
0
 10
105.298798
 20
15.899994
 11
106.898773
 21
15.899994
  0
LINE
  8
0
 10
104.298782
 20
8.399994
 11
104.798798
 21
8.399994
  0
LINE
  8
0
 10
104.798744
 20
8.399963
 11
105.298744
 21
7.899962
  0
LINE
  8
0
 10
105.298798
 20
7.899994
 11
106.898773
 21
7.899994
  0
LINE
  8
0
 10
105.298798
 20
12.100006
 11
106.898773
 21
12.100006
  0
LINE
  8
0
 10
104.798759
 20
11.600064
 11
105.298759
 21
12.100064
  0
LINE
  8
0
 10
104.298782
 20
11.600006
 11
104.798798
 21
11.600006
  0
LINE
  8
0
 10
139.201233
 20
19.600014
 11
138.701233
 21
20.100016
  0
LINE
  8
0
 10
138.701202
 20
20.100006
 11
137.101227
 21
20.100006
  0
LINE
  8
0
 10
138.701202
 20
15.899994
 11
137.101227
 21
15.899994
  0
LINE
  8
0
 10
139.201126
 20
16.399984
 11
138.701126
 21
15.899994
  0
LINE
  8
0
 10
139.201187
 20
8.400032
 11
138.701157
 21
7.900006
  0
LINE
  8
0
 10
138.701202
 20
7.899994
 11
137.101227
 21
7.899994
  0
LINE
  8
0
 10
138.701202
 20
12.100006
 11
137.101227
 21
12.100006
  0
LINE
  8
0
 10
139.201492
 20
11.600178
 11
138.701492
 21
12.100178
  0
LINE
  8
0
  6
CENTER
 62
     2
 10
109.000000
 20
-17.953461
 11
109.000000
 21
-26.060440
  0
LINE
  8
0
 10
102.000000
 20
53.000031
 11
102.000000
 21
43.149994
  0
LINE
  8
0
 10
104.298813
 20
6.298753
 11
102.000053
 21
4.999979
  0
LINE
  8
0
 10
104.298843
 20
21.701305
 11
102.000084
 21
23.000074
  0
LINE
  8
0
 10
104.298782
 20
21.701233
 11
104.298782
 21
19.600006
  0
LINE
  8
0
 10
104.298782
 20
16.399994
 11
104.298782
 21
11.600006
  0
LINE
  8
0
 10
104.298782
 20
8.399994
 11
104.298782
 21
6.298782
  0
LINE
  8
0
 10
139.701263
 20
21.701258
 11
142.000031
 21
23.000025
  0
LINE
  8
0
 10
139.701233
 20
21.701233
 11
139.701233
 21
19.600006
  0
LINE
  8
0
 10
139.701218
 20
19.600006
 11
139.201202
 21
19.600006
  0
LINE
  8
0
 10
139.701218
 20
16.399994
 11
139.201202
 21
16.399994
  0
LINE
  8
0
 10
139.701233
 20
16.399994
 11
139.701233
 21
11.600006
  0
LINE
  8
0
 10
139.701218
 20
11.600006
 11
139.201202
 21
11.600006
  0
LINE
  8
0
 10
139.701218
 20
8.399994
 11
139.201202
 21
8.399994
  0
LINE
  8
0
 10
139.701233
 20
8.399994
 11
139.701233
 21
6.298782
  0
LINE
  8
0
 10
139.701279
 20
6.298808
 11
142.000031
 21
5.000047
  0
LINE
  8
0
  6
CENTER
 62
     2
 10
104.626694
 20
-22.000000
 11
113.069885
 21
-22.000000
  0
LINE
  8
0
  6
CENTER
 62
     2
 10
131.010468
 20
50.000000
 11
139.069885
 21
50.000000
  0
LINE
  8
0
  6
CENTER
 62
     2
 10
109.000000
 20
45.953461
 11
109.000000
 21
54.418503
  0
LINE
  8
0
  6
CENTER
 62
     2
 10
135.000000
 20
45.953461
 11
135.000000
 21
54.060440
  0
LINE
  8
0
 10
142.000000
 20
53.000000
 11
142.000000
 21
43.649994
  0
LINE
  8
0
 10
139.000000
 20
45.149994
 11
139.000000
 21
43.649994
  0
LINE
  8
0
 10
134.500000
 20
45.149994
 11
139.000000
 21
45.149994
  0
LINE
  8
0
 10
139.000000
 20
43.649994
 11
142.000000
 21
43.649994
  0
LINE
  8
0
 10
134.500000
 20
45.149994
 11
134.500000
 21
36.850006
  0
LINE
  8
0
 10
134.500000
 20
36.850006
 11
139.000000
 21
36.850006
  0
LINE
  8
0
 10
139.000000
 20
38.350006
 11
139.000000
 21
36.850006
  0
LINE
  8
0
 10
139.000000
 20
38.350006
 11
142.000000
 21
38.350006
  0
LINE
  8
0
 10
142.000000
 20
38.350006
 11
142.000000
 21
22.999985
  0
LINE
  8
0
 10
142.000000
 20
-10.350006
 11
142.000000
 21
5.000015
  0
LINE
  8
0
 10
139.000000
 20
-10.350006
 11
142.000000
 21
-10.350006
  0
LINE
  8
0
 10
139.000000
 20
-10.350006
 11
139.000000
 21
-8.850006
  0
LINE
  8
0
 10
134.500000
 20
-8.850006
 11
139.000000
 21
-8.850006
  0
LINE
  8
0
 10
134.500000
 20
-17.149994
 11
139.000000
 21
-17.149994
  0
LINE
  8
0
 10
139.000000
 20
-17.149994
 11
139.000000
 21
-15.649994
  0
LINE
  8
0
 10
139.000000
 20
-15.649994
 11
142.000000
 21
-15.649994
  0
LINE
  8
0
 10
142.000000
 20
-25.000000
 11
142.000000
 21
-15.649994
  0
LINE
  8
0
 10
102.000000
 20
43.149994
 11
105.000000
 21
43.149994
  0
LINE
  8
0
 10
102.000000
 20
38.850006
 11
105.000000
 21
38.850006
  0
LINE
  8
0
 10
105.000000
 20
38.850006
 11
105.000000
 21
37.350006
  0
LINE
  8
0
 10
109.000000
 20
44.649994
 11
109.000000
 21
37.350006
  0
LINE
  8
0
 10
105.000000
 20
44.649994
 11
109.000000
 21
44.649994
  0
LINE
  8
0
 10
105.000000
 20
37.350006
 11
109.000000
 21
37.350006
  0
LINE
  8
0
 10
102.000000
 20
38.850006
 11
102.000000
 21
22.999969
  0
LINE
  8
0
 10
105.000000
 20
43.149994
 11
105.000000
 21
44.649994
  0
LINE
  8
0
 10
102.000000
 20
-26.000000
 11
102.000000
 21
5.000031
  0
LINE
  8
0
 10
102.000008
 20
-26.000008
 11
103.000015
 21
-27.000004
  0
LINE
  8
0
  6
DASHED
 62
     2
 10
103.773682
 20
-24.065569
 11
103.636192
 21
-26.999981
  0
LINE
  8
0
  6
DASHED
 62
     2
 10
104.216995
 20
-24.065567
 11
104.216995
 21
-27.000000
  0
LINE
  8
0
  6
DASHED
 62
     2
 10
112.783005
 20
-24.065567
 11
112.783005
 21
-27.000000
  0
LINE
  8
0
  6
DASHED
 62
     2
 10
113.226830
 20
-24.065569
 11
113.364319
 21
-26.999964
  0
LINE
  8
0
 10
134.500000
 20
-8.850006
 11
134.500000
 21
-17.149994
  0
LINE
  8
0
  6
CENTER
 62
     2
 10
133.309296
 20
-13.000000
 11
136.160873
 21
-13.000000
  0
LINE
  8
0
  6
CENTER
 62
     2
 10
133.182220
 20
41.000000
 11
136.554001
 21
41.000000
  0
LINE
  8
0
 10
129.984360
 20
42.500000
 11
134.500000
 21
42.500000
  0
LINE
  8
0
 10
129.193756
 20
39.500000
 11
134.500000
 21
39.500000
  0
LINE
  8
0
 10
129.193756
 20
-11.500000
 11
134.500000
 21
-11.500000
  0
LINE
  8
0
 10
129.984360
 20
-14.500000
 11
134.500000
 21
-14.500000
  0
LINE
  8
0
  6
CENTER
 62
     2
 10
110.000000
 20
-11.143341
 11
110.000000
 21
-14.956879
  0
LINE
  8
0
 10
108.500000
 20
-22.759411
 11
108.500000
 21
-27.884735
  0
LINE
  8
0
  6
CENTER
 62
     2
 10
108.108856
 20
-13.000000
 11
111.960510
 21
-13.000000
  0
LINE
  8
0
  6
CENTER
 62
     2
 10
135.000000
 20
-17.953461
 11
135.000000
 21
-26.060440
  0
LINE
  8
0
  6
CENTER
 62
     2
 10
130.626694
 20
-22.000000
 11
139.069885
 21
-22.000000
  0
LINE
  8
0
  6
CENTER
 62
     2
 10
105.000000
 20
41.000000
 11
110.350128
 21
41.000000
  0
LINE
  8
0
 10
140.000000
 20
43.649994
 11
140.000000
 21
38.350006
  0
LINE
  8
0
 10
104.000000
 20
43.149994
 11
104.000000
 21
38.850006
  0
LINE
  8
0
 10
104.000000
 20
21.870079
 11
104.000000
 21
6.129980
  0
LINE
  8
0
 10
140.000000
 20
21.870022
 11
140.000000
 21
6.130068
  0
LINE
  8
0
 10
140.000000
 20
-10.350006
 11
140.000000
 21
-15.649994
  0
LINE
  8
0
 10
-194.250000
 20
132.600006
 11
194.800003
 21
132.600006
  0
LINE
  8
0
 10
194.800003
 20
132.600006
 11
194.800003
 21
-133.500000
  0
LINE
  8
0
 10
-194.250000
 20
132.600006
 11
-194.250000
 21
-133.500000
  0
LINE
  8
0
 10
-194.250000
 20
-133.500000
 11
194.800003
 21
-133.500000
  0
LINE
  8
0
 10
109.800003
 20
-118.500000
 11
109.800003
 21
-133.500000
  0
LINE
  8
0
 10
109.800003
 20
-118.500000
 11
194.800003
 21
-118.500000
  0
LINE
  8
0
 10
109.800003
 20
132.600006
 11
109.800003
 21
117.600006
  0
LINE
  8
0
 10
109.800003
 20
117.600006
 11
194.800003
 21
117.600006
  0
LINE
  8
0
 10
-194.250000
 20
117.600006
 11
-84.250000
 21
117.600006
  0
LINE
  8
0
 10
-84.250000
 20
132.600006
 11
-84.250000
 21
117.600006
  0
LINE
  8
0
 10
-184.250000
 20
-123.500000
 11
-39.250000
 21
-123.500000
  0
LINE
  8
0
 10
-184.250000
 20
-123.500000
 11
-184.250000
 21
-92.500000
  0
LINE
  8
0
 10
-184.250000
 20
-115.500000
 11
-39.250000
 21
-115.500000
  0
LINE
  8
0
 10
-184.250000
 20
-107.500000
 11
-39.250000
 21
-107.500000
  0
LINE
  8
0
 10
-159.250000
 20
-123.500000
 11
-159.250000
 21
-92.500000
  0
LINE
  8
0
 10
-135.250000
 20
-123.500000
 11
-135.250000
 21
-92.500000
  0
LINE
  8
0
 10
-147.250000
 20
-123.500000
 11
-147.250000
 21
-92.500000
  0
LINE
  8
0
 10
-123.250000
 20
-123.500000
 11
-123.250000
 21
-92.500000
  0
LINE
  8
0
 10
-111.250000
 20
-123.500000
 11
-111.250000
 21
-92.500000
  0
LINE
  8
0
 10
-99.250000
 20
-123.500000
 11
-99.250000
 21
-92.500000
  0
LINE
  8
0
 10
-159.250046
 20
-107.500015
 11
-161.929535
 21
-97.500023
  0
LINE
  8
0
 10
-184.250000
 20
-97.500000
 11
-161.929489
 21
-97.500000
  0
LINE
  8
0
 10
-184.250000
 20
-92.500000
 11
-39.250000
 21
-92.500000
  0
LINE
  8
0
 10
-87.250000
 20
-123.500000
 11
-87.250000
 21
-92.500000
  0
LINE
  8
0
 10
-75.250000
 20
-123.500000
 11
-75.250000
 21
-92.500000
  0
LINE
  8
0
 10
-63.250000
 20
-123.500000
 11
-63.250000
 21
-92.500000
  0
LINE
  8
0
 10
-51.250000
 20
-123.500000
 11
-51.250000
 21
-92.500000
  0
LINE
  8
0
 10
-39.250000
 20
-123.500000
 11
-39.250000
 21
-92.500000
  0
CIRCLE
  8
0
 10
4.000000
 20
-1.000000
 40
4.750000
  0
CIRCLE
  8
0
 10
14.000000
 20
-13.000000
 40
4.283005
  0
CIRCLE
  8
0
 62
     2
 10
14.000000
 20
-12.999985
 40
4.863995
  0
CIRCLE
  8
0
 10
-11.000000
 20
-13.000000
 40
4.283005
  0
CIRCLE
  8
0
 62
     2
 10
-11.000000
 20
-12.999985
 40
4.863995
  0
ARC
  8
0
 10
-28.500000
 20
14.000008
 40
5.000000
 50
323.130096
 51
36.869896
  0
CIRCLE
  8
0
  6
DASHED
 62
     2
 10
4.000000
 20
29.000000
 40
3.000000
  0
CIRCLE
  8
0
 10
4.000000
 20
29.000000
 40
2.600000
  0
CIRCLE
  8
0
  6
DASHED
 62
     2
 10
-16.000000
 20
29.000000
 40
3.000000
  0
CIRCLE
  8
0
 10
-16.000000
 20
29.000000
 40
2.600000
  0
CIRCLE
  8
0
 10
-16.000000
 20
29.000000
 40
4.750000
  0
CIRCLE
  8
0
 10
4.000000
 20
29.000000
 40
4.750000
  0
CIRCLE
  8
0
  6
DASHED
 62
     2
 10
4.000000
 20
-1.000000
 40
3.000000
  0
CIRCLE
  8
0
 10
4.000000
 20
-1.000000
 40
2.600000
  0
CIRCLE
  8
0
  6
DASHED
 62
     2
 10
-16.000000
 20
-1.000000
 40
3.000000
  0
CIRCLE
  8
0
 10
-16.000000
 20
-1.000000
 40
2.600000
  0
CIRCLE
  8
0
 10
-16.000000
 20
-1.000000
 40
4.750000
  0
CIRCLE
  8
0
 10
-136.000000
 20
14.000000
 40
5.250000
  0
CIRCLE
  8
0
 10
-136.000000
 20
14.000000
 40
3.400000
  0
CIRCLE
  8
0
 10
-136.000000
 20
43.000000
 40
3.400000
  0
CIRCLE
  8
0
 10
-136.000000
 20
-15.000000
 40
3.400000
  0
CIRCLE
  8
0
 10
-136.000000
 20
-15.000000
 40
5.250000
  0
CIRCLE
  8
0
 10
-136.000000
 20
43.000000
 40
5.750000
  0
CIRCLE
  8
0
 10
-136.000000
 20
14.000000
 40
5.750000
  0
CIRCLE
  8
0
 62
     2
 10
-148.000000
 20
-19.000000
 40
3.000000
  0
CIRCLE
  8
0
 10
-148.000000
 20
-19.000000
 40
2.500000
  0
CIRCLE
  8
0
 10
-136.000000
 20
-15.000000
 40
5.750000
  0
CIRCLE
  8
0
 10
-148.000000
 20
47.000000
 40
2.500000
  0
CIRCLE
  8
0
 62
     2
 10
-148.000000
 20
47.000000
 40
3.000000
  0
CIRCLE
  8
0
 10
-124.000000
 20
-19.000000
 40
2.500000
  0
CIRCLE
  8
0
 62
     2
 10
-124.000000
 20
-19.000000
 40
3.000000
  0
CIRCLE
  8
0
 10
-124.000000
 20
47.000000
 40
2.500000
  0
CIRCLE
  8
0
 62
     2
 10
-124.000000
 20
47.000000
 40
3.000000
  0
CIRCLE
  8
0
 10
-136.000000
 20
43.000000
 40
5.250000
  0
CIRCLE
  8
0
 10
122.000000
 20
-15.000000
 40
7.000000
  0
CIRCLE
  8
0
 10
122.000000
 20
43.000000
 40
7.000000
  0
CIRCLE
  8
0
 10
135.000000
 20
-22.000000
 40
2.500000
  0
CIRCLE
  8
0
 10
122.000000
 20
43.000000
 40
8.000000
  0
CIRCLE
  8
0
 10
122.000000
 20
-15.000000
 40
8.000000
  0
ARC
  8
0
 10
106.898773
 20
18.000000
 40
2.100000
 50
270.000000
 51
90.000000
  0
ARC
  8
0
 10
106.898773
 20
10.000000
 40
2.100000
 50
270.000000
 51
90.000000
  0
ARC
  8
0
 10
137.101227
 20
18.000000
 40
2.100000
 50
90.000000
 51
270.000000
  0
ARC
  8
0
 10
137.101227
 20
10.000000
 40
2.100000
 50
90.000000
 51
270.000000
  0
CIRCLE
  8
0
 62
     2
 10
109.000000
 20
50.000000
 40
3.000000
  0
CIRCLE
  8
0
 10
109.000000
 20
50.000000
 40
2.500000
  0
CIRCLE
  8
0
 62
     2
 10
109.000000
 20
-22.000000
 40
3.000000
  0
CIRCLE
  8
0
 10
109.000000
 20
-22.000000
 40
2.500000
  0
CIRCLE
  8
0
 62
     2
 10
135.000000
 20
50.000000
 40
3.000000
  0
CIRCLE
  8
0
 10
135.000000
 20
50.000000
 40
2.500000
  0
CIRCLE
  8
0
 10
122.000000
 20
14.000000
 40
11.000000
  0
CIRCLE
  8
0
 10
110.000000
 20
-13.000000
 40
1.000000
  0
CIRCLE
  8
0
 62
     2
 10
135.000000
 20
-22.000000
 40
3.000000
  0
TEXT
  8
0
 10
133.907150
 20
122.050003
 40
4.500000
  1
Ver. 1.0
 50
0.000000
 41
1.052631
 51
0.000000
  7
STANDARD
  0
TEXT
  8
0
 10
113.700279
 20
-130.669998
 40
6.300000
  1
KOGANEI CORP.
 50
0.000000
 41
1.052632
 51
0.000000
  7
STANDARD
  0
TEXT
  8
0
 10
-191.392654
 20
122.050003
 40
4.500000
  1
JIG CYLINDER WITH GUIDE
 50
0.000000
 41
1.052632
 51
0.000000
  7
STANDARD
  0
TEXT
  8
0
 10
-186.892654
 20
104.550003
 40
4.500000
  1
MODEL:SGDA20*ST(10)
 50
0.000000
 41
1.052632
 51
0.000000
  7
STANDARD
  0
TEXT
  8
0
 10
-181.557144
 20
-96.879997
 40
3.200000
  1
STROKE
 50
0.000000
 41
1.052631
 51
0.000000
  7
STANDARD
  0
TEXT
  8
0
 10
-173.557144
 20
-113.379997
 40
3.200000
  1
A
 50
0.000000
 41
1.052631
 51
0.000000
  7
STANDARD
  0
TEXT
  8
0
 10
-184.496872
 20
-101.019997
 40
3.200000
  1
STRETCH
 50
0.000000
 41
1.052631
 51
0.000000
  7
STANDARD
  0
TEXT
  8
0
 10
-184.496872
 20
-105.820000
 40
3.200000
  1
  PLACE
 50
0.000000
 41
1.052631
 51
0.000000
  7
STANDARD
  0
TEXT
  8
0
 10
-156.657150
 20
-101.879997
 40
3.200000
  1
10
 50
0.000000
 41
1.052631
 51
0.000000
  7
STANDARD
  0
TEXT
  8
0
 10
-144.657150
 20
-101.879997
 40
3.200000
  1
20
 50
0.000000
 41
1.052631
 51
0.000000
  7
STANDARD
  0
TEXT
  8
0
 10
-132.657150
 20
-101.879997
 40
3.200000
  1
30
 50
0.000000
 41
1.052631
 51
0.000000
  7
STANDARD
  0
TEXT
  8
0
 10
-120.657158
 20
-101.879997
 40
3.200000
  1
50
 50
0.000000
 41
1.052631
 51
0.000000
  7
STANDARD
  0
TEXT
  8
0
 10
-108.657158
 20
-101.879997
 40
3.200000
  1
75
 50
0.000000
 41
1.052631
 51
0.000000
  7
STANDARD
  0
TEXT
  8
0
 10
-51.857143
 20
-91.379997
 40
3.200000
  1
(mm)
 50
0.000000
 41
1.052631
 51
0.000000
  7
STANDARD
  0
TEXT
  8
0
 10
-131.157135
 20
-91.379997
 40
3.200000
  1
STRETCH LIST
 50
0.000000
 41
1.052631
 51
0.000000
  7
STANDARD
  0
TEXT
  8
0
 10
-173.557007
 20
-121.379997
 40
3.200000
  1
B
 50
0.000000
 41
1.052632
 51
0.000000
  7
STANDARD
  0
TEXT
  8
0
 10
-159.892654
 20
97.550003
 40
4.500000
  1
SGDAF20*ST(10)
 50
0.000000
 41
1.052632
 51
0.000000
  7
STANDARD
  0
TEXT
  8
0
 62
     3
 10
2.692858
 20
65.120003
 40
3.200000
  1
STRETCH LINE A
 50
0.000000
 41
1.052631
 51
0.000000
  7
STANDARD
  0
TEXT
  8
0
 10
-98.257156
 20
-101.879997
 40
3.200000
  1
100
 50
0.000000
 41
1.052631
 51
0.000000
  7
STANDARD
  0
TEXT
  8
0
 10
-86.257156
 20
-101.879997
 40
3.200000
  1
125
 50
0.000000
 41
1.052631
 51
0.000000
  7
STANDARD
  0
TEXT
  8
0
 10
-74.257156
 20
-101.879997
 40
3.200000
  1
150
 50
0.000000
 41
1.052631
 51
0.000000
  7
STANDARD
  0
TEXT
  8
0
 10
-62.257156
 20
-101.879997
 40
3.200000
  1
175
 50
0.000000
 41
1.052631
 51
0.000000
  7
STANDARD
  0
TEXT
  8
0
 10
-50.257156
 20
-101.879997
 40
3.200000
  1
200
 50
0.000000
 41
1.052631
 51
0.000000
  7
STANDARD
  0
TEXT
  8
0
 10
-155.057007
 20
-113.379997
 40
3.200000
  1
0
 50
0.000000
 41
1.052632
 51
0.000000
  7
STANDARD
  0
TEXT
  8
0
 10
-143.057007
 20
-113.379997
 40
3.200000
  1
0
 50
0.000000
 41
1.052632
 51
0.000000
  7
STANDARD
  0
TEXT
  8
0
 10
-131.057007
 20
-113.379997
 40
3.200000
  1
0
 50
0.000000
 41
1.052632
 51
0.000000
  7
STANDARD
  0
TEXT
  8
0
 10
-119.056999
 20
-113.379997
 40
3.200000
  1
0
 50
0.000000
 41
1.052632
 51
0.000000
  7
STANDARD
  0
TEXT
  8
0
 10
-108.656998
 20
-113.379997
 40
3.200000
  1
25
 50
0.000000
 41
1.052632
 51
0.000000
  7
STANDARD
  0
TEXT
  8
0
 10
-96.656998
 20
-113.379997
 40
3.200000
  1
50
 50
0.000000
 41
1.052632
 51
0.000000
  7
STANDARD
  0
TEXT
  8
0
 10
-84.656998
 20
-113.379997
 40
3.200000
  1
25
 50
0.000000
 41
1.052632
 51
0.000000
  7
STANDARD
  0
TEXT
  8
0
 10
-72.656998
 20
-113.379997
 40
3.200000
  1
50
 50
0.000000
 41
1.052632
 51
0.000000
  7
STANDARD
  0
TEXT
  8
0
 10
-60.657001
 20
-113.379997
 40
3.200000
  1
75
 50
0.000000
 41
1.052632
 51
0.000000
  7
STANDARD
  0
TEXT
  8
0
 10
-50.257000
 20
-113.379997
 40
3.200000
  1
100
 50
0.000000
 41
1.052632
 51
0.000000
  7
STANDARD
  0
TEXT
  8
0
 10
-155.057007
 20
-121.379997
 40
3.200000
  1
0
 50
0.000000
 41
1.052632
 51
0.000000
  7
STANDARD
  0
TEXT
  8
0
 10
-144.656998
 20
-121.379997
 40
3.200000
  1
10
 50
0.000000
 41
1.052632
 51
0.000000
  7
STANDARD
  0
TEXT
  8
0
 10
-132.656998
 20
-121.379997
 40
3.200000
  1
20
 50
0.000000
 41
1.052632
 51
0.000000
  7
STANDARD
  0
TEXT
  8
0
 10
-120.656998
 20
-121.379997
 40
3.200000
  1
40
 50
0.000000
 41
1.052632
 51
0.000000
  7
STANDARD
  0
TEXT
  8
0
 10
-108.656998
 20
-121.379997
 40
3.200000
  1
40
 50
0.000000
 41
1.052632
 51
0.000000
  7
STANDARD
  0
TEXT
  8
0
 10
-96.656998
 20
-121.379997
 40
3.200000
  1
40
 50
0.000000
 41
1.052632
 51
0.000000
  7
STANDARD
  0
TEXT
  8
0
 10
-84.656998
 20
-121.379997
 40
3.200000
  1
90
 50
0.000000
 41
1.052632
 51
0.000000
  7
STANDARD
  0
TEXT
  8
0
 10
-72.656998
 20
-121.379997
 40
3.200000
  1
90
 50
0.000000
 41
1.052632
 51
0.000000
  7
STANDARD
  0
TEXT
  8
0
 10
-60.657001
 20
-121.379997
 40
3.200000
  1
90
 50
0.000000
 41
1.052632
 51
0.000000
  7
STANDARD
  0
TEXT
  8
0
 10
-48.657001
 20
-121.379997
 40
3.200000
  1
90
 50
0.000000
 41
1.052632
 51
0.000000
  7
STANDARD
  0
TEXT
  8
0
 62
     3
 10
-13.307000
 20
72.120003
 40
3.200000
  1
STRETCH LINE B
 50
0.000000
 41
1.052632
 51
0.000000
  7
STANDARD
  0
TEXT
  8
0
 62
     2
 10
50.054569
 20
-41.000000
 40
3.200000
  1
STROKE=75-200
 50
0.000000
 41
1.052632
 51
0.000000
  7
STANDARD
  0
LINE
  8
0
 62
     2
 10
47.000000
 20
-42.000000
 11
91.404572
 21
-42.000000
  0
LINE
  8
0
 62
     2
 10
24.000000
 20
-42.000000
 11
47.000000
 21
-42.000000
  0
LINE
  8
0
 62
     2
 10
24.000000
 20
-42.000000
 11
26.897778
 21
-41.223541
  0
LINE
  8
0
 62
     2
 10
24.000000
 20
-42.000000
 11
26.897778
 21
-42.776459
  0
LINE
  8
0
 62
     2
 10
47.000000
 20
-42.000000
 11
44.102222
 21
-42.776459
  0
LINE
  8
0
 62
     2
 10
47.000000
 20
-42.000000
 11
44.102222
 21
-41.223541
  0
LINE
  8
0
 62
     2
 10
24.000000
 20
-26.500000
 11
24.000000
 21
-43.500000
  0
LINE
  8
0
 62
     2
 10
47.000000
 20
-21.500008
 11
47.000000
 21
-43.500000
  0
ENDSEC
  0
EOF
