  0
SECTION
  2
HEADER
  9
$ACADVER
  1
AC1012
  9
$DWGCODEPAGE
  3
dos932
  9
$INSBASE
 10
0.0
 20
0.0
 30
0.0
  9
$EXTMIN
 10
-281.25
 20
-195.0
 30
0.0
  9
$EXTMAX
 10
285.6319057062413
 20
195.5
 30
0.0
  9
$LIMMIN
 10
-281.25
 20
-195.0
  9
$LIMMAX
 10
285.6319057062413
 20
195.5
  9
$ORTHOMODE
 70
               0
  9
$REGENMODE
 70
               1
  9
$FILLMODE
 70
               1
  9
$QTEXTMODE
 70
               0
  9
$MIRRTEXT
 70
               1
  9
$DRAGMODE
 70
               2
  9
$LTSCALE
 40
1.0
  9
$OSMODE
 70
               0
  9
$ATTMODE
 70
               1
  9
$TEXTSIZE
 40
3.2000000476837158
  9
$TRACEWID
 40
0.05
  9
$TEXTSTYLE
  7
MX_NOTE_STANDARD
  9
$CLAYER
  8
0
  9
$CELTYPE
  6
CONTINUOUS
  9
$CECOLOR
 62
             256
  9
$CELTSCALE
 40
1.0
  9
$DELOBJ
 70
               1
  9
$DISPSILH
 70
               0
  9
$DIMSCALE
 40
1.0
  9
$DIMASZ
 40
2.5
  9
$DIMEXO
 40
1.5
  9
$DIMDLI
 40
3.75
  9
$DIMRND
 40
0.0
  9
$DIMDLE
 40
0.0
  9
$DIMEXE
 40
1.5
  9
$DIMTP
 40
0.0
  9
$DIMTM
 40
0.0
  9
$DIMTXT
 40
3.2000000476837158
  9
$DIMCEN
 40
2.5
  9
$DIMTSZ
 40
0.0
  9
$DIMTOL
 70
               0
  9
$DIMLIM
 70
               0
  9
$DIMTIH
 70
               0
  9
$DIMTOH
 70
               0
  9
$DIMSE1
 70
               0
  9
$DIMSE2
 70
               0
  9
$DIMTAD
 70
               1
  9
$DIMZIN
 70
               8
  9
$DIMBLK
  1

  9
$DIMASO
 70
               1
  9
$DIMSHO
 70
               1
  9
$DIMPOST
  1

  9
$DIMAPOST
  1

  9
$DIMALT
 70
               0
  9
$DIMALTD
 70
               4
  9
$DIMALTF
 40
0.03937007874016
  9
$DIMLFAC
 40
1.0
  9
$DIMTOFL
 70
               1
  9
$DIMTVP
 40
0.0
  9
$DIMTIX
 70
               0
  9
$DIMSOXD
 70
               0
  9
$DIMSAH
 70
               0
  9
$DIMBLK1
  1

  9
$DIMBLK2
  1

  9
$DIMSTYLE
  2
MXDIMSTYLE
  9
$DIMCLRD
 70
               0
  9
$DIMCLRE
 70
               0
  9
$DIMCLRT
 70
               0
  9
$DIMTFAC
 40
1.0
  9
$DIMGAP
 40
1.0
  9
$DIMJUST
 70
               0
  9
$DIMSD1
 70
               0
  9
$DIMSD2
 70
               0
  9
$DIMTOLJ
 70
               1
  9
$DIMTZIN
 70
               0
  9
$DIMALTZ
 70
               0
  9
$DIMALTTZ
 70
               0
  9
$DIMFIT
 70
               3
  9
$DIMUPT
 70
               1
  9
$DIMUNIT
 70
               2
  9
$DIMDEC
 70
               4
  9
$DIMTDEC
 70
               4
  9
$DIMALTU
 70
               2
  9
$DIMALTTD
 70
               4
  9
$DIMTXSTY
  7
MX_NOTE_STANDARD
  9
$DIMAUNIT
 70
               0
  9
$LUNITS
 70
               2
  9
$LUPREC
 70
               4
  9
$SKETCHINC
 40
0.1
  9
$FILLETRAD
 40
0.0
  9
$AUNITS
 70
               0
  9
$AUPREC
 70
               0
  9
$MENU
  1
acad
  9
$ELEVATION
 40
0.0
  9
$PELEVATION
 40
0.0
  9
$THICKNESS
 40
0.0
  9
$LIMCHECK
 70
               0
  9
$BLIPMODE
 70
               1
  9
$CHAMFERA
 40
0.0
  9
$CHAMFERB
 40
0.0
  9
$CHAMFERC
 40
0.0
  9
$CHAMFERD
 40
0.0
  9
$SKPOLY
 70
               0
  9
$TDCREATE
 40
2453378.356840278
  9
$TDUPDATE
 40
2453378.356840278
  9
$TDINDWG
 40
0.0000000000
  9
$TDUSRTIMER
 40
0.0000000000
  9
$USRTIMER
 70
               1
  9
$ANGBASE
 50
0.0
  9
$ANGDIR
 70
               0
  9
$PDMODE
 70
               0
  9
$PDSIZE
 40
0.0
  9
$PLINEWID
 40
0.0
  9
$COORDS
 70
               1
  9
$SPLFRAME
 70
               0
  9
$SPLINETYPE
 70
               6
  9
$SPLINESEGS
 70
               8
  9
$ATTDIA
 70
               0
  9
$ATTREQ
 70
               1
  9
$HANDLING
 70
               1
  9
$HANDSEED
  5
2C9
  9
$SURFTAB1
 70
               6
  9
$SURFTAB2
 70
               6
  9
$SURFTYPE
 70
               6
  9
$SURFU
 70
               6
  9
$SURFV
 70
               6
  9
$UCSNAME
  2

  9
$UCSORG
 10
0.0
 20
0.0
 30
0.0
  9
$UCSXDIR
 10
1.0
 20
0.0
 30
0.0
  9
$UCSYDIR
 10
0.0
 20
1.0
 30
0.0
  9
$PUCSNAME
  2

  9
$PUCSORG
 10
0.0
 20
0.0
 30
0.0
  9
$PUCSXDIR
 10
1.0
 20
0.0
 30
0.0
  9
$PUCSYDIR
 10
0.0
 20
1.0
 30
0.0
  9
$USERI1
 70
               0
  9
$USERI2
 70
               0
  9
$USERI3
 70
               0
  9
$USERI4
 70
               0
  9
$USERI5
 70
               0
  9
$USERR1
 40
0.0
  9
$USERR2
 40
0.0
  9
$USERR3
 40
0.0
  9
$USERR4
 40
0.0
  9
$USERR5
 40
0.0
  9
$WORLDVIEW
 70
               1
  9
$SHADEDGE
 70
               3
  9
$SHADEDIF
 70
              70
  9
$TILEMODE
 70
               1
  9
$MAXACTVP
 70
              16
  9
$PINSBASE
 10
0.0
 20
0.0
 30
0.0
  9
$PLIMCHECK
 70
               0
  9
$PEXTMIN
 10
1.0000000000000000E+20
 20
1.0000000000000000E+20
 30
1.0000000000000000E+20
  9
$PEXTMAX
 10
-1.0000000000000000E+20
 20
-1.0000000000000000E+20
 30
-1.0000000000000000E+20
  9
$PLIMMIN
 10
0.0
 20
0.0
  9
$PLIMMAX
 10
12.0
 20
9.0
  9
$UNITMODE
 70
               0
  9
$VISRETAIN
 70
               0
  9
$PLINEGEN
 70
               1
  9
$PSLTSCALE
 70
               0
  9
$TREEDEPTH
 70
            3020
  9
$PICKSTYLE
 70
               1
  9
$CMLSTYLE
  2
Standard
  9
$CMLJUST
 70
               0
  9
$CMLSCALE
 40
1.0
  9
$SAVEIMAGES
 70
               0
  0
ENDSEC
  0
SECTION
  2
CLASSES
  0
CLASS
  1
LWPOLYLINE
  2
AcDbPolyline
  3
"AutoCAD"
 90
        0
280
               0
281
               1
  0
CLASS
  1
IMAGE
  2
AcDbRasterImage
  3
ISM
 90
      127
280
               0
281
               1
  0
CLASS
  1
OLE2FRAME
  2
AcDbOle2Frame
  3
""
 90
        0
280
               0
281
               1
  0
CLASS
  1
HATCH
  2
AcDbHatch
  3
"ACAD_SEDONA"
 90
        0
280
               0
281
               1
  0
CLASS
  1
DICTIONARYVAR
  2
AcDbDictionaryVar
  3
"AutoCAD"
 90
        0
280
               0
281
               0
  0
CLASS
  1
RASTERVARIABLES
  2
AcDbRasterVariables
  3
ISM
 90
        0
280
               0
281
               0
  0
CLASS
  1
IMAGEDEF
  2
AcDbRasterImageDef
  3
ISM
 90
        0
280
               0
281
               0
  0
CLASS
  1
IMAGEDEF_REACTOR
  2
AcDbRasterImageDefReactor
  3
ISM
 90
        1
280
               0
281
               0
  0
CLASS
  1
IDBUFFER
  2
AcDbIdBuffer
  3
"Acad"
 90
        0
280
               0
281
               0
  0
CLASS
  1
SPATIAL_FILTER
  2
AcDbSpatialFilter
  3
"Acad"
 90
        0
280
               0
281
               0
  0
CLASS
  1
XRECORD
  2
AcDbXrecord
  3
"<Built In>"
 90
        0
280
               0
281
               0
  0
CLASS
  1
SORTENTSTABLE
  2
AcDbSortentsTable
  3
"AutoCAD"
 90
        0
280
               0
281
               0
  0
CLASS
  1
LAYER_INDEX
  2
AcDbLayerIndex
  3
"Acad"
 90
        0
280
               0
281
               0
  0
CLASS
  1
SPATIAL_INDEX
  2
AcDbSpatialIndex
  3
"Acad"
 90
        0
280
               0
281
               0
  0
CLASS
  1
OBJECT_PTR
  2
CAseDLPNTableRecord
  3
"ASE-LPNTableRecord"
 90
        1
280
               0
281
               0
  0
CLASS
  1
LAYOUT
  2
AcDbLayout
  3
"AutoCAD 2000"
 90
        1
280
               0
281
               0
  0
CLASS
  1
PLOTSETTINGS
  2
AcDbPlotSettings
  3
"AutoCAD 2000"
 90
        1
280
               0
281
               0
  0
CLASS
  1
ACDBDICTIONARYWDFLT
  2
AcDbDictionaryWithDefault
  3
"AutoCAD 2000"
 90
        1
280
               0
281
               0
  0
CLASS
  1
ACDBPLACEHOLDER
  2
AcDbPlaceHolder
  3
"AutoCAD 2000"
 90
        1
280
               0
281
               0
  0
ENDSEC
  0
SECTION
  2
TABLES
  0
TABLE
  2
VPORT
  5
7
100
AcDbSymbolTable
 70
               1
  0
VPORT
  5
15
100
AcDbSymbolTableRecord
100
AcDbViewportTableRecord
  2
*ACTIVE
 70
               0
 10
0.0
 20
0.0
 11
1.0
 21
1.0
 12
2.1909528531206206
 22
0.25
 13
0.0
 23
0.0
 14
1.0
 24
1.0
 15
0.0
 25
0.0
 16
0.0
 26
0.0
 36
1.0
 17
0.0
 27
0.0
 37
0.0
 40
394.40500000000003
 41
1.7320508075688772
 42
50.0
 43
0.0
 44
0.0
 50
0.0
 51
0.0
 71
               0
 72
             100
 73
               1
 74
               1
 75
               0
 76
               0
 77
               0
 78
               0
  0
ENDTAB
  0
TABLE
  2
LTYPE
  5
4
100
AcDbSymbolTable
 70
               6
  0
LTYPE
  5
11
100
AcDbSymbolTableRecord
100
AcDbLinetypeTableRecord
  2
BYBLOCK
 70
              64
  3

 72
              65
 73
               0
 40
0.0
  0
LTYPE
  5
12
100
AcDbSymbolTableRecord
100
AcDbLinetypeTableRecord
  2
BYLAYER
 70
              64
  3

 72
              65
 73
               0
 40
0.0
  0
LTYPE
  5
13
100
AcDbSymbolTableRecord
100
AcDbLinetypeTableRecord
  2
CONTINUOUS
 70
              64
  3
Solid line
 72
              65
 73
               0
 40
0.0
  0
LTYPE
  5
29
100
AcDbSymbolTableRecord
100
AcDbLinetypeTableRecord
  2
PHANTOM
 70
              64
  3
Phantom ______  __  __  ______  __  __  ______
 72
              65
 73
               6
 40
30.0
 49
20.0
 74
               0
 49
-2.0
 74
               0
 49
2.0
 74
               0
 49
-2.0
 74
               0
 49
2.0
 74
               0
 49
-2.0
 74
               0
  0
LTYPE
  5
30
100
AcDbSymbolTableRecord
100
AcDbLinetypeTableRecord
  2
CENTER
 70
              64
  3
Center ____ _ ____ _ ____ _ ____ _ ____ _ ____
 72
              65
 73
               4
 40
26.0
 49
20.0
 74
               0
 49
-2.0
 74
               0
 49
2.0
 74
               0
 49
-2.0
 74
               0
  0
LTYPE
  5
72
100
AcDbSymbolTableRecord
100
AcDbLinetypeTableRecord
  2
DASHED
 70
              64
  3
Dashed __ __ __ __ __ __ __ __ __ __ __ __ __ _
 72
              65
 73
               2
 40
4.0
 49
2.0
 74
               0
 49
-2.0
 74
               0
  0
ENDTAB
  0
TABLE
  2
LAYER
  5
2
100
AcDbSymbolTable
 70
               2
  0
LAYER
  5
14
100
AcDbSymbolTableRecord
100
AcDbLayerTableRecord
  2
0
 70
               0
 62
               7
  6
CONTINUOUS
  0
LAYER
  5
1D
100
AcDbSymbolTableRecord
100
AcDbLayerTableRecord
  2
DEFPOINTS
 70
               0
 62
               7
  6
CONTINUOUS
  0
ENDTAB
  0
TABLE
  2
STYLE
  5
3
100
AcDbSymbolTable
 70
               1
  0
STYLE
  5
17
100
AcDbSymbolTableRecord
100
AcDbTextStyleTableRecord
  2
MX_NOTE_STANDARD
 70
               0
 40
0.0
 41
1.0
 50
0.0
 71
               0
 42
3.2000000476837158
  3
txt.shx
  4
extfont.shx
  0
ENDTAB
  0
TABLE
  2
VIEW
  5
5
100
AcDbSymbolTable
 70
               0
  0
ENDTAB
  0
TABLE
  2
UCS
  5
6
100
AcDbSymbolTable
 70
               0
  0
ENDTAB
  0
TABLE
  2
APPID
  5
8
100
AcDbSymbolTable
 70
               1
  0
APPID
  5
16
100
AcDbSymbolTableRecord
100
AcDbRegAppTableRecord
  2
ACAD
 70
               0
  0
ENDTAB
  0
TABLE
  2
DIMSTYLE
  5
9
100
AcDbSymbolTable
 70
               1
  0
DIMSTYLE
105
18
100
AcDbSymbolTableRecord
100
AcDbDimStyleTableRecord
  2
MXDIMSTYLE
 70
               0
  3

  4

  5

  6

  7

 40
1.0
 41
2.5
 42
1.5
 43
3.75
 44
1.5
 45
0.0
 46
0.0
 47
0.0
 48
0.0
 71
               0
 72
               0
 73
               0
 74
               0
 75
               0
 76
               0
 77
               1
 78
               8
140
3.2000000476837158
141
2.5
142
0.0
143
0.03937007874016
144
1.0
145
0.0
146
1.0
147
1.0
170
               0
171
               4
172
               1
173
               0
174
               0
175
               0
176
               0
177
               0
178
               0
270
               2
271
               4
272
               4
273
               2
274
               4
275
               0
280
               0
281
               0
282
               0
283
               1
284
               0
285
               0
286
               0
287
               3
288
               1
340
17
  0
ENDTAB
  0
TABLE
  2
BLOCK_RECORD
  5
1
100
AcDbSymbolTable
 70
              11
  0
BLOCK_RECORD
  5
A
100
AcDbSymbolTableRecord
100
AcDbBlockTableRecord
  2
*MODEL_SPACE
  0
BLOCK_RECORD
  5
B
100
AcDbSymbolTableRecord
100
AcDbBlockTableRecord
  2
*PAPER_SPACE
  0
BLOCK_RECORD
  5
1E
100
AcDbSymbolTableRecord
100
AcDbBlockTableRecord
  2
SGDA10-1
  0
BLOCK_RECORD
  5
1F
100
AcDbSymbolTableRecord
100
AcDbBlockTableRecord
  2
SGDA10-2
  0
BLOCK_RECORD
  5
20
100
AcDbSymbolTableRecord
100
AcDbBlockTableRecord
  2
SGDA10-3
  0
BLOCK_RECORD
  5
21
100
AcDbSymbolTableRecord
100
AcDbBlockTableRecord
  2
SGDA10-4
  0
BLOCK_RECORD
  5
22
100
AcDbSymbolTableRecord
100
AcDbBlockTableRecord
  2
SGDA10-5
  0
BLOCK_RECORD
  5
23
100
AcDbSymbolTableRecord
100
AcDbBlockTableRecord
  2
SGDA10-6
  0
BLOCK_RECORD
  5
24
100
AcDbSymbolTableRecord
100
AcDbBlockTableRecord
  2
SGDA10-7
  0
BLOCK_RECORD
  5
25
100
AcDbSymbolTableRecord
100
AcDbBlockTableRecord
  2
SGDA10-8
  0
BLOCK_RECORD
  5
26
100
AcDbSymbolTableRecord
100
AcDbBlockTableRecord
  2
SGDA10-9
  0
BLOCK_RECORD
  5
27
100
AcDbSymbolTableRecord
100
AcDbBlockTableRecord
  2
SGDA10-10
  0
BLOCK_RECORD
  5
2A9
100
AcDbSymbolTableRecord
100
AcDbBlockTableRecord
  2
_OPEN30
  0
ENDTAB
  0
ENDSEC
  0
SECTION
  2
BLOCKS
  0
BLOCK
  5
D
100
AcDbEntity
  8
0
100
AcDbBlockBegin
  2
*MODEL_SPACE
 70
               0
 10
0.0
 20
0.0
 30
0.0
  3
*MODEL_SPACE
  1

  0
ENDBLK
  5
E
100
AcDbEntity
  8
0
100
AcDbBlockEnd
  0
BLOCK
  5
F
100
AcDbEntity
 67
               1
  8
0
100
AcDbBlockBegin
  2
*PAPER_SPACE
 70
               0
 10
0.0
 20
0.0
 30
0.0
  3
*PAPER_SPACE
  1

  0
ENDBLK
  5
10
100
AcDbEntity
 67
               1
  8
0
100
AcDbBlockEnd
  0
BLOCK
  5
28
100
AcDbEntity
  8
0
100
AcDbBlockBegin
  2
SGDA10-1
 70
               0
 10
0.0
 20
0.0
 30
0.0
  3
SGDA10-1
  1

  0
LINE
  5
2A
100
AcDbEntity
  8
0
  6
PHANTOM
 62
               3
100
AcDbLine
 10
41.25
 20
-56.833029924874538
 30
0.0
 11
41.25
 21
67.28158366031407
 31
0.0
  0
CIRCLE
  5
2B
100
AcDbEntity
  8
0
  6
CONTINUOUS
 62
               2
100
AcDbCircle
 10
50.0
 20
-10.000000000000007
 30
0.0
 40
1.25
  0
CIRCLE
  5
2C
100
AcDbEntity
  8
0
  6
CONTINUOUS
 62
               7
100
AcDbCircle
 10
50.0
 20
-10.000000000000007
 30
0.0
 40
1.5
  0
CIRCLE
  5
2D
100
AcDbEntity
  8
0
  6
CONTINUOUS
 62
               2
100
AcDbCircle
 10
17.0
 20
-10.0
 30
0.0
 40
1.25
  0
CIRCLE
  5
2E
100
AcDbEntity
  8
0
  6
CONTINUOUS
 62
               7
100
AcDbCircle
 10
17.0
 20
-10.0
 30
0.0
 40
1.5
  0
LINE
  5
2F
100
AcDbEntity
  8
0
  6
CONTINUOUS
 62
               2
100
AcDbLine
 10
47.0
 20
-10.000000000000007
 30
0.0
 11
12.5
 21
-10.0
 31
0.0
  0
LINE
  5
31
100
AcDbEntity
  8
0
  6
CENTER
 62
               2
100
AcDbLine
 10
50.0
 20
-5.5000000000000071
 30
0.0
 11
50.0
 21
-14.500000000000014
 31
0.0
  0
LINE
  5
32
100
AcDbEntity
  8
0
  6
CENTER
 62
               2
100
AcDbLine
 10
54.5
 20
-10.000000000000007
 30
0.0
 11
30.5
 21
-10.000000000000007
 31
0.0
  0
LINE
  5
33
100
AcDbEntity
  8
0
  6
CENTER
 62
               2
100
AcDbLine
 10
17.0
 20
-5.5
 30
0.0
 11
17.0
 21
-14.5
 31
0.0
  0
LINE
  5
34
100
AcDbEntity
  8
0
  6
CONTINUOUS
 62
               7
100
AcDbLine
 10
54.827101012874067
 20
-18.645170583938295
 30
0.0
 11
56.0
 21
-18.645170583938295
 31
0.0
  0
LINE
  5
35
100
AcDbEntity
  8
0
  6
CONTINUOUS
 62
               7
100
AcDbLine
 10
10.0
 20
-1.0
 30
0.0
 11
56.0
 21
-1.0000000000000142
 31
0.0
  0
LINE
  5
36
100
AcDbEntity
  8
0
  6
CONTINUOUS
 62
               7
100
AcDbLine
 10
10.0
 20
-4.1999999999999886
 30
0.0
 11
56.0
 21
-4.2000000000000028
 31
0.0
  0
LINE
  5
37
100
AcDbEntity
  8
0
  6
CONTINUOUS
 62
               7
100
AcDbLine
 10
10.0
 20
-16.999999965587236
 30
0.0
 11
56.0
 21
-16.999999965587264
 31
0.0
  0
LINE
  5
38
100
AcDbEntity
  8
0
  6
CONTINUOUS
 62
               7
100
AcDbLine
 10
10.0
 20
-18.645170583938281
 30
0.0
 11
53.172898987125933
 21
-18.645170583938295
 31
0.0
  0
LINE
  5
39
100
AcDbEntity
  8
0
  6
CONTINUOUS
 62
               7
100
AcDbLine
 10
10.0
 20
-23.58068233116785
 30
0.0
 11
56.0
 21
-23.580682331167864
 31
0.0
  0
LINE
  5
3A
100
AcDbEntity
  8
0
  6
CONTINUOUS
 62
               7
100
AcDbLine
 10
54.827101012874067
 20
18.645170583938281
 30
0.0
 11
56.0
 21
18.645170583938281
 31
0.0
  0
LINE
  5
3B
100
AcDbEntity
  8
0
  6
CONTINUOUS
 62
               7
100
AcDbLine
 10
10.0
 20
1.0
 30
0.0
 11
56.0
 21
1.0
 31
0.0
  0
LINE
  5
3C
100
AcDbEntity
  8
0
  6
CONTINUOUS
 62
               7
100
AcDbLine
 10
10.0
 20
4.1999999999999886
 30
0.0
 11
56.0
 21
4.1999999999999886
 31
0.0
  0
LINE
  5
3D
100
AcDbEntity
  8
0
  6
CONTINUOUS
 62
               7
100
AcDbLine
 10
10.0
 20
16.999999965587236
 30
0.0
 11
56.0
 21
16.999999965587236
 31
0.0
  0
LINE
  5
3E
100
AcDbEntity
  8
0
  6
CONTINUOUS
 62
               7
100
AcDbLine
 10
10.0
 20
18.645170583938281
 30
0.0
 11
53.172898987125933
 21
18.645170583938281
 31
0.0
  0
LINE
  5
3F
100
AcDbEntity
  8
0
  6
CONTINUOUS
 62
               7
100
AcDbLine
 10
10.0
 20
23.58068233116785
 30
0.0
 11
56.0
 21
23.58068233116785
 31
0.0
  0
LINE
  5
40
100
AcDbEntity
  8
0
  6
CONTINUOUS
 62
               2
100
AcDbLine
 10
8.0
 20
-2.1794494717703543
 30
0.0
 11
9.5
 21
2.1794494717703543
 31
0.0
  0
LINE
  5
41
100
AcDbEntity
  8
0
  6
CONTINUOUS
 62
               2
100
AcDbLine
 10
8.0
 20
2.1794494717703543
 30
0.0
 11
9.5
 21
-2.1794494717703543
 31
0.0
  0
LINE
  5
42
100
AcDbEntity
  8
0
  6
CONTINUOUS
 62
               7
100
AcDbLine
 10
8.0
 20
-2.1794494717703543
 30
0.0
 11
9.5
 21
-2.1794494717703543
 31
0.0
  0
LINE
  5
43
100
AcDbEntity
  8
0
  6
CONTINUOUS
 62
               7
100
AcDbLine
 10
8.0
 20
2.1794494717703543
 30
0.0
 11
9.5
 21
2.1794494717703543
 31
0.0
  0
LINE
  5
44
100
AcDbEntity
  8
0
  6
CONTINUOUS
 62
               7
100
AcDbLine
 10
55.499999999999943
 20
26.999999999999986
 30
0.0
 11
10.5
 21
27.0
 31
0.0
  0
LINE
  5
45
100
AcDbEntity
  8
0
  6
CENTER
 62
               2
100
AcDbLine
 10
58.0
 20
-0.0000000000000142
 30
0.0
 11
-2.0
 21
0.0
 31
0.0
  0
LINE
  5
46
100
AcDbEntity
  8
0
  6
CENTER
 62
               2
100
AcDbLine
 10
58.0
 20
18.999999999999986
 30
0.0
 11
-2.0
 21
19.0
 31
0.0
  0
LINE
  5
47
100
AcDbEntity
  8
0
  6
CENTER
 62
               2
100
AcDbLine
 10
58.0
 20
-19.000000000000014
 30
0.0
 11
-2.0
 21
-19.0
 31
0.0
  0
CIRCLE
  5
48
100
AcDbEntity
  8
0
  6
CONTINUOUS
 62
               7
100
AcDbCircle
 10
54.0
 20
-19.000000000000014
 30
0.0
 40
0.9
  0
LINE
  5
49
100
AcDbEntity
  8
0
  6
CENTER
 62
               2
100
AcDbLine
 10
54.0
 20
-16.100000000000009
 30
0.0
 11
54.0
 21
-21.900000000000006
 31
0.0
  0
CIRCLE
  5
4A
100
AcDbEntity
  8
0
  6
CONTINUOUS
 62
               7
100
AcDbCircle
 10
54.0
 20
18.999999999999986
 30
0.0
 40
0.9
  0
LINE
  5
4B
100
AcDbEntity
  8
0
  6
CENTER
 62
               2
100
AcDbLine
 10
54.0
 20
16.099999999999994
 30
0.0
 11
54.0
 21
21.899999999999991
 31
0.0
  0
LINE
  5
4C
100
AcDbEntity
  8
0
  6
CONTINUOUS
 62
               7
100
AcDbLine
 10
56.0
 20
-26.500000000000014
 30
0.0
 11
56.0
 21
26.499999999999986
 31
0.0
  0
LINE
  5
4D
100
AcDbEntity
  8
0
  6
CONTINUOUS
 62
               7
100
AcDbLine
 10
55.499999999999943
 20
-27.000000000000014
 30
0.0
 11
10.5
 21
-27.0
 31
0.0
  0
LINE
  5
4E
100
AcDbEntity
  8
0
  6
CONTINUOUS
 62
               7
100
AcDbLine
 10
56.0
 20
26.499999999999986
 30
0.0
 11
55.499999999999943
 21
26.999999999999986
 31
0.0
  0
LINE
  5
4F
100
AcDbEntity
  8
0
  6
CONTINUOUS
 62
               7
100
AcDbLine
 10
10.0
 20
26.5
 30
0.0
 11
10.5
 21
27.0
 31
0.0
  0
LINE
  5
50
100
AcDbEntity
  8
0
  6
CONTINUOUS
 62
               7
100
AcDbLine
 10
10.0
 20
-26.5
 30
0.0
 11
10.5
 21
-27.0
 31
0.0
  0
LINE
  5
51
100
AcDbEntity
  8
0
  6
CONTINUOUS
 62
               7
100
AcDbLine
 10
56.0
 20
-26.500000000000014
 30
0.0
 11
55.499999999999943
 21
-27.000000000000014
 31
0.0
  0
LINE
  5
52
100
AcDbEntity
  8
0
  6
CENTER
 62
               2
100
AcDbLine
 10
26.0
 20
4.0
 30
0.0
 11
26.0
 21
16.0
 31
0.0
  0
CIRCLE
  5
53
100
AcDbEntity
  8
0
  6
CONTINUOUS
 62
               7
100
AcDbCircle
 10
26.0
 20
10.0
 30
0.0
 40
2.0999999999999996
  0
CIRCLE
  5
54
100
AcDbEntity
  8
0
  6
CONTINUOUS
 62
               7
100
AcDbCircle
 10
26.0
 20
10.0
 30
0.0
 40
4.0
  0
LINE
  5
55
100
AcDbEntity
  8
0
  6
CENTER
 62
               2
100
AcDbLine
 10
26.0
 20
-4.0
 30
0.0
 11
26.0
 21
-16.0
 31
0.0
  0
CIRCLE
  5
56
100
AcDbEntity
  8
0
  6
CONTINUOUS
 62
               7
100
AcDbCircle
 10
26.0
 20
-10.0
 30
0.0
 40
2.0999999999999996
  0
CIRCLE
  5
57
100
AcDbEntity
  8
0
  6
CONTINUOUS
 62
               7
100
AcDbCircle
 10
26.0
 20
-10.0
 30
0.0
 40
4.0
  0
CIRCLE
  5
58
100
AcDbEntity
  8
0
  6
CONTINUOUS
 62
               2
100
AcDbCircle
 10
26.0
 20
10.0
 30
0.0
 40
2.5
  0
CIRCLE
  5
59
100
AcDbEntity
  8
0
  6
CONTINUOUS
 62
               2
100
AcDbCircle
 10
26.0
 20
-10.0
 30
0.0
 40
2.5
  0
LINE
  5
5A
100
AcDbEntity
  8
0
  6
CENTER
 62
               2
100
AcDbLine
 10
32.0
 20
9.9999999999999858
 30
0.0
 11
20.0
 21
10.0
 31
0.0
  0
LINE
  5
5B
100
AcDbEntity
  8
0
  6
CONTINUOUS
 62
               7
100
AcDbLine
 10
9.5
 20
4.5
 30
0.0
 11
10.0
 21
4.5
 31
0.0
  0
LINE
  5
5C
100
AcDbEntity
  8
0
  6
CONTINUOUS
 62
               7
100
AcDbLine
 10
9.5
 20
-5.0
 30
0.0
 11
9.5
 21
5.0
 31
0.0
  0
LINE
  5
5D
100
AcDbEntity
  8
0
  6
CONTINUOUS
 62
               7
100
AcDbLine
 10
8.0
 20
5.0
 30
0.0
 11
9.5
 21
5.0
 31
0.0
  0
LINE
  5
5E
100
AcDbEntity
  8
0
  6
CONTINUOUS
 62
               7
100
AcDbLine
 10
8.0
 20
-5.0
 30
0.0
 11
9.5
 21
-5.0
 31
0.0
  0
LINE
  5
5F
100
AcDbEntity
  8
0
  6
CONTINUOUS
 62
               7
100
AcDbLine
 10
9.5
 20
-4.5
 30
0.0
 11
10.0
 21
-4.5
 31
0.0
  0
LINE
  5
60
100
AcDbEntity
  8
0
  6
CONTINUOUS
 62
               7
100
AcDbLine
 10
8.0
 20
25.5
 30
0.0
 11
7.5
 21
26.0
 31
0.0
  0
LINE
  5
61
100
AcDbEntity
  8
0
  6
CONTINUOUS
 62
               7
100
AcDbLine
 10
7.5
 20
26.0
 30
0.0
 11
0.5
 21
26.0
 31
0.0
  0
LINE
  5
62
100
AcDbEntity
  8
0
  6
CONTINUOUS
 62
               7
100
AcDbLine
 10
0.0
 20
-25.5
 30
0.0
 11
0.5
 21
-26.0
 31
0.0
  0
LINE
  5
63
100
AcDbEntity
  8
0
  6
CONTINUOUS
 62
               7
100
AcDbLine
 10
7.5
 20
-26.0
 30
0.0
 11
0.5
 21
-26.0
 31
0.0
  0
LINE
  5
64
100
AcDbEntity
  8
0
  6
CONTINUOUS
 62
               7
100
AcDbLine
 10
7.5
 20
-26.0
 30
0.0
 11
8.0
 21
-25.5
 31
0.0
  0
LINE
  5
65
100
AcDbEntity
  8
0
  6
CONTINUOUS
 62
               7
100
AcDbLine
 10
0.5
 20
26.0
 30
0.0
 11
0.0
 21
25.5
 31
0.0
  0
LINE
  5
66
100
AcDbEntity
  8
0
  6
CONTINUOUS
 62
               7
100
AcDbLine
 10
0.0
 20
-25.5
 30
0.0
 11
0.0
 21
25.5
 31
0.0
  0
LINE
  5
67
100
AcDbEntity
  8
0
  6
CONTINUOUS
 62
               7
100
AcDbLine
 10
8.0
 20
25.5
 30
0.0
 11
8.0
 21
-25.5
 31
0.0
  0
LINE
  5
68
100
AcDbEntity
  8
0
  6
CONTINUOUS
 62
               7
100
AcDbLine
 10
10.0
 20
22.0
 30
0.0
 11
8.0
 21
22.0
 31
0.0
  0
LINE
  5
69
100
AcDbEntity
  8
0
  6
CONTINUOUS
 62
               7
100
AcDbLine
 10
10.0
 20
16.0
 30
0.0
 11
8.0
 21
16.0
 31
0.0
  0
LINE
  5
6A
100
AcDbEntity
  8
0
  6
CONTINUOUS
 62
               7
100
AcDbLine
 10
10.0
 20
-26.5
 30
0.0
 11
10.0
 21
26.5
 31
0.0
  0
LINE
  5
6B
100
AcDbEntity
  8
0
  6
CONTINUOUS
 62
               7
100
AcDbLine
 10
10.0
 20
-22.0
 30
0.0
 11
8.0
 21
-22.0
 31
0.0
  0
LINE
  5
6C
100
AcDbEntity
  8
0
  6
CONTINUOUS
 62
               7
100
AcDbLine
 10
10.0
 20
-16.0
 30
0.0
 11
8.0
 21
-16.0
 31
0.0
  0
ENDBLK
  5
6D
100
AcDbEntity
  8
0
100
AcDbBlockEnd
  0
BLOCK
  5
6E
100
AcDbEntity
  8
0
100
AcDbBlockBegin
  2
SGDA10-2
 70
               0
 10
0.0
 20
0.0
 30
0.0
  3
SGDA10-2
  1

  0
LINE
  5
6F
100
AcDbEntity
  8
0
  6
PHANTOM
 62
               3
100
AcDbLine
 10
41.25
 20
38.166970075125448
 30
0.0
 11
41.25
 21
-10.491671506938246
 31
0.0
  0
LINE
  5
70
100
AcDbEntity
  8
0
  6
CENTER
 62
               2
100
AcDbLine
 10
19.0
 20
12.5
 30
0.0
 11
19.0
 21
19.5
 31
0.0
  0
LINE
  5
71
100
AcDbEntity
  8
0
  6
CENTER
 62
               2
100
AcDbLine
 10
22.5
 20
16.0
 30
0.0
 11
15.5
 21
16.0
 31
0.0
  0
CIRCLE
  5
73
100
AcDbEntity
  8
0
  6
DASHED
 62
               7
100
AcDbCircle
 10
19.0
 20
16.0
 30
0.0
 40
1.2
  0
CIRCLE
  5
74
100
AcDbEntity
  8
0
  6
DASHED
 62
               2
100
AcDbCircle
 10
19.0
 20
16.0
 30
0.0
 40
1.5
  0
LINE
  5
75
100
AcDbEntity
  8
0
  6
CENTER
 62
               2
100
AcDbLine
 10
58.0
 20
8.0
 30
0.0
 11
-2.0
 21
8.0
 31
0.0
  0
LINE
  5
76
100
AcDbEntity
  8
0
  6
CONTINUOUS
 62
               7
100
AcDbLine
 10
0.5
 20
15.0
 30
0.0
 11
7.5
 21
15.0
 31
0.0
  0
LINE
  5
77
100
AcDbEntity
  8
0
  6
CONTINUOUS
 62
               7
100
AcDbLine
 10
0.5000000000000853
 20
1.0
 30
0.0
 11
7.5
 21
1.0
 31
0.0
  0
LINE
  5
78
100
AcDbEntity
  8
0
  6
CONTINUOUS
 62
               7
100
AcDbLine
 10
10.0
 20
20.0
 30
0.0
 11
56.0
 21
20.0
 31
0.0
  0
LINE
  5
79
100
AcDbEntity
  8
0
  6
CONTINUOUS
 62
               7
100
AcDbLine
 10
10.0
 20
0.0
 30
0.0
 11
56.0
 21
0.0
 31
0.0
  0
LINE
  5
7A
100
AcDbEntity
  8
0
  6
CONTINUOUS
 62
               7
100
AcDbLine
 10
0.0
 20
14.5
 30
0.0
 11
0.0
 21
1.5
 31
0.0
  0
LINE
  5
7B
100
AcDbEntity
  8
0
  6
CONTINUOUS
 62
               7
100
AcDbLine
 10
8.0
 20
14.5
 30
0.0
 11
8.0
 21
1.5
 31
0.0
  0
LINE
  5
7C
100
AcDbEntity
  8
0
  6
CONTINUOUS
 62
               7
100
AcDbLine
 10
10.0
 20
20.0
 30
0.0
 11
10.0
 21
0.0
 31
0.0
  0
LINE
  5
7D
100
AcDbEntity
  8
0
  6
CONTINUOUS
 62
               7
100
AcDbLine
 10
56.0
 20
20.0
 30
0.0
 11
56.0
 21
0.0
 31
0.0
  0
LINE
  5
7E
100
AcDbEntity
  8
0
  6
CONTINUOUS
 62
               7
100
AcDbLine
 10
8.0
 20
1.5
 30
0.0
 11
7.5
 21
1.0
 31
0.0
  0
LINE
  5
7F
100
AcDbEntity
  8
0
  6
CONTINUOUS
 62
               7
100
AcDbLine
 10
8.0
 20
14.5
 30
0.0
 11
7.5
 21
15.0
 31
0.0
  0
LINE
  5
80
100
AcDbEntity
  8
0
  6
CONTINUOUS
 62
               7
100
AcDbLine
 10
0.0
 20
14.5
 30
0.0
 11
0.5
 21
15.0
 31
0.0
  0
LINE
  5
81
100
AcDbEntity
  8
0
  6
CONTINUOUS
 62
               7
100
AcDbLine
 10
0.0
 20
1.5
 30
0.0
 11
0.5000000000000853
 21
1.0
 31
0.0
  0
LINE
  5
82
100
AcDbEntity
  8
0
  6
CONTINUOUS
 62
               7
100
AcDbLine
 10
10.0
 20
19.5
 30
0.0
 11
56.0
 21
19.5
 31
0.0
  0
LINE
  5
83
100
AcDbEntity
  8
0
  6
CONTINUOUS
 62
               7
100
AcDbLine
 10
10.0
 20
0.3000000000000114
 30
0.0
 11
56.0
 21
0.3000000000000114
 31
0.0
  0
LINE
  5
84
100
AcDbEntity
  8
0
  6
CONTINUOUS
 62
               7
100
AcDbLine
 10
10.0
 20
11.0
 30
0.0
 11
8.0
 21
11.0
 31
0.0
  0
LINE
  5
85
100
AcDbEntity
  8
0
  6
CONTINUOUS
 62
               7
100
AcDbLine
 10
10.0
 20
5.0
 30
0.0
 11
8.0
 21
5.0
 31
0.0
  0
LINE
  5
86
100
AcDbEntity
  8
0
  6
CONTINUOUS
 62
               7
100
AcDbLine
 10
9.5
 20
11.0
 30
0.0
 11
9.5
 21
12.5
 31
0.0
  0
LINE
  5
87
100
AcDbEntity
  8
0
  6
CONTINUOUS
 62
               7
100
AcDbLine
 10
9.5
 20
12.5
 30
0.0
 11
8.0
 21
12.5
 31
0.0
  0
LINE
  5
88
100
AcDbEntity
  8
0
  6
CONTINUOUS
 62
               7
100
AcDbLine
 10
9.5
 20
5.0
 30
0.0
 11
9.5
 21
3.5
 31
0.0
  0
LINE
  5
89
100
AcDbEntity
  8
0
  6
CONTINUOUS
 62
               7
100
AcDbLine
 10
9.5
 20
3.5
 30
0.0
 11
8.0
 21
3.5
 31
0.0
  0
LINE
  5
8A
100
AcDbEntity
  8
0
  6
CENTER
 62
               2
100
AcDbLine
 10
49.0
 20
12.5
 30
0.0
 11
49.0
 21
19.5
 31
0.0
  0
LINE
  5
8B
100
AcDbEntity
  8
0
  6
CENTER
 62
               2
100
AcDbLine
 10
52.5
 20
16.0
 30
0.0
 11
45.5
 21
16.0
 31
0.0
  0
CIRCLE
  5
8C
100
AcDbEntity
  8
0
  6
DASHED
 62
               7
100
AcDbCircle
 10
49.0
 20
16.0
 30
0.0
 40
1.2
  0
CIRCLE
  5
8D
100
AcDbEntity
  8
0
  6
DASHED
 62
               2
100
AcDbCircle
 10
49.0
 20
16.0
 30
0.0
 40
1.5
  0
LINE
  5
8E
100
AcDbEntity
  8
0
  6
CENTER
 62
               2
100
AcDbLine
 10
17.0
 20
23.740000000000009
 30
0.0
 11
17.0
 21
18.0
 31
0.0
  0
LINE
  5
8F
100
AcDbEntity
  8
0
  6
CONTINUOUS
 62
               4
100
AcDbLine
 10
19.5
 20
21.54000000000002
 30
0.0
 11
19.5
 21
20.0
 31
0.0
  0
LINE
  5
90
100
AcDbEntity
  8
0
  6
CONTINUOUS
 62
               4
100
AcDbLine
 10
14.5
 20
21.54000000000002
 30
0.0
 11
14.5
 21
20.0
 31
0.0
  0
LINE
  5
91
100
AcDbEntity
  8
0
  6
CONTINUOUS
 62
               4
100
AcDbLine
 10
14.5
 20
20.639999999999986
 30
0.0
 11
19.5
 21
20.639999999999986
 31
0.0
  0
LINE
  5
92
100
AcDbEntity
  8
0
  6
CONTINUOUS
 62
               4
100
AcDbLine
 10
14.5
 20
21.54000000000002
 30
0.0
 11
14.699999999999989
 21
21.740000000000009
 31
0.0
  0
LINE
  5
93
100
AcDbEntity
  8
0
  6
CONTINUOUS
 62
               4
100
AcDbLine
 10
19.300000000000011
 20
21.740000000000009
 30
0.0
 11
19.5
 21
21.54000000000002
 31
0.0
  0
LINE
  5
94
100
AcDbEntity
  8
0
  6
CONTINUOUS
 62
               4
100
AcDbLine
 10
14.699999999999989
 20
21.740000000000009
 30
0.0
 11
19.300000000000011
 21
21.740000000000009
 31
0.0
  0
LINE
  5
95
100
AcDbEntity
  8
0
  6
CONTINUOUS
 62
               4
100
AcDbLine
 10
19.5
 20
21.54000000000002
 30
0.0
 11
14.5
 21
21.54000000000002
 31
0.0
  0
LINE
  5
96
100
AcDbEntity
  8
0
  6
CENTER
 62
               2
100
AcDbLine
 10
50.0
 20
23.740000000000009
 30
0.0
 11
50.0
 21
18.0
 31
0.0
  0
LINE
  5
97
100
AcDbEntity
  8
0
  6
CONTINUOUS
 62
               4
100
AcDbLine
 10
52.5
 20
21.54000000000002
 30
0.0
 11
52.5
 21
20.0
 31
0.0
  0
LINE
  5
98
100
AcDbEntity
  8
0
  6
CONTINUOUS
 62
               4
100
AcDbLine
 10
47.5
 20
21.54000000000002
 30
0.0
 11
47.5
 21
20.0
 31
0.0
  0
LINE
  5
99
100
AcDbEntity
  8
0
  6
CONTINUOUS
 62
               4
100
AcDbLine
 10
47.5
 20
20.639999999999986
 30
0.0
 11
52.5
 21
20.639999999999986
 31
0.0
  0
LINE
  5
9A
100
AcDbEntity
  8
0
  6
CONTINUOUS
 62
               4
100
AcDbLine
 10
47.5
 20
21.54000000000002
 30
0.0
 11
47.699999999999989
 21
21.740000000000009
 31
0.0
  0
LINE
  5
9B
100
AcDbEntity
  8
0
  6
CONTINUOUS
 62
               4
100
AcDbLine
 10
52.300000000000011
 20
21.740000000000009
 30
0.0
 11
52.5
 21
21.54000000000002
 31
0.0
  0
LINE
  5
9C
100
AcDbEntity
  8
0
  6
CONTINUOUS
 62
               4
100
AcDbLine
 10
47.699999999999989
 20
21.740000000000009
 30
0.0
 11
52.300000000000011
 21
21.740000000000009
 31
0.0
  0
LINE
  5
9D
100
AcDbEntity
  8
0
  6
CONTINUOUS
 62
               4
100
AcDbLine
 10
52.5
 20
21.54000000000002
 30
0.0
 11
47.5
 21
21.54000000000002
 31
0.0
  0
ENDBLK
  5
9E
100
AcDbEntity
  8
0
100
AcDbBlockEnd
  0
BLOCK
  5
9F
100
AcDbEntity
  8
0
100
AcDbBlockBegin
  2
SGDA10-3
 70
               0
 10
0.0
 20
0.0
 30
0.0
  3
SGDA10-3
  1

  0
LINE
  5
A0
100
AcDbEntity
  8
0
  6
CENTER
 62
               2
100
AcDbLine
 10
-2.1999999999999886
 20
-10.000000000000007
 30
0.0
 11
2.8000000000000114
 21
-10.000000000000007
 31
0.0
  0
LINE
  5
A1
100
AcDbEntity
  8
0
  6
CENTER
 62
               2
100
AcDbLine
 10
-2.1999999999999886
 20
9.9999999999999858
 30
0.0
 11
2.8000000000000114
 21
9.9999999999999858
 31
0.0
  0
LINE
  5
A2
100
AcDbEntity
  8
0
  6
CENTER
 62
               2
100
AcDbLine
 10
23.740000000000009
 20
-10.0
 30
0.0
 11
18.0
 21
-10.0
 31
0.0
  0
CIRCLE
  5
A3
100
AcDbEntity
  8
0
  6
CONTINUOUS
 62
               7
100
AcDbCircle
 10
8.0
 20
-19.0
 30
0.0
 40
3.0
  0
LINE
  5
A4
100
AcDbEntity
  8
0
  6
CENTER
 62
               2
100
AcDbLine
 10
3.0
 20
-19.0
 30
0.0
 11
13.0
 21
-19.0
 31
0.0
  0
LINE
  5
A5
100
AcDbEntity
  8
0
  6
CENTER
 62
               2
100
AcDbLine
 10
-2.0
 20
0.0
 30
0.0
 11
22.0
 21
0.0
 31
0.0
  0
LINE
  5
A6
100
AcDbEntity
  8
0
  6
CONTINUOUS
 62
               7
100
AcDbLine
 10
19.999999940395355
 20
17.0
 30
0.0
 11
17.150480933052052
 21
18.645170583938281
 31
0.0
  0
LINE
  5
A7
100
AcDbEntity
  8
0
  6
CONTINUOUS
 62
               7
100
AcDbLine
 10
20.0
 20
-23.58068233116785
 30
0.0
 11
20.0
 21
-26.5
 31
0.0
  0
LINE
  5
A8
100
AcDbEntity
  8
0
  6
CONTINUOUS
 62
               7
100
AcDbLine
 10
20.0
 20
-26.5
 30
0.0
 11
19.499999999999972
 21
-27.0
 31
0.0
  0
LINE
  5
A9
100
AcDbEntity
  8
0
  6
CONTINUOUS
 62
               7
100
AcDbLine
 10
20.0
 20
-4.5
 30
0.0
 11
20.0
 21
-17.0
 31
0.0
  0
LINE
  5
AA
100
AcDbEntity
  8
0
  6
CONTINUOUS
 62
               7
100
AcDbLine
 10
17.150480933052052
 20
-18.645170583938281
 30
0.0
 11
19.999999999999972
 21
-23.580682385028311
 31
0.0
  0
LINE
  5
AB
100
AcDbEntity
  8
0
  6
CONTINUOUS
 62
               7
100
AcDbLine
 10
19.999999940395355
 20
-17.0
 30
0.0
 11
17.150480933052052
 21
-18.645170583938281
 31
0.0
  0
LINE
  5
AC
100
AcDbEntity
  8
0
  6
CONTINUOUS
 62
               7
100
AcDbLine
 10
20.0
 20
23.58068233116785
 30
0.0
 11
20.0
 21
26.5
 31
0.0
  0
LINE
  5
AD
100
AcDbEntity
  8
0
  6
CONTINUOUS
 62
               7
100
AcDbLine
 10
20.0
 20
26.5
 30
0.0
 11
19.499999999999972
 21
27.0
 31
0.0
  0
LINE
  5
AE
100
AcDbEntity
  8
0
  6
CONTINUOUS
 62
               7
100
AcDbLine
 10
17.150480933052052
 20
18.645170583938281
 30
0.0
 11
19.999999999999972
 21
23.580682385028297
 31
0.0
  0
LINE
  5
AF
100
AcDbEntity
  8
0
  6
CONTINUOUS
 62
               7
100
AcDbLine
 10
0.0
 20
-15.0
 30
0.0
 11
0.0
 21
-5.0
 31
0.0
  0
LINE
  5
B0
100
AcDbEntity
  8
0
  6
CONTINUOUS
 62
               7
100
AcDbLine
 10
0.0
 20
15.0
 30
0.0
 11
0.0
 21
5.0
 31
0.0
  0
LINE
  5
B1
100
AcDbEntity
  8
0
  6
CONTINUOUS
 62
               7
100
AcDbLine
 10
0.3000000000000114
 20
4.6999999999999886
 30
0.0
 11
0.3000000000000114
 21
-4.6999999999999886
 31
0.0
  0
LINE
  5
B2
100
AcDbEntity
  8
0
  6
CONTINUOUS
 62
               7
100
AcDbLine
 10
0.0
 20
15.0
 30
0.0
 11
0.3000000000000114
 21
15.300000000000011
 31
0.0
  0
LINE
  5
B3
100
AcDbEntity
  8
0
  6
CONTINUOUS
 62
               7
100
AcDbLine
 10
0.0
 20
5.0
 30
0.0
 11
0.3000000000000114
 21
4.6999999999999886
 31
0.0
  0
LINE
  5
B4
100
AcDbEntity
  8
0
  6
CONTINUOUS
 62
               7
100
AcDbLine
 10
0.3000000000000114
 20
22.699999999999989
 30
0.0
 11
0.3000000000000114
 21
15.300000000000011
 31
0.0
  0
LINE
  5
B5
100
AcDbEntity
  8
0
  6
CONTINUOUS
 62
               7
100
AcDbLine
 10
17.075000000000017
 20
-0.5249999999999915
 30
0.0
 11
18.700000000000017
 21
-0.5249999999999915
 31
0.0
  0
ARC
  5
B6
100
AcDbEntity
  8
0
  6
CONTINUOUS
 62
               7
100
AcDbCircle
 10
17.075000000000017
 20
-2.6000000000000014
 30
0.0
 40
2.0750000000000028
100
AcDbArc
 50
89.999999999999815
 51
269.99999999999937
  0
LINE
  5
B7
100
AcDbEntity
  8
0
  6
CONTINUOUS
 62
               7
100
AcDbLine
 10
19.17500000000004
 20
-1.0
 30
0.0
 11
19.400000000000006
 21
-1.0
 31
0.0
  0
LINE
  5
B8
100
AcDbEntity
  8
0
  6
CONTINUOUS
 62
               7
100
AcDbLine
 10
19.175000000000011
 20
-4.2000000000000028
 30
0.0
 11
19.700000000000017
 21
-4.2000000000000028
 31
0.0
  0
LINE
  5
B9
100
AcDbEntity
  8
0
  6
CONTINUOUS
 62
               7
100
AcDbLine
 10
18.700000000000017
 20
-4.6750000000000043
 30
0.0
 11
19.175000000000011
 21
-4.2000000000000028
 31
0.0
  0
LINE
  5
BA
100
AcDbEntity
  8
0
  6
CONTINUOUS
 62
               7
100
AcDbLine
 10
20.0
 20
-4.5
 30
0.0
 11
19.69999999999996
 21
-4.1999999999999886
 31
0.0
  0
ARC
  5
BB
100
AcDbEntity
  8
0
  6
CONTINUOUS
 62
               7
100
AcDbCircle
 10
19.400000000000006
 20
-0.7000000000000028
 30
0.0
 40
0.3
100
AcDbArc
 50
270.00000000000023
 51
0.0
  0
LINE
  5
BC
100
AcDbEntity
  8
0
  6
CONTINUOUS
 62
               7
100
AcDbLine
 10
18.700000000000017
 20
-0.5249999999999915
 30
0.0
 11
19.175000000000011
 21
-1.0
 31
0.0
  0
LINE
  5
BD
100
AcDbEntity
  8
0
  6
CONTINUOUS
 62
               7
100
AcDbLine
 10
17.075000000000017
 20
-4.6750000000000043
 30
0.0
 11
18.700000000000017
 21
-4.6750000000000043
 31
0.0
  0
LINE
  5
BE
100
AcDbEntity
  8
0
  6
CONTINUOUS
 62
               7
100
AcDbLine
 10
19.700000000000017
 20
0.7000000000000028
 30
0.0
 11
19.700000000000017
 21
-0.7000000000000028
 31
0.0
  0
LINE
  5
BF
100
AcDbEntity
  8
0
  6
CONTINUOUS
 62
               7
100
AcDbLine
 10
20.0
 20
4.5
 30
0.0
 11
19.69999999999996
 21
4.1999999999999886
 31
0.0
  0
LINE
  5
C0
100
AcDbEntity
  8
0
  6
CONTINUOUS
 62
               7
100
AcDbLine
 10
0.3000000000000114
 20
27.0
 30
0.0
 11
19.499999999999972
 21
27.0
 31
0.0
  0
LINE
  5
C1
100
AcDbEntity
  8
0
  6
CONTINUOUS
 62
               7
100
AcDbLine
 10
20.0
 20
4.5
 30
0.0
 11
20.0
 21
16.99999996558725
 31
0.0
  0
ARC
  5
C2
100
AcDbEntity
  8
0
  6
CONTINUOUS
 62
               7
100
AcDbCircle
 10
19.400000000000006
 20
0.7000000000000028
 30
0.0
 40
0.3
100
AcDbArc
 50
0.0
 51
89.999999999999815
  0
LINE
  5
C3
100
AcDbEntity
  8
0
  6
CONTINUOUS
 62
               7
100
AcDbLine
 10
18.700000000000017
 20
0.5249999999999915
 30
0.0
 11
19.175000000000011
 21
1.0
 31
0.0
  0
LINE
  5
C4
100
AcDbEntity
  8
0
  6
CONTINUOUS
 62
               7
100
AcDbLine
 10
18.700000000000017
 20
4.6750000000000114
 30
0.0
 11
19.175000000000011
 21
4.2000000000000028
 31
0.0
  0
LINE
  5
C5
100
AcDbEntity
  8
0
  6
CONTINUOUS
 62
               7
100
AcDbLine
 10
19.175000000000011
 20
4.2000000000000028
 30
0.0
 11
19.700000000000017
 21
4.2000000000000028
 31
0.0
  0
LINE
  5
C6
100
AcDbEntity
  8
0
  6
CONTINUOUS
 62
               7
100
AcDbLine
 10
19.17500000000004
 20
1.0
 30
0.0
 11
19.400000000000006
 21
1.0
 31
0.0
  0
LINE
  5
C7
100
AcDbEntity
  8
0
  6
CONTINUOUS
 62
               7
100
AcDbLine
 10
17.075000000000017
 20
0.5249999999999915
 30
0.0
 11
18.700000000000017
 21
0.5249999999999915
 31
0.0
  0
LINE
  5
C8
100
AcDbEntity
  8
0
  6
CONTINUOUS
 62
               7
100
AcDbLine
 10
17.075000000000017
 20
4.6750000000000114
 30
0.0
 11
18.700000000000017
 21
4.6750000000000114
 31
0.0
  0
ARC
  5
C9
100
AcDbEntity
  8
0
  6
CONTINUOUS
 62
               7
100
AcDbCircle
 10
17.075000000000017
 20
2.6000000000000085
 30
0.0
 40
2.0750000000000028
100
AcDbArc
 50
89.999999999999815
 51
269.99999999999937
  0
LINE
  5
CA
100
AcDbEntity
  8
0
  6
CONTINUOUS
 62
               7
100
AcDbLine
 10
0.0
 20
-15.0
 30
0.0
 11
0.3000000000000114
 21
-15.300000000000011
 31
0.0
  0
LINE
  5
CB
100
AcDbEntity
  8
0
  6
CONTINUOUS
 62
               7
100
AcDbLine
 10
0.0
 20
-5.0
 30
0.0
 11
0.3000000000000114
 21
-4.6999999999999886
 31
0.0
  0
LINE
  5
CC
100
AcDbEntity
  8
0
  6
CONTINUOUS
 62
               7
100
AcDbLine
 10
0.0
 20
23.0
 30
0.0
 11
0.0
 21
26.69999999999996
 31
0.0
  0
LINE
  5
CD
100
AcDbEntity
  8
0
  6
CONTINUOUS
 62
               7
100
AcDbLine
 10
0.0
 20
23.0
 30
0.0
 11
0.3000000000000114
 21
22.699999999999989
 31
0.0
  0
LINE
  5
CE
100
AcDbEntity
  8
0
  6
CONTINUOUS
 62
               7
100
AcDbLine
 10
0.3000000000000114
 20
27.0
 30
0.0
 11
0.0
 21
26.69999999999996
 31
0.0
  0
LINE
  5
CF
100
AcDbEntity
  8
0
  6
CONTINUOUS
 62
               7
100
AcDbLine
 10
0.3000000000000114
 20
-22.699999999999989
 30
0.0
 11
0.3000000000000114
 21
-15.300000000000011
 31
0.0
  0
LINE
  5
D0
100
AcDbEntity
  8
0
  6
CONTINUOUS
 62
               7
100
AcDbLine
 10
0.3000000000000114
 20
-27.0
 30
0.0
 11
19.499999999999972
 21
-27.0
 31
0.0
  0
LINE
  5
D1
100
AcDbEntity
  8
0
  6
CONTINUOUS
 62
               7
100
AcDbLine
 10
0.3000000000000114
 20
-27.0
 30
0.0
 11
0.0
 21
-26.699999999999946
 31
0.0
  0
LINE
  5
D2
100
AcDbEntity
  8
0
  6
CONTINUOUS
 62
               7
100
AcDbLine
 10
0.0
 20
-23.0
 30
0.0
 11
0.3000000000000114
 21
-22.699999999999989
 31
0.0
  0
LINE
  5
D3
100
AcDbEntity
  8
0
  6
CONTINUOUS
 62
               7
100
AcDbLine
 10
0.0
 20
-23.0
 30
0.0
 11
0.0
 21
-26.699999999999946
 31
0.0
  0
ARC
  5
D4
100
AcDbEntity
  8
0
  6
CONTINUOUS
 62
               7
100
AcDbCircle
 10
14.5
 20
-11.25
 30
0.0
 40
0.9
100
AcDbArc
 50
303.74898859588791
 51
56.251011404111317
  0
LINE
  5
D5
100
AcDbEntity
  8
0
  6
CENTER
 62
               2
100
AcDbLine
 10
13.0
 20
-11.25
 30
0.0
 11
17.400000000000006
 21
-11.25
 31
0.0
  0
CIRCLE
  5
D6
100
AcDbEntity
  8
0
  6
CONTINUOUS
 62
               7
100
AcDbCircle
 10
8.0
 20
19.0
 30
0.0
 40
3.0
  0
LINE
  5
D7
100
AcDbEntity
  8
0
  6
CONTINUOUS
 62
               7
100
AcDbLine
 10
1.5
 20
26.0
 30
0.0
 11
1.0
 21
25.499999999999986
 31
0.0
  0
LINE
  5
D8
100
AcDbEntity
  8
0
  6
CONTINUOUS
 62
               7
100
AcDbLine
 10
14.500000000000057
 20
26.0
 30
0.0
 11
1.5
 21
26.0
 31
0.0
  0
LINE
  5
D9
100
AcDbEntity
  8
0
  6
CONTINUOUS
 62
               7
100
AcDbLine
 10
15.0
 20
25.5
 30
0.0
 11
14.500000000000057
 21
26.0
 31
0.0
  0
LINE
  5
DA
100
AcDbEntity
  8
0
  6
CENTER
 62
               2
100
AcDbLine
 10
12.0
 20
10.0
 30
0.0
 11
4.0
 21
10.0
 31
0.0
  0
CIRCLE
  5
DB
100
AcDbEntity
  8
0
  6
CONTINUOUS
 62
               7
100
AcDbCircle
 10
8.0
 20
10.0
 30
0.0
 40
1.6499999999999999
  0
CIRCLE
  5
DC
100
AcDbEntity
  8
0
  6
CONTINUOUS
 62
               2
100
AcDbCircle
 10
8.0
 20
10.0
 30
0.0
 40
2.0
  0
CIRCLE
  5
DD
100
AcDbEntity
  8
0
  6
CONTINUOUS
 62
               7
100
AcDbCircle
 10
8.0
 20
0.0
 30
0.0
 40
5.0
  0
LINE
  5
DE
100
AcDbEntity
  8
0
  6
CENTER
 62
               2
100
AcDbLine
 10
12.0
 20
-10.0
 30
0.0
 11
4.0
 21
-10.0
 31
0.0
  0
CIRCLE
  5
DF
100
AcDbEntity
  8
0
  6
CONTINUOUS
 62
               7
100
AcDbCircle
 10
8.0
 20
-10.0
 30
0.0
 40
1.6499999999999999
  0
CIRCLE
  5
E0
100
AcDbEntity
  8
0
  6
CONTINUOUS
 62
               2
100
AcDbCircle
 10
8.0
 20
-10.0
 30
0.0
 40
2.0
  0
LINE
  5
E1
100
AcDbEntity
  8
0
  6
CONTINUOUS
 62
               7
100
AcDbLine
 10
1.0
 20
25.5
 30
0.0
 11
1.0
 21
-25.499999999999986
 31
0.0
  0
LINE
  5
E2
100
AcDbEntity
  8
0
  6
CONTINUOUS
 62
               7
100
AcDbLine
 10
1.5
 20
-26.0
 30
0.0
 11
1.0
 21
-25.499999999999986
 31
0.0
  0
LINE
  5
E3
100
AcDbEntity
  8
0
  6
CONTINUOUS
 62
               7
100
AcDbLine
 10
15.0
 20
-25.5
 30
0.0
 11
14.500000000000057
 21
-26.0
 31
0.0
  0
LINE
  5
E4
100
AcDbEntity
  8
0
  6
CONTINUOUS
 62
               7
100
AcDbLine
 10
14.500000000000057
 20
-26.0
 30
0.0
 11
1.5
 21
-26.0
 31
0.0
  0
LINE
  5
E5
100
AcDbEntity
  8
0
  6
CONTINUOUS
 62
               7
100
AcDbLine
 10
15.0
 20
25.5
 30
0.0
 11
15.0
 21
-25.5
 31
0.0
  0
CIRCLE
  5
E6
100
AcDbEntity
  8
0
  6
CONTINUOUS
 62
               7
100
AcDbCircle
 10
8.0
 20
0.0
 30
0.0
 40
4.7000000000000002
  0
CIRCLE
  5
E7
100
AcDbEntity
  8
0
  6
CONTINUOUS
 62
               2
100
AcDbCircle
 10
8.0
 20
0.0
 30
0.0
 40
1.75
  0
CIRCLE
  5
E8
100
AcDbEntity
  8
0
  6
CONTINUOUS
 62
               7
100
AcDbCircle
 10
8.0
 20
0.0
 30
0.0
 40
2.0
  0
LINE
  5
E9
100
AcDbEntity
  8
0
  6
CENTER
 62
               2
100
AcDbLine
 10
3.0
 20
19.0
 30
0.0
 11
13.0
 21
19.0
 31
0.0
  0
ARC
  5
EA
100
AcDbEntity
  8
0
  6
CONTINUOUS
 62
               7
100
AcDbCircle
 10
8.0
 20
0.0
 30
0.0
 40
8.5
100
AcDbArc
 50
145.43967822000181
 51
154.94238458169644
  0
ARC
  5
EB
100
AcDbEntity
  8
0
  6
CONTINUOUS
 62
               7
100
AcDbCircle
 10
8.0
 20
0.0
 30
0.0
 40
8.5
100
AcDbArc
 50
205.05761541830276
 51
214.56032177999734
  0
ARC
  5
EC
100
AcDbEntity
  8
0
  6
CONTINUOUS
 62
               7
100
AcDbCircle
 10
8.0
 20
0.0
 30
0.0
 40
8.5
100
AcDbArc
 50
325.4396782200015
 51
332.15992137869756
  0
ARC
  5
ED
100
AcDbEntity
  8
0
  6
CONTINUOUS
 62
               7
100
AcDbCircle
 10
8.0
 20
0.0
 30
0.0
 40
8.5
100
AcDbArc
 50
355.86591720227949
 51
4.1340827977197092
  0
ARC
  5
EE
100
AcDbEntity
  8
0
  6
CONTINUOUS
 62
               7
100
AcDbCircle
 10
8.0
 20
0.0
 30
0.0
 40
8.5
100
AcDbArc
 50
27.840078621301593
 51
34.560321779997786
  0
LINE
  5
EF
100
AcDbEntity
  8
0
  6
CENTER
 62
               2
100
AcDbLine
 10
8.0
 20
-29.0
 30
0.0
 11
8.0
 21
29.0
 31
0.0
  0
ENDBLK
  5
F0
100
AcDbEntity
  8
0
100
AcDbBlockEnd
  0
BLOCK
  5
F1
100
AcDbEntity
  8
0
100
AcDbBlockBegin
  2
SGDA10-4
 70
               0
 10
0.0
 20
0.0
 30
0.0
  3
SGDA10-4
  1

  0
LINE
  5
F2
100
AcDbEntity
  8
0
  6
CENTER
 62
               2
100
AcDbLine
 10
-2.5
 20
9.9999999999999858
 30
0.0
 11
2.5
 21
9.9999999999999858
 31
0.0
  0
LINE
  5
F3
100
AcDbEntity
  8
0
  6
CENTER
 62
               2
100
AcDbLine
 10
-2.5
 20
-10.000000000000007
 30
0.0
 11
2.5
 21
-10.000000000000007
 31
0.0
  0
LINE
  5
F4
100
AcDbEntity
  8
0
  6
CENTER
 62
               2
100
AcDbLine
 10
-23.740000000000009
 20
-10.000000000000007
 30
0.0
 11
-18.0
 21
-10.000000000000007
 31
0.0
  0
LINE
  5
F5
100
AcDbEntity
  8
0
  6
CONTINUOUS
 62
               7
100
AcDbLine
 10
0.0
 20
-23.0
 30
0.0
 11
0.0
 21
-26.699999999999946
 31
0.0
  0
LINE
  5
F6
100
AcDbEntity
  8
0
  6
CONTINUOUS
 62
               7
100
AcDbLine
 10
0.0
 20
-23.0
 30
0.0
 11
-0.3000000000000114
 21
-22.699999999999989
 31
0.0
  0
LINE
  5
F7
100
AcDbEntity
  8
0
  6
CONTINUOUS
 62
               7
100
AcDbLine
 10
-0.3000000000000114
 20
-27.0
 30
0.0
 11
0.0
 21
-26.699999999999946
 31
0.0
  0
LINE
  5
F8
100
AcDbEntity
  8
0
  6
CONTINUOUS
 62
               7
100
AcDbLine
 10
-0.3000000000000114
 20
-27.0
 30
0.0
 11
-19.499999999999972
 21
-27.0
 31
0.0
  0
LINE
  5
F9
100
AcDbEntity
  8
0
  6
CONTINUOUS
 62
               7
100
AcDbLine
 10
-0.3000000000000114
 20
-22.699999999999989
 30
0.0
 11
-0.3000000000000114
 21
-15.300000000000011
 31
0.0
  0
LINE
  5
FA
100
AcDbEntity
  8
0
  6
CONTINUOUS
 62
               7
100
AcDbLine
 10
-0.3000000000000114
 20
27.0
 30
0.0
 11
0.0
 21
26.69999999999996
 31
0.0
  0
LINE
  5
FB
100
AcDbEntity
  8
0
  6
CONTINUOUS
 62
               7
100
AcDbLine
 10
0.0
 20
23.0
 30
0.0
 11
-0.3000000000000114
 21
22.699999999999989
 31
0.0
  0
LINE
  5
FC
100
AcDbEntity
  8
0
  6
CONTINUOUS
 62
               7
100
AcDbLine
 10
0.0
 20
23.0
 30
0.0
 11
0.0
 21
26.69999999999996
 31
0.0
  0
LINE
  5
FD
100
AcDbEntity
  8
0
  6
CONTINUOUS
 62
               7
100
AcDbLine
 10
0.0
 20
-5.0
 30
0.0
 11
-0.3000000000000114
 21
-4.6999999999999886
 31
0.0
  0
LINE
  5
FE
100
AcDbEntity
  8
0
  6
CONTINUOUS
 62
               7
100
AcDbLine
 10
0.0
 20
-15.0
 30
0.0
 11
-0.3000000000000114
 21
-15.300000000000011
 31
0.0
  0
LINE
  5
FF
100
AcDbEntity
  8
0
  6
CENTER
 62
               2
100
AcDbLine
 10
-2.4000000000000057
 20
-19.0
 30
0.0
 11
-13.599999999999994
 21
-19.0
 31
0.0
  0
ARC
  5
100
100
AcDbEntity
  8
0
  6
CONTINUOUS
 62
               7
100
AcDbCircle
 10
-17.075000000000017
 20
2.6000000000000085
 30
0.0
 40
2.0750000000000028
100
AcDbArc
 50
269.99999999999937
 51
89.999999999999801
  0
LINE
  5
101
100
AcDbEntity
  8
0
  6
CONTINUOUS
 62
               7
100
AcDbLine
 10
-17.075000000000017
 20
4.6750000000000114
 30
0.0
 11
-18.700000000000017
 21
4.6750000000000114
 31
0.0
  0
LINE
  5
102
100
AcDbEntity
  8
0
  6
CONTINUOUS
 62
               7
100
AcDbLine
 10
-17.075000000000017
 20
0.5249999999999915
 30
0.0
 11
-18.700000000000017
 21
0.5249999999999915
 31
0.0
  0
LINE
  5
103
100
AcDbEntity
  8
0
  6
CONTINUOUS
 62
               7
100
AcDbLine
 10
-19.17500000000004
 20
1.0
 30
0.0
 11
-19.400000000000006
 21
1.0
 31
0.0
  0
LINE
  5
104
100
AcDbEntity
  8
0
  6
CONTINUOUS
 62
               7
100
AcDbLine
 10
-19.175000000000011
 20
4.2000000000000028
 30
0.0
 11
-19.700000000000017
 21
4.2000000000000028
 31
0.0
  0
LINE
  5
105
100
AcDbEntity
  8
0
  6
CONTINUOUS
 62
               7
100
AcDbLine
 10
-18.700000000000017
 20
4.6750000000000114
 30
0.0
 11
-19.175000000000011
 21
4.2000000000000028
 31
0.0
  0
LINE
  5
106
100
AcDbEntity
  8
0
  6
CONTINUOUS
 62
               7
100
AcDbLine
 10
-18.700000000000017
 20
0.5249999999999915
 30
0.0
 11
-19.175000000000011
 21
1.0
 31
0.0
  0
ARC
  5
107
100
AcDbEntity
  8
0
  6
CONTINUOUS
 62
               7
100
AcDbCircle
 10
-19.400000000000006
 20
0.7000000000000028
 30
0.0
 40
0.3
100
AcDbArc
 50
89.999999999999815
 51
179.99999999999963
  0
LINE
  5
108
100
AcDbEntity
  8
0
  6
CONTINUOUS
 62
               7
100
AcDbLine
 10
-20.0
 20
4.5
 30
0.0
 11
-20.0
 21
16.99999996558725
 31
0.0
  0
LINE
  5
109
100
AcDbEntity
  8
0
  6
CENTER
 62
               2
100
AcDbLine
 10
-2.4000000000000057
 20
19.0
 30
0.0
 11
-13.599999999999994
 21
19.0
 31
0.0
  0
LINE
  5
10A
100
AcDbEntity
  8
0
  6
CONTINUOUS
 62
               7
100
AcDbLine
 10
-0.3000000000000114
 20
27.0
 30
0.0
 11
-19.499999999999972
 21
27.0
 31
0.0
  0
LINE
  5
10B
100
AcDbEntity
  8
0
  6
CONTINUOUS
 62
               7
100
AcDbLine
 10
-20.0
 20
4.5
 30
0.0
 11
-19.69999999999996
 21
4.1999999999999886
 31
0.0
  0
LINE
  5
10C
100
AcDbEntity
  8
0
  6
CONTINUOUS
 62
               7
100
AcDbLine
 10
-19.700000000000017
 20
0.7000000000000028
 30
0.0
 11
-19.700000000000017
 21
-0.7000000000000028
 31
0.0
  0
LINE
  5
10D
100
AcDbEntity
  8
0
  6
CONTINUOUS
 62
               7
100
AcDbLine
 10
-17.075000000000017
 20
-4.6750000000000043
 30
0.0
 11
-18.700000000000017
 21
-4.6750000000000043
 31
0.0
  0
LINE
  5
10E
100
AcDbEntity
  8
0
  6
CONTINUOUS
 62
               7
100
AcDbLine
 10
-18.700000000000017
 20
-0.5249999999999915
 30
0.0
 11
-19.175000000000011
 21
-1.0
 31
0.0
  0
ARC
  5
10F
100
AcDbEntity
  8
0
  6
CONTINUOUS
 62
               7
100
AcDbCircle
 10
-19.400000000000006
 20
-0.7000000000000028
 30
0.0
 40
0.3
100
AcDbArc
 50
179.99999999999963
 51
269.99999999999937
  0
LINE
  5
110
100
AcDbEntity
  8
0
  6
CONTINUOUS
 62
               7
100
AcDbLine
 10
-20.0
 20
-4.5
 30
0.0
 11
-19.69999999999996
 21
-4.1999999999999886
 31
0.0
  0
LINE
  5
111
100
AcDbEntity
  8
0
  6
CONTINUOUS
 62
               7
100
AcDbLine
 10
-18.700000000000017
 20
-4.6750000000000043
 30
0.0
 11
-19.175000000000011
 21
-4.2000000000000028
 31
0.0
  0
LINE
  5
112
100
AcDbEntity
  8
0
  6
CONTINUOUS
 62
               7
100
AcDbLine
 10
-19.175000000000011
 20
-4.2000000000000028
 30
0.0
 11
-19.700000000000017
 21
-4.2000000000000028
 31
0.0
  0
LINE
  5
113
100
AcDbEntity
  8
0
  6
CONTINUOUS
 62
               7
100
AcDbLine
 10
-19.17500000000004
 20
-1.0
 30
0.0
 11
-19.400000000000006
 21
-1.0
 31
0.0
  0
ARC
  5
114
100
AcDbEntity
  8
0
  6
CONTINUOUS
 62
               7
100
AcDbCircle
 10
-17.075000000000017
 20
-2.6000000000000014
 30
0.0
 40
2.0750000000000028
100
AcDbArc
 50
270.00000000000023
 51
89.999999999999801
  0
LINE
  5
115
100
AcDbEntity
  8
0
  6
CONTINUOUS
 62
               7
100
AcDbLine
 10
-17.075000000000017
 20
-0.5249999999999915
 30
0.0
 11
-18.700000000000017
 21
-0.5249999999999915
 31
0.0
  0
LINE
  5
116
100
AcDbEntity
  8
0
  6
CONTINUOUS
 62
               7
100
AcDbLine
 10
-0.3000000000000114
 20
22.699999999999989
 30
0.0
 11
-0.3000000000000114
 21
15.300000000000011
 31
0.0
  0
LINE
  5
117
100
AcDbEntity
  8
0
  6
CONTINUOUS
 62
               7
100
AcDbLine
 10
0.0
 20
5.0
 30
0.0
 11
-0.3000000000000114
 21
4.6999999999999886
 31
0.0
  0
LINE
  5
118
100
AcDbEntity
  8
0
  6
CONTINUOUS
 62
               7
100
AcDbLine
 10
0.0
 20
15.0
 30
0.0
 11
-0.3000000000000114
 21
15.300000000000011
 31
0.0
  0
LINE
  5
119
100
AcDbEntity
  8
0
  6
CONTINUOUS
 62
               7
100
AcDbLine
 10
-0.3000000000000114
 20
4.6999999999999886
 30
0.0
 11
-0.3000000000000114
 21
-4.6999999999999886
 31
0.0
  0
LINE
  5
11A
100
AcDbEntity
  8
0
  6
CONTINUOUS
 62
               7
100
AcDbLine
 10
0.0
 20
15.0
 30
0.0
 11
0.0
 21
5.0
 31
0.0
  0
LINE
  5
11B
100
AcDbEntity
  8
0
  6
CONTINUOUS
 62
               7
100
AcDbLine
 10
0.0
 20
-15.0
 30
0.0
 11
0.0
 21
-5.0
 31
0.0
  0
LINE
  5
11C
100
AcDbEntity
  8
0
  6
CENTER
 62
               2
100
AcDbLine
 10
-12.0
 20
-11.0
 30
0.0
 11
-4.0
 21
-11.0
 31
0.0
  0
CIRCLE
  5
11D
100
AcDbEntity
  8
0
  6
CONTINUOUS
 62
               2
100
AcDbCircle
 10
-8.0
 20
-11.0
 30
0.0
 40
2.0
  0
CIRCLE
  5
11E
100
AcDbEntity
  8
0
  6
CONTINUOUS
 62
               7
100
AcDbCircle
 10
-8.0
 20
-11.0
 30
0.0
 40
1.6499999999999999
  0
CIRCLE
  5
11F
100
AcDbEntity
  8
0
  6
CONTINUOUS
 62
               2
100
AcDbCircle
 10
-8.0
 20
11.0
 30
0.0
 40
2.0
  0
CIRCLE
  5
120
100
AcDbEntity
  8
0
  6
CONTINUOUS
 62
               7
100
AcDbCircle
 10
-8.0
 20
11.0
 30
0.0
 40
1.6499999999999999
  0
LINE
  5
121
100
AcDbEntity
  8
0
  6
CONTINUOUS
 62
               7
100
AcDbLine
 10
-17.150480933052052
 20
18.645170583938281
 30
0.0
 11
-19.999999999999972
 21
23.580682385028297
 31
0.0
  0
LINE
  5
122
100
AcDbEntity
  8
0
  6
CONTINUOUS
 62
               7
100
AcDbLine
 10
-20.0
 20
26.5
 30
0.0
 11
-19.499999999999972
 21
27.0
 31
0.0
  0
LINE
  5
123
100
AcDbEntity
  8
0
  6
CONTINUOUS
 62
               7
100
AcDbLine
 10
-20.0
 20
23.58068233116785
 30
0.0
 11
-20.0
 21
26.5
 31
0.0
  0
LINE
  5
124
100
AcDbEntity
  8
0
  6
CONTINUOUS
 62
               7
100
AcDbLine
 10
-19.999999940395355
 20
-17.0
 30
0.0
 11
-17.150480933052052
 21
-18.645170583938281
 31
0.0
  0
LINE
  5
125
100
AcDbEntity
  8
0
  6
CONTINUOUS
 62
               7
100
AcDbLine
 10
-17.150480933052052
 20
-18.645170583938281
 30
0.0
 11
-19.999999999999972
 21
-23.580682385028311
 31
0.0
  0
LINE
  5
126
100
AcDbEntity
  8
0
  6
CONTINUOUS
 62
               7
100
AcDbLine
 10
-20.0
 20
-4.5
 30
0.0
 11
-20.0
 21
-17.0
 31
0.0
  0
LINE
  5
127
100
AcDbEntity
  8
0
  6
CONTINUOUS
 62
               7
100
AcDbLine
 10
-20.0
 20
-26.5
 30
0.0
 11
-19.499999999999972
 21
-27.0
 31
0.0
  0
LINE
  5
128
100
AcDbEntity
  8
0
  6
CONTINUOUS
 62
               7
100
AcDbLine
 10
-20.0
 20
-23.58068233116785
 30
0.0
 11
-20.0
 21
-26.5
 31
0.0
  0
LINE
  5
129
100
AcDbEntity
  8
0
  6
CENTER
 62
               2
100
AcDbLine
 10
-12.0
 20
11.0
 30
0.0
 11
-4.0
 21
11.0
 31
0.0
  0
LINE
  5
12A
100
AcDbEntity
  8
0
  6
CONTINUOUS
 62
               7
100
AcDbLine
 10
-19.999999940395355
 20
17.0
 30
0.0
 11
-17.150480933052052
 21
18.645170583938281
 31
0.0
  0
CIRCLE
  5
12B
100
AcDbEntity
  8
0
  6
CONTINUOUS
 62
               7
100
AcDbCircle
 10
-8.0
 20
19.0
 30
0.0
 40
3.6000000000000001
  0
CIRCLE
  5
12C
100
AcDbEntity
  8
0
  6
CONTINUOUS
 62
               7
100
AcDbCircle
 10
-8.0
 20
-19.0
 30
0.0
 40
3.6000000000000001
  0
CIRCLE
  5
12D
100
AcDbEntity
  8
0
  6
CONTINUOUS
 62
               7
100
AcDbCircle
 10
-8.0
 20
19.0
 30
0.0
 40
3.0
  0
CIRCLE
  5
12E
100
AcDbEntity
  8
0
  6
CONTINUOUS
 62
               7
100
AcDbCircle
 10
-8.0
 20
-19.0
 30
0.0
 40
3.0
  0
LINE
  5
12F
100
AcDbEntity
  8
0
  6
CENTER
 62
               2
100
AcDbLine
 10
2.0
 20
0.0
 30
0.0
 11
-22.0
 21
0.0
 31
0.0
  0
LINE
  5
130
100
AcDbEntity
  8
0
  6
CENTER
 62
               2
100
AcDbLine
 10
-8.0
 20
-29.0
 30
0.0
 11
-8.0
 21
29.0
 31
0.0
  0
ENDBLK
  5
131
100
AcDbEntity
  8
0
100
AcDbBlockEnd
  0
BLOCK
  5
132
100
AcDbEntity
  8
0
100
AcDbBlockBegin
  2
SGDA10-5
 70
               0
 10
0.0
 20
0.0
 30
0.0
  3
SGDA10-5
  1

  0
LINE
  5
133
100
AcDbEntity
  8
0
  6
PHANTOM
 62
               3
100
AcDbLine
 10
41.249999999999972
 20
-42.718416339685945
 30
0.0
 11
41.249999999999972
 21
9.3296474218447543
 31
0.0
  0
LINE
  5
134
100
AcDbEntity
  8
0
  6
CENTER
 62
               2
100
AcDbLine
 10
58.0
 20
-8.0000000000000284
 30
0.0
 11
-2.0
 21
-8.0
 31
0.0
  0
LINE
  5
135
100
AcDbEntity
  8
0
  6
CONTINUOUS
 62
               7
100
AcDbLine
 10
0.4999999999999716
 20
-15.0
 30
0.0
 11
7.5
 21
-15.0
 31
0.0
  0
LINE
  5
136
100
AcDbEntity
  8
0
  6
CONTINUOUS
 62
               7
100
AcDbLine
 10
0.5000000000000853
 20
-1.0
 30
0.0
 11
7.5000000000000284
 21
-1.0
 31
0.0
  0
LINE
  5
137
100
AcDbEntity
  8
0
  6
CONTINUOUS
 62
               7
100
AcDbLine
 10
10.0
 20
-20.0
 30
0.0
 11
56.0
 21
-20.000000000000028
 31
0.0
  0
LINE
  5
138
100
AcDbEntity
  8
0
  6
CONTINUOUS
 62
               7
100
AcDbLine
 10
10.0
 20
0.0
 30
0.0
 11
56.0
 21
-0.0000000000000284
 31
0.0
  0
LINE
  5
139
100
AcDbEntity
  8
0
  6
CONTINUOUS
 62
               7
100
AcDbLine
 10
0.0
 20
-14.5
 30
0.0
 11
0.0
 21
-1.5
 31
0.0
  0
LINE
  5
13A
100
AcDbEntity
  8
0
  6
CONTINUOUS
 62
               7
100
AcDbLine
 10
8.0
 20
-14.5
 30
0.0
 11
8.0
 21
-1.5
 31
0.0
  0
LINE
  5
13B
100
AcDbEntity
  8
0
  6
CONTINUOUS
 62
               7
100
AcDbLine
 10
10.0
 20
-20.0
 30
0.0
 11
10.0
 21
0.0
 31
0.0
  0
LINE
  5
13C
100
AcDbEntity
  8
0
  6
CONTINUOUS
 62
               7
100
AcDbLine
 10
56.0
 20
-20.000000000000028
 30
0.0
 11
56.0
 21
-0.0000000000000284
 31
0.0
  0
LINE
  5
13D
100
AcDbEntity
  8
0
  6
CONTINUOUS
 62
               7
100
AcDbLine
 10
8.0
 20
-1.5
 30
0.0
 11
7.5000000000000284
 21
-1.0
 31
0.0
  0
LINE
  5
13E
100
AcDbEntity
  8
0
  6
CONTINUOUS
 62
               7
100
AcDbLine
 10
8.0
 20
-14.5
 30
0.0
 11
7.5
 21
-15.0
 31
0.0
  0
LINE
  5
13F
100
AcDbEntity
  8
0
  6
CONTINUOUS
 62
               7
100
AcDbLine
 10
0.0
 20
-14.5
 30
0.0
 11
0.4999999999999716
 21
-15.0
 31
0.0
  0
LINE
  5
140
100
AcDbEntity
  8
0
  6
CONTINUOUS
 62
               7
100
AcDbLine
 10
0.0
 20
-1.5
 30
0.0
 11
0.5000000000000853
 21
-1.0
 31
0.0
  0
LINE
  5
141
100
AcDbEntity
  8
0
  6
CONTINUOUS
 62
               7
100
AcDbLine
 10
10.0
 20
-19.5
 30
0.0
 11
56.0
 21
-19.5
 31
0.0
  0
LINE
  5
142
100
AcDbEntity
  8
0
  6
CONTINUOUS
 62
               7
100
AcDbLine
 10
10.0
 20
-0.3000000000000114
 30
0.0
 11
56.0
 21
-0.3000000000000398
 31
0.0
  0
LINE
  5
143
100
AcDbEntity
  8
0
  6
CONTINUOUS
 62
               7
100
AcDbLine
 10
10.0
 20
-11.0
 30
0.0
 11
8.0
 21
-11.0
 31
0.0
  0
LINE
  5
144
100
AcDbEntity
  8
0
  6
CONTINUOUS
 62
               7
100
AcDbLine
 10
10.0
 20
-5.0
 30
0.0
 11
8.0
 21
-5.0
 31
0.0
  0
LINE
  5
145
100
AcDbEntity
  8
0
  6
CONTINUOUS
 62
               7
100
AcDbLine
 10
9.5
 20
-11.0
 30
0.0
 11
9.5
 21
-12.5
 31
0.0
  0
LINE
  5
146
100
AcDbEntity
  8
0
  6
CONTINUOUS
 62
               7
100
AcDbLine
 10
9.5
 20
-12.5
 30
0.0
 11
8.0
 21
-12.5
 31
0.0
  0
LINE
  5
147
100
AcDbEntity
  8
0
  6
CONTINUOUS
 62
               7
100
AcDbLine
 10
9.5
 20
-5.0
 30
0.0
 11
9.5
 21
-3.5
 31
0.0
  0
LINE
  5
148
100
AcDbEntity
  8
0
  6
CONTINUOUS
 62
               7
100
AcDbLine
 10
9.5
 20
-3.5
 30
0.0
 11
8.0
 21
-3.5
 31
0.0
  0
LINE
  5
149
100
AcDbEntity
  8
0
  6
CENTER
 62
               2
100
AcDbLine
 10
17.0
 20
-23.740000000000009
 30
0.0
 11
17.0
 21
-18.0
 31
0.0
  0
LINE
  5
14A
100
AcDbEntity
  8
0
  6
CENTER
 62
               2
100
AcDbLine
 10
50.0
 20
-23.740000000000009
 30
0.0
 11
50.0
 21
-18.0
 31
0.0
  0
ENDBLK
  5
14B
100
AcDbEntity
  8
0
100
AcDbBlockEnd
  0
BLOCK
  5
14C
100
AcDbEntity
  8
0
100
AcDbBlockBegin
  2
SGDA10-6
 70
               0
 10
0.0
 20
0.0
 30
0.0
  3
SGDA10-6
  1

  0
LINE
  5
14D
100
AcDbEntity
  8
0
  6
CENTER
 62
               2
100
AcDbLine
 10
58.0
 20
8.0
 30
0.0
 11
-2.0
 21
8.0
 31
0.0
  0
LINE
  5
14E
100
AcDbEntity
  8
0
  6
PHANTOM
 62
               3
100
AcDbLine
 10
41.25
 20
-10.491671506938246
 30
0.0
 11
41.25
 21
38.166970075125448
 31
0.0
  0
LINE
  5
14F
100
AcDbEntity
  8
0
  6
CENTER
 62
               2
100
AcDbLine
 10
50.0
 20
23.739999999999981
 30
0.0
 11
50.0
 21
17.999999999999972
 31
0.0
  0
LINE
  5
150
100
AcDbEntity
  8
0
  6
CENTER
 62
               2
100
AcDbLine
 10
17.0
 20
23.739999999999995
 30
0.0
 11
17.0
 21
17.999999999999986
 31
0.0
  0
LINE
  5
151
100
AcDbEntity
  8
0
  6
CONTINUOUS
 62
               7
100
AcDbLine
 10
9.5
 20
3.5
 30
0.0
 11
8.0
 21
3.5
 31
0.0
  0
LINE
  5
152
100
AcDbEntity
  8
0
  6
CONTINUOUS
 62
               7
100
AcDbLine
 10
9.5
 20
5.0
 30
0.0
 11
9.5
 21
3.5
 31
0.0
  0
LINE
  5
153
100
AcDbEntity
  8
0
  6
CONTINUOUS
 62
               7
100
AcDbLine
 10
9.5
 20
12.5
 30
0.0
 11
8.0
 21
12.5
 31
0.0
  0
LINE
  5
154
100
AcDbEntity
  8
0
  6
CONTINUOUS
 62
               7
100
AcDbLine
 10
9.5
 20
11.0
 30
0.0
 11
9.5
 21
12.5
 31
0.0
  0
LINE
  5
155
100
AcDbEntity
  8
0
  6
CONTINUOUS
 62
               7
100
AcDbLine
 10
10.0
 20
5.0
 30
0.0
 11
8.0
 21
5.0
 31
0.0
  0
LINE
  5
156
100
AcDbEntity
  8
0
  6
CONTINUOUS
 62
               7
100
AcDbLine
 10
10.0
 20
11.0
 30
0.0
 11
8.0
 21
11.0
 31
0.0
  0
LINE
  5
157
100
AcDbEntity
  8
0
  6
CONTINUOUS
 62
               7
100
AcDbLine
 10
10.0
 20
0.3000000000000114
 30
0.0
 11
56.0
 21
0.3000000000000114
 31
0.0
  0
LINE
  5
158
100
AcDbEntity
  8
0
  6
CONTINUOUS
 62
               7
100
AcDbLine
 10
10.0
 20
19.499999999999957
 30
0.0
 11
56.0
 21
19.499999999999957
 31
0.0
  0
LINE
  5
159
100
AcDbEntity
  8
0
  6
CONTINUOUS
 62
               7
100
AcDbLine
 10
0.0
 20
1.5
 30
0.0
 11
0.5000000000000853
 21
1.0
 31
0.0
  0
LINE
  5
15A
100
AcDbEntity
  8
0
  6
CONTINUOUS
 62
               7
100
AcDbLine
 10
0.0
 20
14.5
 30
0.0
 11
0.5
 21
14.999999999999986
 31
0.0
  0
LINE
  5
15B
100
AcDbEntity
  8
0
  6
CONTINUOUS
 62
               7
100
AcDbLine
 10
8.0
 20
14.5
 30
0.0
 11
7.5
 21
14.999999999999986
 31
0.0
  0
LINE
  5
15C
100
AcDbEntity
  8
0
  6
CONTINUOUS
 62
               7
100
AcDbLine
 10
8.0
 20
1.5
 30
0.0
 11
7.5
 21
1.0
 31
0.0
  0
LINE
  5
15D
100
AcDbEntity
  8
0
  6
CONTINUOUS
 62
               7
100
AcDbLine
 10
56.0
 20
19.999999999999986
 30
0.0
 11
56.0
 21
0.0
 31
0.0
  0
LINE
  5
15E
100
AcDbEntity
  8
0
  6
CONTINUOUS
 62
               7
100
AcDbLine
 10
10.0
 20
19.999999999999986
 30
0.0
 11
10.0
 21
0.0
 31
0.0
  0
LINE
  5
15F
100
AcDbEntity
  8
0
  6
CONTINUOUS
 62
               7
100
AcDbLine
 10
8.0
 20
14.5
 30
0.0
 11
8.0
 21
1.5
 31
0.0
  0
LINE
  5
160
100
AcDbEntity
  8
0
  6
CONTINUOUS
 62
               7
100
AcDbLine
 10
0.0
 20
14.5
 30
0.0
 11
0.0
 21
1.5
 31
0.0
  0
LINE
  5
161
100
AcDbEntity
  8
0
  6
CONTINUOUS
 62
               7
100
AcDbLine
 10
10.0
 20
0.0
 30
0.0
 11
56.0
 21
0.0
 31
0.0
  0
LINE
  5
162
100
AcDbEntity
  8
0
  6
CONTINUOUS
 62
               7
100
AcDbLine
 10
10.0
 20
19.999999999999986
 30
0.0
 11
56.0
 21
19.999999999999986
 31
0.0
  0
LINE
  5
163
100
AcDbEntity
  8
0
  6
CONTINUOUS
 62
               7
100
AcDbLine
 10
0.5000000000000853
 20
1.0
 30
0.0
 11
7.5
 21
1.0
 31
0.0
  0
LINE
  5
164
100
AcDbEntity
  8
0
  6
CONTINUOUS
 62
               7
100
AcDbLine
 10
0.5
 20
14.999999999999986
 30
0.0
 11
7.5
 21
14.999999999999986
 31
0.0
  0
ENDBLK
  5
165
100
AcDbEntity
  8
0
100
AcDbBlockEnd
  0
BLOCK
  5
166
100
AcDbEntity
  8
0
100
AcDbBlockBegin
  2
SGDA10-7
 70
               0
 10
0.0
 20
0.0
 30
0.0
  3
SGDA10-7
  1

  0
LINE
  5
167
100
AcDbEntity
  8
0
  6
PHANTOM
 62
               3
100
AcDbLine
 10
41.25
 20
67.281583660314055
 30
0.0
 11
41.25
 21
-56.833029924874552
 31
0.0
  0
LINE
  5
168
100
AcDbEntity
  8
0
  6
CONTINUOUS
 62
               7
100
AcDbLine
 10
10.0
 20
-16.0
 30
0.0
 11
8.0
 21
-16.0
 31
0.0
  0
LINE
  5
169
100
AcDbEntity
  8
0
  6
CONTINUOUS
 62
               7
100
AcDbLine
 10
10.0
 20
-22.0
 30
0.0
 11
8.0
 21
-22.0
 31
0.0
  0
LINE
  5
16A
100
AcDbEntity
  8
0
  6
CONTINUOUS
 62
               7
100
AcDbLine
 10
10.0
 20
-26.5
 30
0.0
 11
10.0
 21
26.499999999999986
 31
0.0
  0
LINE
  5
16B
100
AcDbEntity
  8
0
  6
CONTINUOUS
 62
               7
100
AcDbLine
 10
10.0
 20
15.999999999999986
 30
0.0
 11
8.0
 21
15.999999999999986
 31
0.0
  0
LINE
  5
16C
100
AcDbEntity
  8
0
  6
CONTINUOUS
 62
               7
100
AcDbLine
 10
10.0
 20
21.999999999999986
 30
0.0
 11
8.0
 21
21.999999999999986
 31
0.0
  0
LINE
  5
16D
100
AcDbEntity
  8
0
  6
CONTINUOUS
 62
               7
100
AcDbLine
 10
8.0
 20
25.499999999999986
 30
0.0
 11
8.0
 21
-25.5
 31
0.0
  0
LINE
  5
16E
100
AcDbEntity
  8
0
  6
CONTINUOUS
 62
               7
100
AcDbLine
 10
0.0
 20
-25.5
 30
0.0
 11
0.0
 21
25.499999999999986
 31
0.0
  0
LINE
  5
16F
100
AcDbEntity
  8
0
  6
CONTINUOUS
 62
               7
100
AcDbLine
 10
0.5
 20
25.999999999999986
 30
0.0
 11
0.0
 21
25.499999999999986
 31
0.0
  0
LINE
  5
170
100
AcDbEntity
  8
0
  6
CONTINUOUS
 62
               7
100
AcDbLine
 10
7.5
 20
-26.0
 30
0.0
 11
8.0
 21
-25.5
 31
0.0
  0
LINE
  5
171
100
AcDbEntity
  8
0
  6
CONTINUOUS
 62
               7
100
AcDbLine
 10
7.5
 20
-26.0
 30
0.0
 11
0.5
 21
-26.0
 31
0.0
  0
LINE
  5
172
100
AcDbEntity
  8
0
  6
CONTINUOUS
 62
               7
100
AcDbLine
 10
0.0
 20
-25.5
 30
0.0
 11
0.5
 21
-26.0
 31
0.0
  0
LINE
  5
173
100
AcDbEntity
  8
0
  6
CONTINUOUS
 62
               7
100
AcDbLine
 10
7.5
 20
25.999999999999986
 30
0.0
 11
0.5
 21
25.999999999999986
 31
0.0
  0
LINE
  5
174
100
AcDbEntity
  8
0
  6
CONTINUOUS
 62
               7
100
AcDbLine
 10
8.0
 20
25.499999999999986
 30
0.0
 11
7.5
 21
25.999999999999986
 31
0.0
  0
LINE
  5
175
100
AcDbEntity
  8
0
  6
CONTINUOUS
 62
               7
100
AcDbLine
 10
9.5
 20
-4.5
 30
0.0
 11
10.0
 21
-4.5
 31
0.0
  0
LINE
  5
176
100
AcDbEntity
  8
0
  6
CONTINUOUS
 62
               7
100
AcDbLine
 10
8.0
 20
-5.0
 30
0.0
 11
9.5
 21
-5.0
 31
0.0
  0
LINE
  5
177
100
AcDbEntity
  8
0
  6
CONTINUOUS
 62
               7
100
AcDbLine
 10
8.0
 20
5.0
 30
0.0
 11
9.5
 21
5.0
 31
0.0
  0
LINE
  5
178
100
AcDbEntity
  8
0
  6
CONTINUOUS
 62
               7
100
AcDbLine
 10
9.5
 20
-5.0
 30
0.0
 11
9.5
 21
5.0
 31
0.0
  0
LINE
  5
179
100
AcDbEntity
  8
0
  6
CONTINUOUS
 62
               7
100
AcDbLine
 10
9.5
 20
4.5
 30
0.0
 11
10.0
 21
4.5
 31
0.0
  0
LINE
  5
17A
100
AcDbEntity
  8
0
  6
CENTER
 62
               2
100
AcDbLine
 10
32.0
 20
10.0
 30
0.0
 11
20.0
 21
10.0
 31
0.0
  0
CIRCLE
  5
17B
100
AcDbEntity
  8
0
  6
CONTINUOUS
 62
               2
100
AcDbCircle
 10
26.0
 20
-10.0
 30
0.0
 40
2.5
  0
CIRCLE
  5
17C
100
AcDbEntity
  8
0
  6
CONTINUOUS
 62
               2
100
AcDbCircle
 10
26.0
 20
10.0
 30
0.0
 40
2.5
  0
CIRCLE
  5
17D
100
AcDbEntity
  8
0
  6
CONTINUOUS
 62
               7
100
AcDbCircle
 10
26.0
 20
-10.0
 30
0.0
 40
4.0
  0
CIRCLE
  5
17E
100
AcDbEntity
  8
0
  6
CONTINUOUS
 62
               7
100
AcDbCircle
 10
26.0
 20
-10.0
 30
0.0
 40
2.0999999999999996
  0
LINE
  5
17F
100
AcDbEntity
  8
0
  6
CENTER
 62
               2
100
AcDbLine
 10
26.0
 20
-4.0
 30
0.0
 11
26.0
 21
-16.0
 31
0.0
  0
CIRCLE
  5
180
100
AcDbEntity
  8
0
  6
CONTINUOUS
 62
               7
100
AcDbCircle
 10
26.0
 20
10.0
 30
0.0
 40
4.0
  0
CIRCLE
  5
181
100
AcDbEntity
  8
0
  6
CONTINUOUS
 62
               7
100
AcDbCircle
 10
26.0
 20
10.0
 30
0.0
 40
2.0999999999999996
  0
LINE
  5
182
100
AcDbEntity
  8
0
  6
CENTER
 62
               2
100
AcDbLine
 10
26.0
 20
4.0
 30
0.0
 11
26.0
 21
15.999999999999986
 31
0.0
  0
LINE
  5
183
100
AcDbEntity
  8
0
  6
CONTINUOUS
 62
               7
100
AcDbLine
 10
56.0
 20
-26.5
 30
0.0
 11
55.499999999999943
 21
-27.0
 31
0.0
  0
LINE
  5
184
100
AcDbEntity
  8
0
  6
CONTINUOUS
 62
               7
100
AcDbLine
 10
10.0
 20
-26.5
 30
0.0
 11
10.5
 21
-27.0
 31
0.0
  0
LINE
  5
185
100
AcDbEntity
  8
0
  6
CONTINUOUS
 62
               7
100
AcDbLine
 10
10.0
 20
26.499999999999986
 30
0.0
 11
10.5
 21
26.999999999999986
 31
0.0
  0
LINE
  5
186
100
AcDbEntity
  8
0
  6
CONTINUOUS
 62
               7
100
AcDbLine
 10
56.0
 20
26.499999999999986
 30
0.0
 11
55.499999999999943
 21
26.999999999999986
 31
0.0
  0
LINE
  5
187
100
AcDbEntity
  8
0
  6
CONTINUOUS
 62
               7
100
AcDbLine
 10
55.499999999999943
 20
-27.0
 30
0.0
 11
10.5
 21
-27.0
 31
0.0
  0
LINE
  5
188
100
AcDbEntity
  8
0
  6
CONTINUOUS
 62
               7
100
AcDbLine
 10
56.0
 20
-26.5
 30
0.0
 11
56.0
 21
26.499999999999986
 31
0.0
  0
LINE
  5
189
100
AcDbEntity
  8
0
  6
CENTER
 62
               2
100
AcDbLine
 10
54.0
 20
16.09999999999998
 30
0.0
 11
54.0
 21
21.899999999999991
 31
0.0
  0
CIRCLE
  5
18A
100
AcDbEntity
  8
0
  6
CONTINUOUS
 62
               7
100
AcDbCircle
 10
54.0
 20
18.999999999999986
 30
0.0
 40
0.9
  0
LINE
  5
18B
100
AcDbEntity
  8
0
  6
CENTER
 62
               2
100
AcDbLine
 10
54.0
 20
-16.100000000000023
 30
0.0
 11
54.0
 21
-21.900000000000034
 31
0.0
  0
CIRCLE
  5
18C
100
AcDbEntity
  8
0
  6
CONTINUOUS
 62
               7
100
AcDbCircle
 10
54.0
 20
-19.0
 30
0.0
 40
0.9
  0
LINE
  5
18D
100
AcDbEntity
  8
0
  6
CENTER
 62
               2
100
AcDbLine
 10
58.0
 20
-19.0
 30
0.0
 11
-2.0
 21
-19.0
 31
0.0
  0
LINE
  5
18E
100
AcDbEntity
  8
0
  6
CENTER
 62
               2
100
AcDbLine
 10
58.0
 20
18.999999999999986
 30
0.0
 11
-2.0
 21
18.999999999999986
 31
0.0
  0
LINE
  5
18F
100
AcDbEntity
  8
0
  6
CENTER
 62
               2
100
AcDbLine
 10
58.0
 20
0.0
 30
0.0
 11
-2.0
 21
0.0
 31
0.0
  0
LINE
  5
190
100
AcDbEntity
  8
0
  6
CONTINUOUS
 62
               7
100
AcDbLine
 10
55.499999999999943
 20
26.999999999999986
 30
0.0
 11
10.5
 21
26.999999999999986
 31
0.0
  0
LINE
  5
191
100
AcDbEntity
  8
0
  6
CONTINUOUS
 62
               7
100
AcDbLine
 10
8.0
 20
2.1794494717703401
 30
0.0
 11
9.5
 21
2.1794494717703401
 31
0.0
  0
LINE
  5
192
100
AcDbEntity
  8
0
  6
CONTINUOUS
 62
               7
100
AcDbLine
 10
8.0
 20
-2.1794494717703401
 30
0.0
 11
9.5
 21
-2.1794494717703401
 31
0.0
  0
LINE
  5
193
100
AcDbEntity
  8
0
  6
CONTINUOUS
 62
               2
100
AcDbLine
 10
8.0
 20
2.1794494717703401
 30
0.0
 11
9.5
 21
-2.1794494717703401
 31
0.0
  0
LINE
  5
194
100
AcDbEntity
  8
0
  6
CONTINUOUS
 62
               2
100
AcDbLine
 10
8.0
 20
-2.1794494717703401
 30
0.0
 11
9.5
 21
2.1794494717703401
 31
0.0
  0
LINE
  5
195
100
AcDbEntity
  8
0
  6
CONTINUOUS
 62
               7
100
AcDbLine
 10
10.0
 20
23.580682331167836
 30
0.0
 11
56.0
 21
23.580682331167836
 31
0.0
  0
LINE
  5
196
100
AcDbEntity
  8
0
  6
CONTINUOUS
 62
               7
100
AcDbLine
 10
10.0
 20
18.645170583938281
 30
0.0
 11
53.172898987125905
 21
18.645170583938281
 31
0.0
  0
LINE
  5
197
100
AcDbEntity
  8
0
  6
CONTINUOUS
 62
               7
100
AcDbLine
 10
10.0
 20
16.999999965587236
 30
0.0
 11
56.0
 21
16.999999965587236
 31
0.0
  0
LINE
  5
198
100
AcDbEntity
  8
0
  6
CONTINUOUS
 62
               7
100
AcDbLine
 10
10.0
 20
4.1999999999999886
 30
0.0
 11
56.0
 21
4.1999999999999886
 31
0.0
  0
LINE
  5
199
100
AcDbEntity
  8
0
  6
CONTINUOUS
 62
               7
100
AcDbLine
 10
10.0
 20
1.0
 30
0.0
 11
56.0
 21
1.0
 31
0.0
  0
LINE
  5
19A
100
AcDbEntity
  8
0
  6
CONTINUOUS
 62
               7
100
AcDbLine
 10
54.827101012874095
 20
18.645170583938281
 30
0.0
 11
56.0
 21
18.645170583938281
 31
0.0
  0
LINE
  5
19B
100
AcDbEntity
  8
0
  6
CONTINUOUS
 62
               7
100
AcDbLine
 10
10.0
 20
-23.58068233116785
 30
0.0
 11
56.0
 21
-23.58068233116785
 31
0.0
  0
LINE
  5
19C
100
AcDbEntity
  8
0
  6
CONTINUOUS
 62
               7
100
AcDbLine
 10
10.0
 20
-18.645170583938295
 30
0.0
 11
53.172898987125905
 21
-18.645170583938295
 31
0.0
  0
LINE
  5
19D
100
AcDbEntity
  8
0
  6
CONTINUOUS
 62
               7
100
AcDbLine
 10
10.0
 20
-16.999999965587278
 30
0.0
 11
56.0
 21
-16.999999965587278
 31
0.0
  0
LINE
  5
19E
100
AcDbEntity
  8
0
  6
CONTINUOUS
 62
               7
100
AcDbLine
 10
10.0
 20
-4.1999999999999886
 30
0.0
 11
56.0
 21
-4.1999999999999886
 31
0.0
  0
LINE
  5
19F
100
AcDbEntity
  8
0
  6
CONTINUOUS
 62
               7
100
AcDbLine
 10
10.0
 20
-1.0
 30
0.0
 11
56.0
 21
-1.0000000000000568
 31
0.0
  0
LINE
  5
1A0
100
AcDbEntity
  8
0
  6
CONTINUOUS
 62
               7
100
AcDbLine
 10
54.827101012874095
 20
-18.645170583938295
 30
0.0
 11
56.0
 21
-18.645170583938295
 31
0.0
  0
CIRCLE
  5
1A1
100
AcDbEntity
  8
0
  6
CONTINUOUS
 62
               4
100
AcDbCircle
 10
17.0
 20
-10.0
 30
0.0
 40
2.5
  0
LINE
  5
1A2
100
AcDbEntity
  8
0
  6
CONTINUOUS
 62
               4
100
AcDbLine
 10
14.550510227680206
 20
-9.5
 30
0.0
 11
19.449489742783186
 21
-9.5
 31
0.0
  0
ARC
  5
1A3
100
AcDbEntity
  8
0
  6
CONTINUOUS
 62
               4
100
AcDbCircle
 10
17.0
 20
-10.0
 30
0.0
 40
2.2999999999999998
100
AcDbArc
 50
12.555857798585919
 51
167.44414220141365
  0
LINE
  5
1A4
100
AcDbEntity
  8
0
  6
CONTINUOUS
 62
               4
100
AcDbLine
 10
14.550510227680206
 20
-10.5
 30
0.0
 11
19.449489742783186
 21
-10.5
 31
0.0
  0
LINE
  5
1A5
100
AcDbEntity
  8
0
  6
CENTER
 62
               2
100
AcDbLine
 10
17.0
 20
-5.5
 30
0.0
 11
17.0
 21
-14.5
 31
0.0
  0
ARC
  5
1A6
100
AcDbEntity
  8
0
  6
CONTINUOUS
 62
               4
100
AcDbCircle
 10
17.0
 20
-10.0
 30
0.0
 40
2.2999999999999998
100
AcDbArc
 50
192.55585779858558
 51
347.44414220141329
  0
CIRCLE
  5
1A7
100
AcDbEntity
  8
0
  6
CONTINUOUS
 62
               4
100
AcDbCircle
 10
50.0
 20
-10.0
 30
0.0
 40
2.5
  0
LINE
  5
1A8
100
AcDbEntity
  8
0
  6
CONTINUOUS
 62
               4
100
AcDbLine
 10
47.550510227680206
 20
-9.5
 30
0.0
 11
52.449489742783157
 21
-9.5
 31
0.0
  0
ARC
  5
1A9
100
AcDbEntity
  8
0
  6
CONTINUOUS
 62
               4
100
AcDbCircle
 10
50.0
 20
-10.0
 30
0.0
 40
2.2999999999999998
100
AcDbArc
 50
12.555857798585919
 51
167.44414220141365
  0
LINE
  5
1AA
100
AcDbEntity
  8
0
  6
CONTINUOUS
 62
               4
100
AcDbLine
 10
47.550510227680206
 20
-10.5
 30
0.0
 11
52.449489742783157
 21
-10.5
 31
0.0
  0
LINE
  5
1AB
100
AcDbEntity
  8
0
  6
CENTER
 62
               2
100
AcDbLine
 10
54.5
 20
-10.0
 30
0.0
 11
30.5
 21
-10.0
 31
0.0
  0
LINE
  5
1AC
100
AcDbEntity
  8
0
  6
CENTER
 62
               2
100
AcDbLine
 10
50.0
 20
-5.5
 30
0.0
 11
50.0
 21
-14.5
 31
0.0
  0
ARC
  5
1AD
100
AcDbEntity
  8
0
  6
CONTINUOUS
 62
               4
100
AcDbCircle
 10
50.0
 20
-10.0
 30
0.0
 40
2.2999999999999998
100
AcDbArc
 50
192.55585779858558
 51
347.44414220141329
  0
LINE
  5
1AE
100
AcDbEntity
  8
0
  6
CONTINUOUS
 62
               2
100
AcDbLine
 10
47.0
 20
-10.0
 30
0.0
 11
12.5
 21
-10.0
 31
0.0
  0
ENDBLK
  5
1AF
100
AcDbEntity
  8
0
100
AcDbBlockEnd
  0
BLOCK
  5
1B0
100
AcDbEntity
  8
0
100
AcDbBlockBegin
  2
SGDA10-8
 70
               0
 10
0.0
 20
0.0
 30
0.0
  3
SGDA10-8
  1

  0
LINE
  5
1B1
100
AcDbEntity
  8
0
  6
CENTER
 62
               2
100
AcDbLine
 10
8.0
 20
-29.0
 30
0.0
 11
8.0
 21
28.999999999999986
 31
0.0
  0
ARC
  5
1B2
100
AcDbEntity
  8
0
  6
CONTINUOUS
 62
               7
100
AcDbCircle
 10
8.0
 20
0.0
 30
0.0
 40
8.5
100
AcDbArc
 50
27.840078621301593
 51
34.560321779997786
  0
ARC
  5
1B3
100
AcDbEntity
  8
0
  6
CONTINUOUS
 62
               7
100
AcDbCircle
 10
8.0
 20
0.0
 30
0.0
 40
8.5
100
AcDbArc
 50
355.86591720227949
 51
4.1340827977197092
  0
ARC
  5
1B4
100
AcDbEntity
  8
0
  6
CONTINUOUS
 62
               7
100
AcDbCircle
 10
8.0
 20
0.0
 30
0.0
 40
8.5
100
AcDbArc
 50
325.4396782200015
 51
332.15992137869756
  0
ARC
  5
1B5
100
AcDbEntity
  8
0
  6
CONTINUOUS
 62
               7
100
AcDbCircle
 10
8.0
 20
0.0
 30
0.0
 40
8.5
100
AcDbArc
 50
205.05761541830276
 51
214.56032177999734
  0
ARC
  5
1B6
100
AcDbEntity
  8
0
  6
CONTINUOUS
 62
               7
100
AcDbCircle
 10
8.0
 20
0.0
 30
0.0
 40
8.5
100
AcDbArc
 50
145.43967822000181
 51
154.94238458169644
  0
LINE
  5
1B7
100
AcDbEntity
  8
0
  6
CENTER
 62
               2
100
AcDbLine
 10
3.0
 20
18.999999999999986
 30
0.0
 11
13.0
 21
18.999999999999986
 31
0.0
  0
CIRCLE
  5
1B8
100
AcDbEntity
  8
0
  6
CONTINUOUS
 62
               7
100
AcDbCircle
 10
8.0
 20
0.0
 30
0.0
 40
2.0
  0
CIRCLE
  5
1B9
100
AcDbEntity
  8
0
  6
CONTINUOUS
 62
               2
100
AcDbCircle
 10
8.0
 20
0.0
 30
0.0
 40
1.75
  0
CIRCLE
  5
1BA
100
AcDbEntity
  8
0
  6
CONTINUOUS
 62
               7
100
AcDbCircle
 10
8.0
 20
0.0
 30
0.0
 40
4.7000000000000002
  0
LINE
  5
1BB
100
AcDbEntity
  8
0
  6
CONTINUOUS
 62
               7
100
AcDbLine
 10
15.0
 20
25.499999999999986
 30
0.0
 11
15.0
 21
-25.5
 31
0.0
  0
LINE
  5
1BC
100
AcDbEntity
  8
0
  6
CONTINUOUS
 62
               7
100
AcDbLine
 10
14.500000000000057
 20
-26.0
 30
0.0
 11
1.5
 21
-26.0
 31
0.0
  0
LINE
  5
1BD
100
AcDbEntity
  8
0
  6
CONTINUOUS
 62
               7
100
AcDbLine
 10
15.0
 20
-25.5
 30
0.0
 11
14.500000000000057
 21
-26.0
 31
0.0
  0
LINE
  5
1BE
100
AcDbEntity
  8
0
  6
CONTINUOUS
 62
               7
100
AcDbLine
 10
1.5
 20
-26.0
 30
0.0
 11
1.0
 21
-25.5
 31
0.0
  0
LINE
  5
1BF
100
AcDbEntity
  8
0
  6
CONTINUOUS
 62
               7
100
AcDbLine
 10
1.0
 20
25.499999999999986
 30
0.0
 11
1.0
 21
-25.5
 31
0.0
  0
CIRCLE
  5
1C0
100
AcDbEntity
  8
0
  6
CONTINUOUS
 62
               2
100
AcDbCircle
 10
8.0
 20
-10.0
 30
0.0
 40
2.0
  0
CIRCLE
  5
1C1
100
AcDbEntity
  8
0
  6
CONTINUOUS
 62
               7
100
AcDbCircle
 10
8.0
 20
-10.0
 30
0.0
 40
1.6499999999999999
  0
LINE
  5
1C2
100
AcDbEntity
  8
0
  6
CENTER
 62
               2
100
AcDbLine
 10
12.0
 20
-10.0
 30
0.0
 11
4.0
 21
-10.0
 31
0.0
  0
CIRCLE
  5
1C3
100
AcDbEntity
  8
0
  6
CONTINUOUS
 62
               7
100
AcDbCircle
 10
8.0
 20
0.0
 30
0.0
 40
5.0
  0
CIRCLE
  5
1C4
100
AcDbEntity
  8
0
  6
CONTINUOUS
 62
               2
100
AcDbCircle
 10
8.0
 20
10.0
 30
0.0
 40
2.0
  0
CIRCLE
  5
1C5
100
AcDbEntity
  8
0
  6
CONTINUOUS
 62
               7
100
AcDbCircle
 10
8.0
 20
10.0
 30
0.0
 40
1.6499999999999999
  0
LINE
  5
1C6
100
AcDbEntity
  8
0
  6
CENTER
 62
               2
100
AcDbLine
 10
12.0
 20
10.0
 30
0.0
 11
4.0
 21
10.0
 31
0.0
  0
LINE
  5
1C7
100
AcDbEntity
  8
0
  6
CONTINUOUS
 62
               7
100
AcDbLine
 10
15.0
 20
25.499999999999986
 30
0.0
 11
14.500000000000057
 21
25.999999999999986
 31
0.0
  0
LINE
  5
1C8
100
AcDbEntity
  8
0
  6
CONTINUOUS
 62
               7
100
AcDbLine
 10
14.500000000000057
 20
25.999999999999986
 30
0.0
 11
1.5
 21
25.999999999999986
 31
0.0
  0
LINE
  5
1C9
100
AcDbEntity
  8
0
  6
CONTINUOUS
 62
               7
100
AcDbLine
 10
1.5
 20
25.999999999999986
 30
0.0
 11
1.0
 21
25.499999999999986
 31
0.0
  0
CIRCLE
  5
1CA
100
AcDbEntity
  8
0
  6
CONTINUOUS
 62
               7
100
AcDbCircle
 10
8.0
 20
18.999999999999986
 30
0.0
 40
3.0
  0
LINE
  5
1CB
100
AcDbEntity
  8
0
  6
CENTER
 62
               2
100
AcDbLine
 10
13.0
 20
-11.25
 30
0.0
 11
17.400000000000006
 21
-11.25
 31
0.0
  0
ARC
  5
1CC
100
AcDbEntity
  8
0
  6
CONTINUOUS
 62
               7
100
AcDbCircle
 10
14.5
 20
-11.25
 30
0.0
 40
0.9
100
AcDbArc
 50
303.74898859588791
 51
56.251011404111317
  0
LINE
  5
1CD
100
AcDbEntity
  8
0
  6
CONTINUOUS
 62
               7
100
AcDbLine
 10
0.0
 20
-23.0
 30
0.0
 11
0.0
 21
-26.699999999999989
 31
0.0
  0
LINE
  5
1CE
100
AcDbEntity
  8
0
  6
CONTINUOUS
 62
               7
100
AcDbLine
 10
0.0
 20
-23.0
 30
0.0
 11
0.3000000000000114
 21
-22.699999999999989
 31
0.0
  0
LINE
  5
1CF
100
AcDbEntity
  8
0
  6
CONTINUOUS
 62
               7
100
AcDbLine
 10
0.3000000000000114
 20
-27.0
 30
0.0
 11
0.0
 21
-26.699999999999989
 31
0.0
  0
LINE
  5
1D0
100
AcDbEntity
  8
0
  6
CONTINUOUS
 62
               7
100
AcDbLine
 10
0.3000000000000114
 20
-27.0
 30
0.0
 11
19.499999999999972
 21
-27.0
 31
0.0
  0
LINE
  5
1D1
100
AcDbEntity
  8
0
  6
CONTINUOUS
 62
               7
100
AcDbLine
 10
0.3000000000000114
 20
-22.699999999999989
 30
0.0
 11
0.3000000000000114
 21
-15.300000000000011
 31
0.0
  0
LINE
  5
1D2
100
AcDbEntity
  8
0
  6
CONTINUOUS
 62
               7
100
AcDbLine
 10
0.3000000000000114
 20
26.999999999999986
 30
0.0
 11
0.0
 21
26.699999999999946
 31
0.0
  0
LINE
  5
1D3
100
AcDbEntity
  8
0
  6
CONTINUOUS
 62
               7
100
AcDbLine
 10
0.0
 20
22.999999999999986
 30
0.0
 11
0.3000000000000114
 21
22.699999999999974
 31
0.0
  0
LINE
  5
1D4
100
AcDbEntity
  8
0
  6
CONTINUOUS
 62
               7
100
AcDbLine
 10
0.0
 20
22.999999999999986
 30
0.0
 11
0.0
 21
26.699999999999946
 31
0.0
  0
LINE
  5
1D5
100
AcDbEntity
  8
0
  6
CONTINUOUS
 62
               7
100
AcDbLine
 10
0.0
 20
-5.0
 30
0.0
 11
0.3000000000000114
 21
-4.6999999999999886
 31
0.0
  0
LINE
  5
1D6
100
AcDbEntity
  8
0
  6
CONTINUOUS
 62
               7
100
AcDbLine
 10
0.0
 20
-15.0
 30
0.0
 11
0.3000000000000114
 21
-15.300000000000011
 31
0.0
  0
ARC
  5
1D7
100
AcDbEntity
  8
0
  6
CONTINUOUS
 62
               7
100
AcDbCircle
 10
17.075000000000017
 20
2.5999999999999659
 30
0.0
 40
2.0750000000000028
100
AcDbArc
 50
89.999999999999815
 51
269.99999999999937
  0
LINE
  5
1D8
100
AcDbEntity
  8
0
  6
CONTINUOUS
 62
               7
100
AcDbLine
 10
17.075000000000017
 20
4.6750000000000114
 30
0.0
 11
18.700000000000017
 21
4.6750000000000114
 31
0.0
  0
LINE
  5
1D9
100
AcDbEntity
  8
0
  6
CONTINUOUS
 62
               7
100
AcDbLine
 10
17.075000000000017
 20
0.5249999999999773
 30
0.0
 11
18.700000000000017
 21
0.5249999999999773
 31
0.0
  0
LINE
  5
1DA
100
AcDbEntity
  8
0
  6
CONTINUOUS
 62
               7
100
AcDbLine
 10
19.17500000000004
 20
1.0
 30
0.0
 11
19.400000000000006
 21
1.0
 31
0.0
  0
LINE
  5
1DB
100
AcDbEntity
  8
0
  6
CONTINUOUS
 62
               7
100
AcDbLine
 10
19.175000000000011
 20
4.1999999999999886
 30
0.0
 11
19.700000000000017
 21
4.1999999999999886
 31
0.0
  0
LINE
  5
1DC
100
AcDbEntity
  8
0
  6
CONTINUOUS
 62
               7
100
AcDbLine
 10
18.700000000000017
 20
4.6750000000000114
 30
0.0
 11
19.175000000000011
 21
4.1999999999999886
 31
0.0
  0
LINE
  5
1DD
100
AcDbEntity
  8
0
  6
CONTINUOUS
 62
               7
100
AcDbLine
 10
18.700000000000017
 20
0.5249999999999773
 30
0.0
 11
19.175000000000011
 21
1.0
 31
0.0
  0
ARC
  5
1DE
100
AcDbEntity
  8
0
  6
CONTINUOUS
 62
               7
100
AcDbCircle
 10
19.400000000000006
 20
0.6999999999999886
 30
0.0
 40
0.3
100
AcDbArc
 50
0.0
 51
89.999999999999815
  0
LINE
  5
1DF
100
AcDbEntity
  8
0
  6
CONTINUOUS
 62
               7
100
AcDbLine
 10
20.0
 20
4.5
 30
0.0
 11
20.0
 21
16.999999965587236
 31
0.0
  0
LINE
  5
1E0
100
AcDbEntity
  8
0
  6
CONTINUOUS
 62
               7
100
AcDbLine
 10
0.3000000000000114
 20
26.999999999999986
 30
0.0
 11
19.499999999999972
 21
26.999999999999986
 31
0.0
  0
LINE
  5
1E1
100
AcDbEntity
  8
0
  6
CONTINUOUS
 62
               7
100
AcDbLine
 10
20.0
 20
4.5
 30
0.0
 11
19.69999999999996
 21
4.1999999999999886
 31
0.0
  0
LINE
  5
1E2
100
AcDbEntity
  8
0
  6
CONTINUOUS
 62
               7
100
AcDbLine
 10
19.700000000000017
 20
0.6999999999999886
 30
0.0
 11
19.700000000000017
 21
-0.6999999999999886
 31
0.0
  0
LINE
  5
1E3
100
AcDbEntity
  8
0
  6
CONTINUOUS
 62
               7
100
AcDbLine
 10
17.075000000000017
 20
-4.6750000000000114
 30
0.0
 11
18.700000000000017
 21
-4.6750000000000114
 31
0.0
  0
LINE
  5
1E4
100
AcDbEntity
  8
0
  6
CONTINUOUS
 62
               7
100
AcDbLine
 10
18.700000000000017
 20
-0.5250000000000341
 30
0.0
 11
19.175000000000011
 21
-1.0
 31
0.0
  0
ARC
  5
1E5
100
AcDbEntity
  8
0
  6
CONTINUOUS
 62
               7
100
AcDbCircle
 10
19.400000000000006
 20
-0.6999999999999886
 30
0.0
 40
0.3
100
AcDbArc
 50
270.00000000000023
 51
0.0
  0
LINE
  5
1E6
100
AcDbEntity
  8
0
  6
CONTINUOUS
 62
               7
100
AcDbLine
 10
20.0
 20
-4.5
 30
0.0
 11
19.69999999999996
 21
-4.1999999999999886
 31
0.0
  0
LINE
  5
1E7
100
AcDbEntity
  8
0
  6
CONTINUOUS
 62
               7
100
AcDbLine
 10
18.700000000000017
 20
-4.6750000000000114
 30
0.0
 11
19.175000000000011
 21
-4.1999999999999886
 31
0.0
  0
LINE
  5
1E8
100
AcDbEntity
  8
0
  6
CONTINUOUS
 62
               7
100
AcDbLine
 10
19.175000000000011
 20
-4.1999999999999886
 30
0.0
 11
19.700000000000017
 21
-4.1999999999999886
 31
0.0
  0
LINE
  5
1E9
100
AcDbEntity
  8
0
  6
CONTINUOUS
 62
               7
100
AcDbLine
 10
19.17500000000004
 20
-1.0
 30
0.0
 11
19.400000000000006
 21
-1.0
 31
0.0
  0
ARC
  5
1EA
100
AcDbEntity
  8
0
  6
CONTINUOUS
 62
               7
100
AcDbCircle
 10
17.075000000000017
 20
-2.6000000000000227
 30
0.0
 40
2.0750000000000028
100
AcDbArc
 50
89.999999999999815
 51
269.99999999999937
  0
LINE
  5
1EB
100
AcDbEntity
  8
0
  6
CONTINUOUS
 62
               7
100
AcDbLine
 10
17.075000000000017
 20
-0.5250000000000341
 30
0.0
 11
18.700000000000017
 21
-0.5250000000000341
 31
0.0
  0
LINE
  5
1EC
100
AcDbEntity
  8
0
  6
CONTINUOUS
 62
               7
100
AcDbLine
 10
0.3000000000000114
 20
22.699999999999974
 30
0.0
 11
0.3000000000000114
 21
15.299999999999997
 31
0.0
  0
LINE
  5
1ED
100
AcDbEntity
  8
0
  6
CONTINUOUS
 62
               7
100
AcDbLine
 10
0.0
 20
5.0
 30
0.0
 11
0.3000000000000114
 21
4.6999999999999886
 31
0.0
  0
LINE
  5
1EE
100
AcDbEntity
  8
0
  6
CONTINUOUS
 62
               7
100
AcDbLine
 10
0.0
 20
14.999999999999986
 30
0.0
 11
0.3000000000000114
 21
15.299999999999997
 31
0.0
  0
LINE
  5
1EF
100
AcDbEntity
  8
0
  6
CONTINUOUS
 62
               7
100
AcDbLine
 10
0.3000000000000114
 20
4.6999999999999886
 30
0.0
 11
0.3000000000000114
 21
-4.6999999999999886
 31
0.0
  0
LINE
  5
1F0
100
AcDbEntity
  8
0
  6
CONTINUOUS
 62
               7
100
AcDbLine
 10
0.0
 20
14.999999999999986
 30
0.0
 11
0.0
 21
5.0
 31
0.0
  0
LINE
  5
1F1
100
AcDbEntity
  8
0
  6
CONTINUOUS
 62
               7
100
AcDbLine
 10
0.0
 20
-15.0
 30
0.0
 11
0.0
 21
-5.0
 31
0.0
  0
LINE
  5
1F2
100
AcDbEntity
  8
0
  6
CONTINUOUS
 62
               7
100
AcDbLine
 10
17.150480933052052
 20
18.645170583938281
 30
0.0
 11
19.999999999999972
 21
23.580682385028283
 31
0.0
  0
LINE
  5
1F3
100
AcDbEntity
  8
0
  6
CONTINUOUS
 62
               7
100
AcDbLine
 10
20.0
 20
26.499999999999986
 30
0.0
 11
19.499999999999972
 21
26.999999999999986
 31
0.0
  0
LINE
  5
1F4
100
AcDbEntity
  8
0
  6
CONTINUOUS
 62
               7
100
AcDbLine
 10
20.0
 20
23.580682331167836
 30
0.0
 11
20.0
 21
26.499999999999986
 31
0.0
  0
LINE
  5
1F5
100
AcDbEntity
  8
0
  6
CONTINUOUS
 62
               7
100
AcDbLine
 10
19.999999940395355
 20
-17.0
 30
0.0
 11
17.150480933052052
 21
-18.645170583938295
 31
0.0
  0
LINE
  5
1F6
100
AcDbEntity
  8
0
  6
CONTINUOUS
 62
               7
100
AcDbLine
 10
17.150480933052052
 20
-18.645170583938295
 30
0.0
 11
19.999999999999972
 21
-23.580682385028297
 31
0.0
  0
LINE
  5
1F7
100
AcDbEntity
  8
0
  6
CONTINUOUS
 62
               7
100
AcDbLine
 10
20.0
 20
-4.5
 30
0.0
 11
20.0
 21
-17.0
 31
0.0
  0
LINE
  5
1F8
100
AcDbEntity
  8
0
  6
CONTINUOUS
 62
               7
100
AcDbLine
 10
20.0
 20
-26.5
 30
0.0
 11
19.499999999999972
 21
-27.0
 31
0.0
  0
LINE
  5
1F9
100
AcDbEntity
  8
0
  6
CONTINUOUS
 62
               7
100
AcDbLine
 10
20.0
 20
-23.58068233116785
 30
0.0
 11
20.0
 21
-26.5
 31
0.0
  0
LINE
  5
1FA
100
AcDbEntity
  8
0
  6
CONTINUOUS
 62
               7
100
AcDbLine
 10
19.999999940395355
 20
16.999999999999986
 30
0.0
 11
17.150480933052052
 21
18.645170583938281
 31
0.0
  0
LINE
  5
1FB
100
AcDbEntity
  8
0
  6
CENTER
 62
               2
100
AcDbLine
 10
-2.0
 20
0.0
 30
0.0
 11
22.0
 21
0.0
 31
0.0
  0
LINE
  5
1FC
100
AcDbEntity
  8
0
  6
CENTER
 62
               2
100
AcDbLine
 10
3.0
 20
-19.0
 30
0.0
 11
13.0
 21
-19.0
 31
0.0
  0
CIRCLE
  5
1FD
100
AcDbEntity
  8
0
  6
CONTINUOUS
 62
               7
100
AcDbCircle
 10
8.0
 20
-19.0
 30
0.0
 40
3.0
  0
LINE
  5
1FE
100
AcDbEntity
  8
0
  6
CENTER
 62
               2
100
AcDbLine
 10
23.740000000000009
 20
-10.0
 30
0.0
 11
18.0
 21
-10.0
 31
0.0
  0
LINE
  5
1FF
100
AcDbEntity
  8
0
  6
CONTINUOUS
 62
               4
100
AcDbLine
 10
21.54000000000002
 20
-12.5
 30
0.0
 11
20.0
 21
-12.5
 31
0.0
  0
LINE
  5
200
100
AcDbEntity
  8
0
  6
CONTINUOUS
 62
               4
100
AcDbLine
 10
21.54000000000002
 20
-7.5
 30
0.0
 11
20.0
 21
-7.5
 31
0.0
  0
LINE
  5
201
100
AcDbEntity
  8
0
  6
CONTINUOUS
 62
               4
100
AcDbLine
 10
20.939999999999998
 20
-10.5
 30
0.0
 11
20.939999999999998
 21
-9.5
 31
0.0
  0
LINE
  5
202
100
AcDbEntity
  8
0
  6
CONTINUOUS
 62
               4
100
AcDbLine
 10
21.54000000000002
 20
-7.5
 30
0.0
 11
21.54000000000002
 21
-9.5
 31
0.0
  0
LINE
  5
203
100
AcDbEntity
  8
0
  6
CONTINUOUS
 62
               4
100
AcDbLine
 10
21.740000000000009
 20
-9.5
 30
0.0
 11
21.740000000000009
 21
-7.6999999999999886
 31
0.0
  0
LINE
  5
204
100
AcDbEntity
  8
0
  6
CONTINUOUS
 62
               4
100
AcDbLine
 10
20.939999999999998
 20
-9.5
 30
0.0
 11
21.740000000000009
 21
-9.5
 31
0.0
  0
LINE
  5
205
100
AcDbEntity
  8
0
  6
CONTINUOUS
 62
               4
100
AcDbLine
 10
21.740000000000009
 20
-7.6999999999999886
 30
0.0
 11
21.54000000000002
 21
-7.5
 31
0.0
  0
LINE
  5
206
100
AcDbEntity
  8
0
  6
CONTINUOUS
 62
               4
100
AcDbLine
 10
20.939999999999998
 20
-10.5
 30
0.0
 11
21.740000000000009
 21
-10.5
 31
0.0
  0
LINE
  5
207
100
AcDbEntity
  8
0
  6
CONTINUOUS
 62
               4
100
AcDbLine
 10
21.740000000000009
 20
-12.300000000000011
 30
0.0
 11
21.740000000000009
 21
-10.5
 31
0.0
  0
LINE
  5
208
100
AcDbEntity
  8
0
  6
CONTINUOUS
 62
               4
100
AcDbLine
 10
21.54000000000002
 20
-10.5
 30
0.0
 11
21.54000000000002
 21
-12.5
 31
0.0
  0
LINE
  5
209
100
AcDbEntity
  8
0
  6
CONTINUOUS
 62
               4
100
AcDbLine
 10
21.54000000000002
 20
-12.5
 30
0.0
 11
21.740000000000009
 21
-12.300000000000011
 31
0.0
  0
LINE
  5
20A
100
AcDbEntity
  8
0
  6
CONTINUOUS
 62
               4
100
AcDbLine
 10
20.639999999999986
 20
-12.5
 30
0.0
 11
20.639999999999986
 21
-7.5
 31
0.0
  0
LINE
  5
20B
100
AcDbEntity
  8
0
  6
CENTER
 62
               2
100
AcDbLine
 10
-2.1999999999999886
 20
10.0
 30
0.0
 11
2.8000000000000114
 21
10.0
 31
0.0
  0
LINE
  5
20C
100
AcDbEntity
  8
0
  6
CENTER
 62
               2
100
AcDbLine
 10
-2.1999999999999886
 20
-10.0
 30
0.0
 11
2.8000000000000114
 21
-10.0
 31
0.0
  0
ENDBLK
  5
20D
100
AcDbEntity
  8
0
100
AcDbBlockEnd
  0
BLOCK
  5
20E
100
AcDbEntity
  8
0
100
AcDbBlockBegin
  2
SGDA10-9
 70
               0
 10
0.0
 20
0.0
 30
0.0
  3
SGDA10-9
  1

  0
LINE
  5
20F
100
AcDbEntity
  8
0
  6
CENTER
 62
               2
100
AcDbLine
 10
-8.0
 20
-29.0
 30
0.0
 11
-8.0
 21
28.999999999999986
 31
0.0
  0
LINE
  5
210
100
AcDbEntity
  8
0
  6
CENTER
 62
               2
100
AcDbLine
 10
2.0
 20
0.0
 30
0.0
 11
-22.0
 21
0.0
 31
0.0
  0
CIRCLE
  5
211
100
AcDbEntity
  8
0
  6
CONTINUOUS
 62
               7
100
AcDbCircle
 10
-8.0
 20
-19.0
 30
0.0
 40
3.0
  0
CIRCLE
  5
212
100
AcDbEntity
  8
0
  6
CONTINUOUS
 62
               7
100
AcDbCircle
 10
-8.0
 20
18.999999999999986
 30
0.0
 40
3.0
  0
CIRCLE
  5
213
100
AcDbEntity
  8
0
  6
CONTINUOUS
 62
               7
100
AcDbCircle
 10
-8.0
 20
-19.0
 30
0.0
 40
3.6000000000000001
  0
CIRCLE
  5
214
100
AcDbEntity
  8
0
  6
CONTINUOUS
 62
               7
100
AcDbCircle
 10
-8.0
 20
18.999999999999986
 30
0.0
 40
3.6000000000000001
  0
LINE
  5
215
100
AcDbEntity
  8
0
  6
CONTINUOUS
 62
               7
100
AcDbLine
 10
-19.999999940395355
 20
16.999999999999986
 30
0.0
 11
-17.150480933052052
 21
18.645170583938281
 31
0.0
  0
LINE
  5
216
100
AcDbEntity
  8
0
  6
CENTER
 62
               2
100
AcDbLine
 10
-12.0
 20
11.0
 30
0.0
 11
-4.0
 21
11.0
 31
0.0
  0
LINE
  5
217
100
AcDbEntity
  8
0
  6
CONTINUOUS
 62
               7
100
AcDbLine
 10
-20.0
 20
-23.58068233116785
 30
0.0
 11
-20.0
 21
-26.5
 31
0.0
  0
LINE
  5
218
100
AcDbEntity
  8
0
  6
CONTINUOUS
 62
               7
100
AcDbLine
 10
-20.0
 20
-26.5
 30
0.0
 11
-19.5
 21
-27.0
 31
0.0
  0
LINE
  5
219
100
AcDbEntity
  8
0
  6
CONTINUOUS
 62
               7
100
AcDbLine
 10
-20.0
 20
-4.5
 30
0.0
 11
-20.0
 21
-17.0
 31
0.0
  0
LINE
  5
21A
100
AcDbEntity
  8
0
  6
CONTINUOUS
 62
               7
100
AcDbLine
 10
-17.150480933052052
 20
-18.645170583938295
 30
0.0
 11
-20.0
 21
-23.580682385028297
 31
0.0
  0
LINE
  5
21B
100
AcDbEntity
  8
0
  6
CONTINUOUS
 62
               7
100
AcDbLine
 10
-19.999999940395355
 20
-17.0
 30
0.0
 11
-17.150480933052052
 21
-18.645170583938295
 31
0.0
  0
LINE
  5
21C
100
AcDbEntity
  8
0
  6
CONTINUOUS
 62
               7
100
AcDbLine
 10
-20.0
 20
23.580682331167836
 30
0.0
 11
-20.0
 21
26.499999999999986
 31
0.0
  0
LINE
  5
21D
100
AcDbEntity
  8
0
  6
CONTINUOUS
 62
               7
100
AcDbLine
 10
-20.0
 20
26.499999999999986
 30
0.0
 11
-19.5
 21
26.999999999999986
 31
0.0
  0
LINE
  5
21E
100
AcDbEntity
  8
0
  6
CONTINUOUS
 62
               7
100
AcDbLine
 10
-17.150480933052052
 20
18.645170583938281
 30
0.0
 11
-20.0
 21
23.580682385028283
 31
0.0
  0
CIRCLE
  5
21F
100
AcDbEntity
  8
0
  6
CONTINUOUS
 62
               7
100
AcDbCircle
 10
-8.0
 20
11.0
 30
0.0
 40
1.6499999999999999
  0
CIRCLE
  5
220
100
AcDbEntity
  8
0
  6
CONTINUOUS
 62
               2
100
AcDbCircle
 10
-8.0
 20
11.0
 30
0.0
 40
2.0
  0
CIRCLE
  5
221
100
AcDbEntity
  8
0
  6
CONTINUOUS
 62
               7
100
AcDbCircle
 10
-8.0
 20
-11.0
 30
0.0
 40
1.6499999999999999
  0
CIRCLE
  5
222
100
AcDbEntity
  8
0
  6
CONTINUOUS
 62
               2
100
AcDbCircle
 10
-8.0
 20
-11.0
 30
0.0
 40
2.0
  0
LINE
  5
223
100
AcDbEntity
  8
0
  6
CENTER
 62
               2
100
AcDbLine
 10
-12.0
 20
-11.0
 30
0.0
 11
-4.0
 21
-11.0
 31
0.0
  0
LINE
  5
224
100
AcDbEntity
  8
0
  6
CONTINUOUS
 62
               7
100
AcDbLine
 10
0.0
 20
-15.0
 30
0.0
 11
0.0
 21
-5.0
 31
0.0
  0
LINE
  5
225
100
AcDbEntity
  8
0
  6
CONTINUOUS
 62
               7
100
AcDbLine
 10
0.0
 20
14.999999999999986
 30
0.0
 11
0.0
 21
5.0
 31
0.0
  0
LINE
  5
226
100
AcDbEntity
  8
0
  6
CONTINUOUS
 62
               7
100
AcDbLine
 10
-0.3000000000000114
 20
4.6999999999999886
 30
0.0
 11
-0.3000000000000114
 21
-4.6999999999999886
 31
0.0
  0
LINE
  5
227
100
AcDbEntity
  8
0
  6
CONTINUOUS
 62
               7
100
AcDbLine
 10
0.0
 20
14.999999999999986
 30
0.0
 11
-0.3000000000000114
 21
15.299999999999997
 31
0.0
  0
LINE
  5
228
100
AcDbEntity
  8
0
  6
CONTINUOUS
 62
               7
100
AcDbLine
 10
0.0
 20
5.0
 30
0.0
 11
-0.3000000000000114
 21
4.6999999999999886
 31
0.0
  0
LINE
  5
229
100
AcDbEntity
  8
0
  6
CONTINUOUS
 62
               7
100
AcDbLine
 10
-0.3000000000000114
 20
22.699999999999974
 30
0.0
 11
-0.3000000000000114
 21
15.299999999999997
 31
0.0
  0
LINE
  5
22A
100
AcDbEntity
  8
0
  6
CONTINUOUS
 62
               7
100
AcDbLine
 10
-17.075000000000045
 20
-0.5250000000000341
 30
0.0
 11
-18.700000000000045
 21
-0.5250000000000341
 31
0.0
  0
ARC
  5
22B
100
AcDbEntity
  8
0
  6
CONTINUOUS
 62
               7
100
AcDbCircle
 10
-17.075000000000045
 20
-2.6000000000000227
 30
0.0
 40
2.0750000000000028
100
AcDbArc
 50
270.00000000000023
 51
89.999999999999801
  0
LINE
  5
22C
100
AcDbEntity
  8
0
  6
CONTINUOUS
 62
               7
100
AcDbLine
 10
-19.175000000000068
 20
-1.0
 30
0.0
 11
-19.399999999999977
 21
-1.0
 31
0.0
  0
LINE
  5
22D
100
AcDbEntity
  8
0
  6
CONTINUOUS
 62
               7
100
AcDbLine
 10
-19.175000000000011
 20
-4.1999999999999886
 30
0.0
 11
-19.700000000000045
 21
-4.1999999999999886
 31
0.0
  0
LINE
  5
22E
100
AcDbEntity
  8
0
  6
CONTINUOUS
 62
               7
100
AcDbLine
 10
-18.700000000000045
 20
-4.6750000000000114
 30
0.0
 11
-19.175000000000011
 21
-4.1999999999999886
 31
0.0
  0
LINE
  5
22F
100
AcDbEntity
  8
0
  6
CONTINUOUS
 62
               7
100
AcDbLine
 10
-20.0
 20
-4.5
 30
0.0
 11
-19.699999999999932
 21
-4.1999999999999886
 31
0.0
  0
ARC
  5
230
100
AcDbEntity
  8
0
  6
CONTINUOUS
 62
               7
100
AcDbCircle
 10
-19.399999999999977
 20
-0.6999999999999886
 30
0.0
 40
0.3
100
AcDbArc
 50
179.99999999999963
 51
269.99999999999937
  0
LINE
  5
231
100
AcDbEntity
  8
0
  6
CONTINUOUS
 62
               7
100
AcDbLine
 10
-18.700000000000045
 20
-0.5250000000000341
 30
0.0
 11
-19.175000000000011
 21
-1.0
 31
0.0
  0
LINE
  5
232
100
AcDbEntity
  8
0
  6
CONTINUOUS
 62
               7
100
AcDbLine
 10
-17.075000000000045
 20
-4.6750000000000114
 30
0.0
 11
-18.700000000000045
 21
-4.6750000000000114
 31
0.0
  0
LINE
  5
233
100
AcDbEntity
  8
0
  6
CONTINUOUS
 62
               7
100
AcDbLine
 10
-19.700000000000045
 20
0.6999999999999886
 30
0.0
 11
-19.700000000000045
 21
-0.6999999999999886
 31
0.0
  0
LINE
  5
234
100
AcDbEntity
  8
0
  6
CONTINUOUS
 62
               7
100
AcDbLine
 10
-20.0
 20
4.5
 30
0.0
 11
-19.699999999999932
 21
4.1999999999999886
 31
0.0
  0
LINE
  5
235
100
AcDbEntity
  8
0
  6
CONTINUOUS
 62
               7
100
AcDbLine
 10
-0.3000000000000114
 20
26.999999999999986
 30
0.0
 11
-19.5
 21
26.999999999999986
 31
0.0
  0
LINE
  5
236
100
AcDbEntity
  8
0
  6
CENTER
 62
               2
100
AcDbLine
 10
-2.3999999999999773
 20
18.999999999999986
 30
0.0
 11
-13.600000000000023
 21
18.999999999999986
 31
0.0
  0
LINE
  5
237
100
AcDbEntity
  8
0
  6
CONTINUOUS
 62
               7
100
AcDbLine
 10
-20.0
 20
4.5
 30
0.0
 11
-20.0
 21
16.999999965587236
 31
0.0
  0
ARC
  5
238
100
AcDbEntity
  8
0
  6
CONTINUOUS
 62
               7
100
AcDbCircle
 10
-19.399999999999977
 20
0.6999999999999886
 30
0.0
 40
0.3
100
AcDbArc
 50
89.999999999999815
 51
179.99999999999963
  0
LINE
  5
239
100
AcDbEntity
  8
0
  6
CONTINUOUS
 62
               7
100
AcDbLine
 10
-18.700000000000045
 20
0.5249999999999773
 30
0.0
 11
-19.175000000000011
 21
1.0
 31
0.0
  0
LINE
  5
23A
100
AcDbEntity
  8
0
  6
CONTINUOUS
 62
               7
100
AcDbLine
 10
-18.700000000000045
 20
4.6750000000000114
 30
0.0
 11
-19.175000000000011
 21
4.1999999999999886
 31
0.0
  0
LINE
  5
23B
100
AcDbEntity
  8
0
  6
CONTINUOUS
 62
               7
100
AcDbLine
 10
-19.175000000000011
 20
4.1999999999999886
 30
0.0
 11
-19.700000000000045
 21
4.1999999999999886
 31
0.0
  0
LINE
  5
23C
100
AcDbEntity
  8
0
  6
CONTINUOUS
 62
               7
100
AcDbLine
 10
-19.175000000000068
 20
1.0
 30
0.0
 11
-19.399999999999977
 21
1.0
 31
0.0
  0
LINE
  5
23D
100
AcDbEntity
  8
0
  6
CONTINUOUS
 62
               7
100
AcDbLine
 10
-17.075000000000045
 20
0.5249999999999773
 30
0.0
 11
-18.700000000000045
 21
0.5249999999999773
 31
0.0
  0
LINE
  5
23E
100
AcDbEntity
  8
0
  6
CONTINUOUS
 62
               7
100
AcDbLine
 10
-17.075000000000045
 20
4.6750000000000114
 30
0.0
 11
-18.700000000000045
 21
4.6750000000000114
 31
0.0
  0
ARC
  5
23F
100
AcDbEntity
  8
0
  6
CONTINUOUS
 62
               7
100
AcDbCircle
 10
-17.075000000000045
 20
2.5999999999999659
 30
0.0
 40
2.0750000000000028
100
AcDbArc
 50
269.99999999999937
 51
89.999999999999801
  0
LINE
  5
240
100
AcDbEntity
  8
0
  6
CENTER
 62
               2
100
AcDbLine
 10
-2.3999999999999773
 20
-19.0
 30
0.0
 11
-13.600000000000023
 21
-19.0
 31
0.0
  0
LINE
  5
241
100
AcDbEntity
  8
0
  6
CONTINUOUS
 62
               7
100
AcDbLine
 10
0.0
 20
-15.0
 30
0.0
 11
-0.3000000000000114
 21
-15.300000000000011
 31
0.0
  0
LINE
  5
242
100
AcDbEntity
  8
0
  6
CONTINUOUS
 62
               7
100
AcDbLine
 10
0.0
 20
-5.0
 30
0.0
 11
-0.3000000000000114
 21
-4.6999999999999886
 31
0.0
  0
LINE
  5
243
100
AcDbEntity
  8
0
  6
CONTINUOUS
 62
               7
100
AcDbLine
 10
0.0
 20
22.999999999999986
 30
0.0
 11
0.0
 21
26.699999999999946
 31
0.0
  0
LINE
  5
244
100
AcDbEntity
  8
0
  6
CONTINUOUS
 62
               7
100
AcDbLine
 10
0.0
 20
22.999999999999986
 30
0.0
 11
-0.3000000000000114
 21
22.699999999999974
 31
0.0
  0
LINE
  5
245
100
AcDbEntity
  8
0
  6
CONTINUOUS
 62
               7
100
AcDbLine
 10
-0.3000000000000114
 20
26.999999999999986
 30
0.0
 11
0.0
 21
26.699999999999946
 31
0.0
  0
LINE
  5
246
100
AcDbEntity
  8
0
  6
CONTINUOUS
 62
               7
100
AcDbLine
 10
-0.3000000000000114
 20
-22.699999999999989
 30
0.0
 11
-0.3000000000000114
 21
-15.300000000000011
 31
0.0
  0
LINE
  5
247
100
AcDbEntity
  8
0
  6
CONTINUOUS
 62
               7
100
AcDbLine
 10
-0.3000000000000114
 20
-27.0
 30
0.0
 11
-19.5
 21
-27.0
 31
0.0
  0
LINE
  5
248
100
AcDbEntity
  8
0
  6
CONTINUOUS
 62
               7
100
AcDbLine
 10
-0.3000000000000114
 20
-27.0
 30
0.0
 11
0.0
 21
-26.699999999999989
 31
0.0
  0
LINE
  5
249
100
AcDbEntity
  8
0
  6
CONTINUOUS
 62
               7
100
AcDbLine
 10
0.0
 20
-23.0
 30
0.0
 11
-0.3000000000000114
 21
-22.699999999999989
 31
0.0
  0
LINE
  5
24A
100
AcDbEntity
  8
0
  6
CONTINUOUS
 62
               7
100
AcDbLine
 10
0.0
 20
-23.0
 30
0.0
 11
0.0
 21
-26.699999999999989
 31
0.0
  0
LINE
  5
24B
100
AcDbEntity
  8
0
  6
CENTER
 62
               2
100
AcDbLine
 10
-23.740000000000009
 20
-10.0
 30
0.0
 11
-18.0
 21
-10.0
 31
0.0
  0
LINE
  5
24C
100
AcDbEntity
  8
0
  6
CONTINUOUS
 62
               4
100
AcDbLine
 10
-21.54000000000002
 20
-12.5
 30
0.0
 11
-20.0
 21
-12.5
 31
0.0
  0
LINE
  5
24D
100
AcDbEntity
  8
0
  6
CONTINUOUS
 62
               4
100
AcDbLine
 10
-21.54000000000002
 20
-7.5
 30
0.0
 11
-20.0
 21
-7.5
 31
0.0
  0
LINE
  5
24E
100
AcDbEntity
  8
0
  6
CONTINUOUS
 62
               4
100
AcDbLine
 10
-20.639999999999986
 20
-12.5
 30
0.0
 11
-20.639999999999986
 21
-7.5
 31
0.0
  0
LINE
  5
24F
100
AcDbEntity
  8
0
  6
CONTINUOUS
 62
               4
100
AcDbLine
 10
-21.54000000000002
 20
-12.5
 30
0.0
 11
-21.740000000000009
 21
-12.300000000000011
 31
0.0
  0
LINE
  5
250
100
AcDbEntity
  8
0
  6
CONTINUOUS
 62
               4
100
AcDbLine
 10
-21.54000000000002
 20
-10.5
 30
0.0
 11
-21.54000000000002
 21
-12.5
 31
0.0
  0
LINE
  5
251
100
AcDbEntity
  8
0
  6
CONTINUOUS
 62
               4
100
AcDbLine
 10
-21.740000000000009
 20
-12.300000000000011
 30
0.0
 11
-21.740000000000009
 21
-10.5
 31
0.0
  0
LINE
  5
252
100
AcDbEntity
  8
0
  6
CONTINUOUS
 62
               4
100
AcDbLine
 10
-20.939999999999998
 20
-10.5
 30
0.0
 11
-21.740000000000009
 21
-10.5
 31
0.0
  0
LINE
  5
253
100
AcDbEntity
  8
0
  6
CONTINUOUS
 62
               4
100
AcDbLine
 10
-21.740000000000009
 20
-7.6999999999999886
 30
0.0
 11
-21.54000000000002
 21
-7.5
 31
0.0
  0
LINE
  5
254
100
AcDbEntity
  8
0
  6
CONTINUOUS
 62
               4
100
AcDbLine
 10
-20.939999999999998
 20
-9.5
 30
0.0
 11
-21.740000000000009
 21
-9.5
 31
0.0
  0
LINE
  5
255
100
AcDbEntity
  8
0
  6
CONTINUOUS
 62
               4
100
AcDbLine
 10
-21.740000000000009
 20
-9.5
 30
0.0
 11
-21.740000000000009
 21
-7.6999999999999886
 31
0.0
  0
LINE
  5
256
100
AcDbEntity
  8
0
  6
CONTINUOUS
 62
               4
100
AcDbLine
 10
-21.54000000000002
 20
-7.5
 30
0.0
 11
-21.54000000000002
 21
-9.5
 31
0.0
  0
LINE
  5
257
100
AcDbEntity
  8
0
  6
CONTINUOUS
 62
               4
100
AcDbLine
 10
-20.939999999999998
 20
-10.5
 30
0.0
 11
-20.939999999999998
 21
-9.5
 31
0.0
  0
LINE
  5
258
100
AcDbEntity
  8
0
  6
CENTER
 62
               2
100
AcDbLine
 10
-2.5
 20
-10.0
 30
0.0
 11
2.5
 21
-10.0
 31
0.0
  0
LINE
  5
259
100
AcDbEntity
  8
0
  6
CENTER
 62
               2
100
AcDbLine
 10
-2.5
 20
10.0
 30
0.0
 11
2.5
 21
10.0
 31
0.0
  0
ENDBLK
  5
25A
100
AcDbEntity
  8
0
100
AcDbBlockEnd
  0
BLOCK
  5
25B
100
AcDbEntity
  8
0
100
AcDbBlockBegin
  2
SGDA10-10
 70
               0
 10
0.0
 20
0.0
 30
0.0
  3
SGDA10-10
  1

  0
LINE
  5
25C
100
AcDbEntity
  8
0
  6
PHANTOM
 62
               3
100
AcDbLine
 10
41.249999999999972
 20
9.3296474218447543
 30
0.0
 11
41.249999999999972
 21
-42.718416339685945
 31
0.0
  0
LINE
  5
25D
100
AcDbEntity
  8
0
  6
CONTINUOUS
 62
               4
100
AcDbLine
 10
52.499999999999972
 20
-21.540000000000049
 30
0.0
 11
47.5
 21
-21.540000000000049
 31
0.0
  0
LINE
  5
25E
100
AcDbEntity
  8
0
  6
CONTINUOUS
 62
               4
100
AcDbLine
 10
47.699999999999989
 20
-21.740000000000038
 30
0.0
 11
52.299999999999983
 21
-21.740000000000038
 31
0.0
  0
LINE
  5
25F
100
AcDbEntity
  8
0
  6
CONTINUOUS
 62
               4
100
AcDbLine
 10
52.299999999999983
 20
-21.740000000000038
 30
0.0
 11
52.499999999999972
 21
-21.540000000000049
 31
0.0
  0
LINE
  5
260
100
AcDbEntity
  8
0
  6
CONTINUOUS
 62
               4
100
AcDbLine
 10
47.5
 20
-21.540000000000049
 30
0.0
 11
47.699999999999989
 21
-21.740000000000038
 31
0.0
  0
LINE
  5
261
100
AcDbEntity
  8
0
  6
CONTINUOUS
 62
               4
100
AcDbLine
 10
47.5
 20
-20.640000000000015
 30
0.0
 11
52.499999999999972
 21
-20.640000000000015
 31
0.0
  0
LINE
  5
262
100
AcDbEntity
  8
0
  6
CONTINUOUS
 62
               4
100
AcDbLine
 10
52.499999999999972
 20
-21.540000000000049
 30
0.0
 11
52.499999999999972
 21
-20.000000000000028
 31
0.0
  0
LINE
  5
263
100
AcDbEntity
  8
0
  6
CONTINUOUS
 62
               4
100
AcDbLine
 10
47.5
 20
-21.540000000000049
 30
0.0
 11
47.5
 21
-20.000000000000028
 31
0.0
  0
LINE
  5
264
100
AcDbEntity
  8
0
  6
CONTINUOUS
 62
               4
100
AcDbLine
 10
19.5
 20
-21.54000000000002
 30
0.0
 11
14.5
 21
-21.54000000000002
 31
0.0
  0
LINE
  5
265
100
AcDbEntity
  8
0
  6
CONTINUOUS
 62
               4
100
AcDbLine
 10
14.699999999999989
 20
-21.740000000000009
 30
0.0
 11
19.300000000000011
 21
-21.740000000000009
 31
0.0
  0
LINE
  5
266
100
AcDbEntity
  8
0
  6
CONTINUOUS
 62
               4
100
AcDbLine
 10
19.300000000000011
 20
-21.740000000000009
 30
0.0
 11
19.5
 21
-21.54000000000002
 31
0.0
  0
LINE
  5
267
100
AcDbEntity
  8
0
  6
CONTINUOUS
 62
               4
100
AcDbLine
 10
14.5
 20
-21.54000000000002
 30
0.0
 11
14.699999999999989
 21
-21.740000000000009
 31
0.0
  0
LINE
  5
268
100
AcDbEntity
  8
0
  6
CONTINUOUS
 62
               4
100
AcDbLine
 10
14.5
 20
-20.639999999999986
 30
0.0
 11
19.5
 21
-20.639999999999986
 31
0.0
  0
LINE
  5
269
100
AcDbEntity
  8
0
  6
CONTINUOUS
 62
               4
100
AcDbLine
 10
19.5
 20
-21.54000000000002
 30
0.0
 11
19.5
 21
-20.0
 31
0.0
  0
LINE
  5
26A
100
AcDbEntity
  8
0
  6
CONTINUOUS
 62
               4
100
AcDbLine
 10
14.5
 20
-21.54000000000002
 30
0.0
 11
14.5
 21
-20.0
 31
0.0
  0
LINE
  5
26B
100
AcDbEntity
  8
0
  6
CENTER
 62
               2
100
AcDbLine
 10
49.999999999999972
 20
-23.740000000000009
 30
0.0
 11
49.999999999999972
 21
-18.0
 31
0.0
  0
LINE
  5
26C
100
AcDbEntity
  8
0
  6
CENTER
 62
               2
100
AcDbLine
 10
17.0
 20
-23.740000000000009
 30
0.0
 11
17.0
 21
-18.0
 31
0.0
  0
CIRCLE
  5
26D
100
AcDbEntity
  8
0
  6
DASHED
 62
               2
100
AcDbCircle
 10
49.0
 20
-16.000000000000028
 30
0.0
 40
1.5
  0
CIRCLE
  5
26E
100
AcDbEntity
  8
0
  6
DASHED
 62
               7
100
AcDbCircle
 10
49.0
 20
-16.000000000000028
 30
0.0
 40
1.2
  0
LINE
  5
26F
100
AcDbEntity
  8
0
  6
CENTER
 62
               2
100
AcDbLine
 10
52.499999999999972
 20
-16.000000000000028
 30
0.0
 11
45.5
 21
-16.0
 31
0.0
  0
LINE
  5
270
100
AcDbEntity
  8
0
  6
CENTER
 62
               2
100
AcDbLine
 10
49.0
 20
-12.500000000000028
 30
0.0
 11
49.0
 21
-19.500000000000028
 31
0.0
  0
LINE
  5
271
100
AcDbEntity
  8
0
  6
CONTINUOUS
 62
               7
100
AcDbLine
 10
9.5
 20
-3.5
 30
0.0
 11
8.0
 21
-3.5
 31
0.0
  0
LINE
  5
272
100
AcDbEntity
  8
0
  6
CONTINUOUS
 62
               7
100
AcDbLine
 10
9.5
 20
-5.0
 30
0.0
 11
9.5
 21
-3.5
 31
0.0
  0
LINE
  5
273
100
AcDbEntity
  8
0
  6
CONTINUOUS
 62
               7
100
AcDbLine
 10
9.5
 20
-12.5
 30
0.0
 11
8.0
 21
-12.5
 31
0.0
  0
LINE
  5
274
100
AcDbEntity
  8
0
  6
CONTINUOUS
 62
               7
100
AcDbLine
 10
9.5
 20
-11.0
 30
0.0
 11
9.5
 21
-12.5
 31
0.0
  0
LINE
  5
275
100
AcDbEntity
  8
0
  6
CONTINUOUS
 62
               7
100
AcDbLine
 10
10.0
 20
-5.0
 30
0.0
 11
8.0
 21
-5.0
 31
0.0
  0
LINE
  5
276
100
AcDbEntity
  8
0
  6
CONTINUOUS
 62
               7
100
AcDbLine
 10
10.0
 20
-11.0
 30
0.0
 11
8.0
 21
-11.0
 31
0.0
  0
LINE
  5
277
100
AcDbEntity
  8
0
  6
CONTINUOUS
 62
               7
100
AcDbLine
 10
10.0
 20
-0.3000000000000114
 30
0.0
 11
55.999999999999972
 21
-0.3000000000000398
 31
0.0
  0
LINE
  5
278
100
AcDbEntity
  8
0
  6
CONTINUOUS
 62
               7
100
AcDbLine
 10
10.0
 20
-19.5
 30
0.0
 11
55.999999999999972
 21
-19.5
 31
0.0
  0
LINE
  5
279
100
AcDbEntity
  8
0
  6
CONTINUOUS
 62
               7
100
AcDbLine
 10
0.0
 20
-1.5
 30
0.0
 11
0.5000000000000853
 21
-1.0
 31
0.0
  0
LINE
  5
27A
100
AcDbEntity
  8
0
  6
CONTINUOUS
 62
               7
100
AcDbLine
 10
0.0
 20
-14.5
 30
0.0
 11
0.4999999999999716
 21
-15.0
 31
0.0
  0
LINE
  5
27B
100
AcDbEntity
  8
0
  6
CONTINUOUS
 62
               7
100
AcDbLine
 10
8.0
 20
-14.5
 30
0.0
 11
7.5
 21
-15.0
 31
0.0
  0
LINE
  5
27C
100
AcDbEntity
  8
0
  6
CONTINUOUS
 62
               7
100
AcDbLine
 10
8.0
 20
-1.5
 30
0.0
 11
7.5000000000000284
 21
-1.0
 31
0.0
  0
LINE
  5
27D
100
AcDbEntity
  8
0
  6
CONTINUOUS
 62
               7
100
AcDbLine
 10
55.999999999999972
 20
-20.000000000000028
 30
0.0
 11
55.999999999999972
 21
-0.0000000000000284
 31
0.0
  0
LINE
  5
27E
100
AcDbEntity
  8
0
  6
CONTINUOUS
 62
               7
100
AcDbLine
 10
10.0
 20
-20.0
 30
0.0
 11
10.0
 21
0.0
 31
0.0
  0
LINE
  5
27F
100
AcDbEntity
  8
0
  6
CONTINUOUS
 62
               7
100
AcDbLine
 10
8.0
 20
-14.5
 30
0.0
 11
8.0
 21
-1.5
 31
0.0
  0
LINE
  5
280
100
AcDbEntity
  8
0
  6
CONTINUOUS
 62
               7
100
AcDbLine
 10
0.0
 20
-14.5
 30
0.0
 11
0.0
 21
-1.5
 31
0.0
  0
LINE
  5
281
100
AcDbEntity
  8
0
  6
CONTINUOUS
 62
               7
100
AcDbLine
 10
10.0
 20
0.0
 30
0.0
 11
55.999999999999972
 21
-0.0000000000000284
 31
0.0
  0
LINE
  5
282
100
AcDbEntity
  8
0
  6
CONTINUOUS
 62
               7
100
AcDbLine
 10
10.0
 20
-20.0
 30
0.0
 11
55.999999999999972
 21
-20.000000000000028
 31
0.0
  0
LINE
  5
283
100
AcDbEntity
  8
0
  6
CONTINUOUS
 62
               7
100
AcDbLine
 10
0.5000000000000853
 20
-1.0
 30
0.0
 11
7.5000000000000284
 21
-1.0
 31
0.0
  0
LINE
  5
284
100
AcDbEntity
  8
0
  6
CONTINUOUS
 62
               7
100
AcDbLine
 10
0.4999999999999716
 20
-15.0
 30
0.0
 11
7.5
 21
-15.0
 31
0.0
  0
LINE
  5
285
100
AcDbEntity
  8
0
  6
CENTER
 62
               2
100
AcDbLine
 10
57.999999999999972
 20
-8.0000000000000284
 30
0.0
 11
-2.0
 21
-8.0
 31
0.0
  0
CIRCLE
  5
286
100
AcDbEntity
  8
0
  6
DASHED
 62
               2
100
AcDbCircle
 10
19.0
 20
-16.0
 30
0.0
 40
1.5
  0
CIRCLE
  5
287
100
AcDbEntity
  8
0
  6
DASHED
 62
               7
100
AcDbCircle
 10
19.0
 20
-16.0
 30
0.0
 40
1.2
  0
LINE
  5
288
100
AcDbEntity
  8
0
  6
CENTER
 62
               2
100
AcDbLine
 10
22.5
 20
-16.0
 30
0.0
 11
15.5
 21
-16.0
 31
0.0
  0
LINE
  5
289
100
AcDbEntity
  8
0
  6
CENTER
 62
               2
100
AcDbLine
 10
19.0
 20
-12.5
 30
0.0
 11
19.0
 21
-19.5
 31
0.0
  0
ENDBLK
  5
28A
100
AcDbEntity
  8
0
100
AcDbBlockEnd
  0
BLOCK
  5
2AA
100
AcDbEntity
  8
0
  6
ByBlock
 62
               0
100
AcDbBlockBegin
  2
_OPEN30
 70
               2
 10
0.0
 20
0.0
 30
0.0
  3
_OPEN30
  1

  0
LINE
  5
2AB
100
AcDbEntity
  8
0
  6
ByBlock
 62
               0
100
AcDbLine
 10
-1.0
 20
0.267949
 30
0.0
 11
0.0
 21
0.0
 31
0.0
  0
LINE
  5
2AC
100
AcDbEntity
  8
0
  6
ByBlock
 62
               0
100
AcDbLine
 10
0.0
 20
0.0
 30
0.0
 11
-1.0
 21
-0.267949
 31
0.0
  0
LINE
  5
2AD
100
AcDbEntity
  8
0
  6
ByBlock
 62
               0
100
AcDbLine
 10
0.0
 20
0.0
 30
0.0
 11
-1.0
 21
0.0
 31
0.0
  0
ENDBLK
  5
2AE
100
AcDbEntity
  8
0
  6
ByBlock
 62
               0
100
AcDbBlockEnd
  0
ENDSEC
  0
SECTION
  2
ENTITIES
  0
INSERT
  5
28B
100
AcDbEntity
  8
0
  6
ByBlock
100
AcDbBlockReference
  2
SGDA10-1
 10
-166.41253662109375
 20
-10.69384431404184
 30
0.0
  0
INSERT
  5
28C
100
AcDbEntity
  8
0
  6
ByBlock
100
AcDbBlockReference
  2
SGDA10-3
 10
-237.41253662109375
 20
-10.69384431404184
 30
0.0
  0
INSERT
  5
28D
100
AcDbEntity
  8
0
  6
ByBlock
100
AcDbBlockReference
  2
SGDA10-4
 10
-53.41253662109375
 20
-10.69384431404184
 30
0.0
  0
INSERT
  5
28E
100
AcDbEntity
  8
0
  6
ByBlock
100
AcDbBlockReference
  2
SGDA10-5
 10
-166.41253662109372
 20
99.306155685958174
 30
0.0
  0
INSERT
  5
28F
100
AcDbEntity
  8
0
  6
ByBlock
100
AcDbBlockReference
  2
SGDA10-6
 10
-166.41253662109375
 20
-105.69384431404183
 30
0.0
  0
INSERT
  5
290
100
AcDbEntity
  8
0
  6
ByBlock
100
AcDbBlockReference
  2
SGDA10-7
 10
115.26239013671875
 20
-10.693844314041826
 30
0.0
  0
INSERT
  5
291
100
AcDbEntity
  8
0
  6
ByBlock
100
AcDbBlockReference
  2
SGDA10-8
 10
44.26239013671875
 20
-10.693844314041826
 30
0.0
  0
INSERT
  5
292
100
AcDbEntity
  8
0
  6
ByBlock
100
AcDbBlockReference
  2
SGDA10-9
 10
228.26239013671875
 20
-10.693844314041826
 30
0.0
  0
INSERT
  5
293
100
AcDbEntity
  8
0
  6
ByBlock
100
AcDbBlockReference
  2
SGDA10-10
 10
115.26239013671878
 20
99.306155685958174
 30
0.0
  0
INSERT
  5
294
100
AcDbEntity
  8
0
  6
ByBlock
100
AcDbBlockReference
  2
SGDA10-2
 10
115.26239013671875
 20
-105.69384431404183
 30
0.0
  0
MTEXT
  5
295
100
AcDbEntity
  8
0
  6
CONTINUOUS
 62
               7
100
AcDbMText
 10
-268.20810818116126
 20
160.5
 30
0.0
 40
6.3000001907348633
 41
0.0
 71
               4
 72
               1
  1
\W1.135;\A1;MODEL:SGDA(Q)10*ST(5)
  0
LINE
  5
296
100
AcDbEntity
  8
0
  6
CONTINUOUS
 62
               7
100
AcDbLine
 10
-281.25
 20
-195.0
 30
0.0
 11
282.099853515625
 21
-195.0
 31
0.0
  0
LINE
  5
297
100
AcDbEntity
  8
0
  6
CONTINUOUS
 62
               7
100
AcDbLine
 10
-281.25
 20
195.5
 30
0.0
 11
-281.25
 21
-195.0
 31
0.0
  0
LINE
  5
298
100
AcDbEntity
  8
0
  6
CONTINUOUS
 62
               7
100
AcDbLine
 10
-281.25
 20
195.5
 30
0.0
 11
282.099853515625
 21
195.5
 31
0.0
  0
LINE
  5
299
100
AcDbEntity
  8
0
  6
CONTINUOUS
 62
               7
100
AcDbLine
 10
282.099853515625
 20
195.5
 30
0.0
 11
282.099853515625
 21
-195.0
 31
0.0
  0
LINE
  5
29A
100
AcDbEntity
  8
0
  6
CONTINUOUS
 62
               7
100
AcDbLine
 10
162.0999755859375
 20
195.5
 30
0.0
 11
162.0999755859375
 21
175.5
 31
0.0
  0
LINE
  5
29B
100
AcDbEntity
  8
0
  6
CONTINUOUS
 62
               7
100
AcDbLine
 10
162.0999755859375
 20
175.5
 30
0.0
 11
282.099853515625
 21
175.5
 31
0.0
  0
MTEXT
  5
29C
100
AcDbEntity
  8
0
  6
CONTINUOUS
 62
               7
100
AcDbMText
 10
198.27702406779611
 20
185.5
 30
0.0
 40
6.3000001907348633
 41
0.0
 71
               4
 72
               1
  1
\W1.311;\A1;Ver. 1.0
  0
MTEXT
  5
29D
100
AcDbEntity
  8
0
  6
CONTINUOUS
 62
               7
100
AcDbMText
 10
170.28099805280428
 20
-185.0
 30
0.0
 40
9.0
 41
0.0
 71
               4
 72
               1
  1
\W1.121;\A1;KOGANEI CORP.
  0
LINE
  5
29E
100
AcDbEntity
  8
0
  6
CONTINUOUS
 62
               7
100
AcDbLine
 10
162.0999755859375
 20
-175.0
 30
0.0
 11
282.099853515625
 21
-175.0
 31
0.0
  0
LINE
  5
29F
100
AcDbEntity
  8
0
  6
CONTINUOUS
 62
               7
100
AcDbLine
 10
162.0999755859375
 20
-175.0
 30
0.0
 11
162.0999755859375
 21
-195.0
 31
0.0
  0
LINE
  5
2A0
100
AcDbEntity
  8
0
  6
CONTINUOUS
 62
               7
100
AcDbLine
 10
-281.25
 20
175.5
 30
0.0
 11
-130.05000000000001
 21
175.5
 31
0.0
  0
MTEXT
  5
2A1
100
AcDbEntity
  8
0
  6
CONTINUOUS
 62
               7
100
AcDbMText
 10
-276.93894444950672
 20
185.5
 30
0.0
 40
6.3000001907348633
 41
0.0
 71
               4
 72
               1
  1
\W1.106;\A1;JIG CYLINDER WITH GUIDE
  0
MTEXT
  5
2A2
100
AcDbEntity
  8
0
  6
CONTINUOUS
 62
               7
100
AcDbMText
 10
51.251850957243228
 20
150.5
 30
0.0
 40
6.3000001907348633
 41
0.0
 71
               4
 72
               1
  1
\W1.121;\A1;SGDA(Q)10*ST(5)-L
  0
LINE
  5
2A3
100
AcDbEntity
  8
0
  6
CONTINUOUS
 62
               7
100
AcDbLine
 10
0.4249267578125
 20
-195.0
 30
0.0
 11
0.4249267578125
 21
195.5
 31
0.0
  0
LINE
  5
2A4
100
AcDbEntity
  8
0
  6
CONTINUOUS
 62
               7
100
AcDbLine
 10
-130.05000000000001
 20
195.5
 30
0.0
 11
-130.05000000000001
 21
175.5
 31
0.0
  0
MTEXT
  5
2A5
100
AcDbEntity
  8
0
  6
CONTINUOUS
 62
               7
100
AcDbMText
 10
13.452975451360613
 20
160.5
 30
0.0
 40
6.3000001907348633
 41
0.0
 71
               4
 72
               1
  1
\W1.122;\A1;MODEL:SGDA(Q)10*ST(5)-R
  0
MTEXT
  5
2A6
100
AcDbEntity
  8
0
  6
CONTINUOUS
 62
               3
100
AcDbMText
 10
130.31120669560045
 20
116.63580310780293
 30
0.0
 40
4.5
 41
0.0
 71
               4
 72
               1
  1
\W1.065;\A1;STRETCH LINE
  0
MTEXT
  5
2A7
100
AcDbEntity
  8
0
  6
CONTINUOUS
 62
               3
100
AcDbMText
 10
-151.36372006221205
 20
116.63580310780293
 30
0.0
 40
4.5
 41
0.0
 71
               4
 72
               1
  1
\W1.065;\A1;STRETCH LINE
  0
MTEXT
  5
2A8
100
AcDbEntity
  8
0
  6
CONTINUOUS
 62
               2
100
AcDbMText
 10
176.26429343223575
 20
70.641897371850803
 30
0.0
 40
4.5
 41
0.0
 71
               4
 72
               1
  1
\A1;-L
  0
LEADER
  5
2AF
100
AcDbEntity
  8
0
  6
CONTINUOUS
 62
               2
100
AcDbLeader
  3
MXDIMSTYLE
 73
               3
 74
               0
 75
               0
 40
0.0
 76
               3
 10
165.07198136712682
 20
81.90390254152922
 30
0.0
 10
174.26239013671878
 20
65.985647610269382
 30
0.0
 10
185.26429343223575
 20
65.985647610269382
 30
0.0
 77
               2
1001
ACAD
1000
DSTYLE
1002
{
1070
               6
1000
_OPEN30
1070
               7
1000
_OPEN30
1070
              41
1040
2.77
1070
             173
1070
               1
1070
             341
1005
2A9
1002
}
  0
MTEXT
  5
2B0
100
AcDbEntity
  8
0
  6
CONTINUOUS
 62
               2
100
AcDbMText
 10
174.68371480703354
 20
-67.717086476771641
 30
0.0
 40
4.5
 41
0.0
 71
               4
 72
               1
  1
\A1;-R
  0
LEADER
  5
2B1
100
AcDbEntity
  8
0
  6
CONTINUOUS
 62
               2
100
AcDbLeader
  3
MXDIMSTYLE
 73
               3
 74
               0
 75
               0
 40
0.0
 76
               3
 10
165.01239013671875
 20
-88.394806208365168
 30
0.0
 10
174.26239013671875
 20
-72.373336238353062
 30
0.0
 10
183.68371480703354
 20
-72.373336238353062
 30
0.0
 77
               2
1001
ACAD
1000
DSTYLE
1002
{
1070
               6
1000
_OPEN30
1070
               7
1000
_OPEN30
1070
              41
1040
2.77
1070
             173
1070
               1
1070
             341
1005
2A9
1002
}
  0
MTEXT
  5
2B2
100
AcDbEntity
  8
0
  6
CONTINUOUS
 62
               7
100
AcDbMText
 10
-230.42307580056928
 20
150.5
 30
0.0
 40
6.3000001907348633
 41
0.0
 71
               4
 72
               1
  1
\W1.121;\A1;T-SGDA(Q)10*ST(5)
  0
MTEXT
  5
2B3
100
AcDbEntity
  8
0
  6
CONTINUOUS
 62
               7
100
AcDbMText
 10
-247.9511834411183
 20
-165.00000002774681
 30
0.0
 40
4.5
 41
0.0
 71
               4
 72
               1
  1
\W1.065;\A1;STRETCH LIST
  0
MTEXT
  5
2B4
100
AcDbEntity
  8
0
  6
CONTINUOUS
 62
               7
100
AcDbMText
 10
-173.59999999284742
 20
-181.00000002774681
 30
0.0
 40
4.5
 41
0.0
 71
               4
 72
               1
  1
\W1.200;\A1;0
  0
MTEXT
  5
2B5
100
AcDbEntity
  8
0
  6
CONTINUOUS
 62
               7
100
AcDbMText
 10
-194.0
 20
-181.00000002774681
 30
0.0
 40
4.5
 41
0.0
 71
               4
 72
               1
  1
\A1;-5
  0
MTEXT
  5
2B6
100
AcDbEntity
  8
0
  6
CONTINUOUS
 62
               7
100
AcDbMText
 10
-214.10000003576278
 20
-181.00000002774681
 30
0.0
 40
4.5
 41
0.0
 71
               4
 72
               1
  1
\W1.200;\A1;-10
  0
MTEXT
  5
2B7
100
AcDbEntity
  8
0
  6
CONTINUOUS
 62
               7
100
AcDbMText
 10
-232.15625001257285
 20
-181.00000002774681
 30
0.0
 40
4.5
 41
0.0
 71
               4
 72
               1
  1
\W1.125;\A1;-15
  0
MTEXT
  5
2B8
100
AcDbEntity
  8
0
  6
CONTINUOUS
 62
               7
100
AcDbMText
 10
-175.93181817221173
 20
-173.00000002774681
 30
0.0
 40
4.5
 41
0.0
 71
               4
 72
               1
  1
\W1.091;\A1;20
  0
MTEXT
  5
2B9
100
AcDbEntity
  8
0
  6
CONTINUOUS
 62
               7
100
AcDbMText
 10
-193.85000005722048
 20
-173.00000002774681
 30
0.0
 40
4.5
 41
0.0
 71
               4
 72
               1
  1
\W1.200;\A1;15
  0
MTEXT
  5
2BA
100
AcDbEntity
  8
0
  6
CONTINUOUS
 62
               7
100
AcDbMText
 10
-211.75000003311368
 20
-173.00000002774681
 30
0.0
 40
4.5
 41
0.0
 71
               4
 72
               1
  1
\W1.333;\A1;10
  0
MTEXT
  5
2BB
100
AcDbEntity
  8
0
  6
CONTINUOUS
 62
               7
100
AcDbMText
 10
-227.75
 20
-173.00000002774681
 30
0.0
 40
4.5
 41
0.0
 71
               4
 72
               1
  1
\A1;5
  0
LINE
  5
2BC
100
AcDbEntity
  8
0
  6
CONTINUOUS
 62
               7
100
AcDbLine
 10
-163.25
 20
-185.0
 30
0.0
 11
-163.25
 21
-169.00000002774681
 31
0.0
  0
LINE
  5
2BD
100
AcDbEntity
  8
0
  6
CONTINUOUS
 62
               7
100
AcDbLine
 10
-181.25
 20
-185.0
 30
0.0
 11
-181.25
 21
-169.00000002774681
 31
0.0
  0
LINE
  5
2BE
100
AcDbEntity
  8
0
  6
CONTINUOUS
 62
               7
100
AcDbLine
 10
-199.25
 20
-185.0
 30
0.0
 11
-199.25
 21
-169.00000002774681
 31
0.0
  0
LINE
  5
2BF
100
AcDbEntity
  8
0
  6
CONTINUOUS
 62
               7
100
AcDbLine
 10
-217.25
 20
-185.0
 30
0.0
 11
-217.25
 21
-169.00000002774681
 31
0.0
  0
LINE
  5
2C0
100
AcDbEntity
  8
0
  6
CONTINUOUS
 62
               7
100
AcDbLine
 10
-235.25
 20
-185.0
 30
0.0
 11
-235.25
 21
-169.00000002774681
 31
0.0
  0
LINE
  5
2C1
100
AcDbEntity
  8
0
  6
CONTINUOUS
 62
               7
100
AcDbLine
 10
-271.25
 20
-185.0
 30
0.0
 11
-271.25
 21
-169.00000002774681
 31
0.0
  0
MTEXT
  5
2C2
100
AcDbEntity
  8
0
  6
CONTINUOUS
 62
               7
100
AcDbMText
 10
-268.25
 20
-181.0000000138734
 30
0.0
 40
4.5
 41
0.0
 71
               4
 72
               1
  1
\A1;STRETCH
  0
MTEXT
  5
2C3
100
AcDbEntity
  8
0
  6
CONTINUOUS
 62
               7
100
AcDbMText
 10
-266.0
 20
-173.00000002774681
 30
0.0
 40
4.5
 41
0.0
 71
               4
 72
               1
  1
\A1;STORKE
  0
LINE
  5
2C4
100
AcDbEntity
  8
0
  6
CONTINUOUS
 62
               7
100
AcDbLine
 10
-271.25
 20
-169.00000002774681
 30
0.0
 11
-163.25
 21
-169.00000002774681
 31
0.0
  0
LINE
  5
2C5
100
AcDbEntity
  8
0
  6
CONTINUOUS
 62
               7
100
AcDbLine
 10
-271.25
 20
-177.00000002774681
 30
0.0
 11
-163.25
 21
-177.00000002774681
 31
0.0
  0
LINE
  5
2C6
100
AcDbEntity
  8
0
  6
CONTINUOUS
 62
               7
100
AcDbLine
 10
-271.25
 20
-185.00000002774681
 30
0.0
 11
-163.25
 21
-185.00000002774681
 31
0.0
  0
ENDSEC
  0
SECTION
  2
OBJECTS
  0
DICTIONARY
  5
19
100
AcDbDictionary
  3
ACAD_GROUP
350
1A
  3
ACAD_MLINESTYLE
350
1B
  0
DICTIONARY
  5
1A
102
{ACAD_REACTORS
330
19
102
}
100
AcDbDictionary
  0
DICTIONARY
  5
1B
102
{ACAD_REACTORS
330
19
102
}
100
AcDbDictionary
  3
STANDARD
350
1C
  0
MLINESTYLE
  5
1C
102
{ACAD_REACTORS
330
1B
102
}
100
AcDbMlineStyle
  2
Standard
 70
               0
  3

 62
               0
 51
90.0
 52
90.0
 71
               2
 49
0.5
 62
             256
  6
ByLayer
 49
-0.5
 62
             256
  6
ByLayer
  0
ENDSEC
  0
EOF
