  0
SECTION
  2
HEADER
  0
ENDSEC
  0
SECTION
  2
TABLES
  0
TABLE
  2
LTYPE
 70
     4
  0
LTYPE
  2
CONTINUOUS
 70
    64
  3
Solid line
 72
    65
 73
     0
 40
0.000000
  0
LTYPE
  2
DASHED
 70
    64
  3
__ __ __ __ __ __ __ __ __ __ __ __ __ __ __
 72
    65
 73
     2
 40
3.500000
 49
2.000000
 49
-1.500000
  0
LTYPE
  2
CENTER
 70
    64
  3
____ _ ____ _ ____ _ ____ _ ____ _ ____ _ ____
 72
    65
 73
     4
 40
17.500000
 49
13.000000
 49
-1.500000
 49
1.500000
 49
-1.500000
  0
LTYPE
  2
PHANTOM
 70
    64
  3
_____ _ _ _____ _ _ _____ _ _ _____ _ _ ____  
 72
    65
 73
     6
 40
15.500000
 49
8.000000
 49
-1.500000
 49
1.500000
 49
-1.500000
 49
1.500000
 49
-1.500000
  0
LTYPE
  2
DASHED1
 70
    64
  3
__ __ __ __ __ __ __ __ __ __ __ __ __ __ __
 72
    65
 73
     2
 40
1.500000
 49
1.000000
 49
-0.500000
  0
LTYPE
  2
DASHED2
 70
    64
  3
__ __ __ __ __ __ __ __ __ __ __ __ __ __ __
 72
    65
 73
     2
 40
3.500000
 49
2.500000
 49
-1.000000
  0
LTYPE
  2
DASHED3
 70
    64
  3
__ __ __ __ __ __ __ __ __ __ __ __ __ __ __
 72
    65
 73
     2
 40
6.000000
 49
4.000000
 49
-2.000000
  0
LTYPE
  2
DASHED4
 70
    64
  3
__ __ __ __ __ __ __ __ __ __ __ __ __ __ __
 72
    65
 73
     2
 40
12.000000
 49
10.000000
 49
-2.000000
  0
LTYPE
  2
DASHED5
 70
    64
  3
__ __ __ __ __ __ __ __ __ __ __ __ __ __ __
 72
    65
 73
     2
 40
17.000000
 49
15.000000
 49
-2.000000
  0
LTYPE
  2
DASHED6
 70
    64
  3
__ __ __ __ __ __ __ __ __ __ __ __ __ __ __
 72
    65
 73
     2
 40
29.000000
 49
27.000000
 49
-2.000000
  0
LTYPE
  2
PHANTOM1
 70
    64
  3
_____ _ _ _____ _ _ _____ _ _ _____ _ _ ____  
 72
    65
 73
     6
 40
31.000000
 49
25.000000
 49
-1.500000
 49
1.000000
 49
-1.000000
 49
1.000000
 49
-1.500000
  0
LTYPE
  2
PHANTOM2
 70
    64
  3
_____ _ _ _____ _ _ _____ _ _ _____ _ _ ____  
 72
    65
 73
     6
 40
36.000000
 49
27.000000
 49
-1.500000
 49
2.500000
 49
-1.000000
 49
2.500000
 49
-1.500000
  0
LTYPE
  2
PHANTOM3
 70
    64
  3
_____ _ _ _____ _ _ _____ _ _ _____ _ _ ____  
 72
    65
 73
     6
 40
78.000000
 49
64.000000
 49
-2.000000
 49
4.000000
 49
-2.000000
 49
4.000000
 49
-2.000000
  0
LTYPE
  2
CENTER1
 70
    64
  3
____ _ ____ _ ____ _ ____ _ ____ _ ____ _ ____
 72
    65
 73
     4
 40
19.000000
 49
14.000000
 49
-1.000000
 49
3.000000
 49
-1.000000
  0
LTYPE
  2
CENTER2
 70
    64
  3
____ _ ____ _ ____ _ ____ _ ____ _ ____ _ ____
 72
    65
 73
     4
 40
28.500000
 49
25.000000
 49
-1.000000
 49
1.500000
 49
-1.000000
  0
LTYPE
  2
CENTER3
 70
    64
  3
____ _ ____ _ ____ _ ____ _ ____ _ ____ _ ____
 72
    65
 73
     4
 40
31.500000
 49
27.000000
 49
-1.000000
 49
2.500000
 49
-1.000000
  0
LTYPE
  2
CENTER4
 70
    64
  3
____ _ ____ _ ____ _ ____ _ ____ _ ____ _ ____
 72
    65
 73
     4
 40
50.000000
 49
45.000000
 49
-1.000000
 49
3.000000
 49
-1.000000
  0
LTYPE
  2
CENTER5
 70
    64
  3
____ _ ____ _ ____ _ ____ _ ____ _ ____ _ ____
 72
    65
 73
     4
 40
100.000000
 49
92.000000
 49
-2.000000
 49
4.000000
 49
-2.000000
  0
LTYPE
  2
SBK1
 70
    64
  3
______ _ _ _ ______ _ _ _ ______ _ _ _ _____  
 72
    65
 73
     8
 40
60.500000
 49
45.000000
 49
-2.000000
 49
2.500000
 49
-2.000000
 49
2.500000
 49
-2.000000
 49
2.500000
 49
-2.000000
  0
LTYPE
  2
SBK2
 70
    64
  3
______ _ _ _ ______ _ _ _ ______ _ _ _ _____  
 72
    65
 73
     8
 40
84.000000
 49
64.000000
 49
-2.000000
 49
4.000000
 49
-2.000000
 49
4.000000
 49
-2.000000
 49
4.000000
 49
-2.000000
  0
LTYPE
  2
STCH
 70
    64
  3
__ __ __ __ __ __ __ __ __ __ __ __ __ __ __
 72
    65
 73
     2
 40
3.000000
 49
1.000000
 49
-2.000000
  0
LTYPE
  2
MTCH
 70
    64
  3
_____ _ _ _____ _ _ _____ _ _ _____ _ _ ____  
 72
    65
 73
     6
 40
80.000000
 49
66.000000
 49
-2.000000
 49
4.000000
 49
-2.000000
 49
4.000000
 49
-2.000000
  0
ENDTAB
  0
TABLE
  2
LAYER
 70
     1
  0
LAYER
  2
0
 70
     0
 62
     7
  6
CONTINUOUS
  0
ENDTAB
  0
TABLE
  2
STYLE
 70
     1
  0
STYLE
  2
STANDARD
 70
     0
 40
0.000000
 41
1.000000
 50
0.000000
 71
     0
 42
0.200000
  3
txt
  4
BIGFONT
  0
ENDTAB
  0
TABLE
  2
VIEW
 70
     0
  0
ENDTAB
  0
ENDSEC
  0
SECTION
  2
BLOCKS
  0
ENDSEC
  0
SECTION
  2
ENTITIES
  0
LINE
  8
0
 10
399.799988
 20
276.250000
 11
399.799988
 21
-276.750000
  0
LINE
  8
0
 10
-399.250000
 20
276.250000
 11
-399.250000
 21
-276.750000
  0
LINE
  8
0
 10
-399.250000
 20
276.250000
 11
399.799988
 21
276.250000
  0
LINE
  8
0
 10
-399.250000
 20
-276.750000
 11
399.799988
 21
-276.750000
  0
LINE
  8
0
 10
239.799988
 20
-251.750000
 11
399.799988
 21
-251.750000
  0
LINE
  8
0
 10
239.799988
 20
251.250000
 11
399.799988
 21
251.250000
  0
LINE
  8
0
 10
-399.250000
 20
251.250000
 11
-239.250000
 21
251.250000
  0
LINE
  8
0
 10
239.799988
 20
-251.750000
 11
239.799988
 21
-276.750000
  0
LINE
  8
0
 10
239.799988
 20
251.250000
 11
239.799988
 21
276.250000
  0
LINE
  8
0
 10
-239.250000
 20
276.250000
 11
-239.250000
 21
251.250000
  0
LINE
  8
0
  6
CENTER
 62
     2
 10
-54.500000
 20
-130.000000
 11
271.400024
 21
-130.000000
  0
LINE
  8
0
 10
14.196152
 20
-121.753792
 11
21.000000
 21
-121.753792
  0
LINE
  8
0
 10
14.196152
 20
-138.246216
 11
21.000000
 21
-138.246216
  0
LINE
  8
0
 10
21.000000
 20
-121.753792
 11
21.000000
 21
-138.246216
  0
LINE
  8
0
 10
14.196152
 20
-110.000000
 11
14.196152
 21
-121.753792
  0
LINE
  8
0
 10
14.196152
 20
-138.246216
 11
14.196152
 21
-150.000000
  0
LINE
  8
0
 62
     2
 10
20.999929
 20
-121.753769
 11
14.196093
 21
-138.246185
  0
LINE
  8
0
 62
     2
 10
14.196144
 20
-121.753777
 11
21.000000
 21
-138.246185
  0
LINE
  8
0
 10
32.000000
 20
-102.000000
 11
32.000000
 21
-158.000000
  0
LINE
  8
0
 10
33.000000
 20
-101.000000
 11
33.000000
 21
-159.000000
  0
LINE
  8
0
 10
32.000015
 20
-102.000023
 11
33.000015
 21
-101.000031
  0
LINE
  8
0
 10
32.000004
 20
-157.999969
 11
33.000008
 21
-158.999969
  0
LINE
  8
0
 10
70.000000
 20
-50.000000
 11
70.000000
 21
-210.000000
  0
LINE
  8
0
 10
64.799988
 20
-86.000000
 11
64.799988
 21
-174.000000
  0
LINE
  8
0
 10
65.799988
 20
-85.000000
 11
65.799988
 21
-175.000000
  0
LINE
  8
0
 10
64.800041
 20
-85.999947
 11
65.799973
 21
-84.999992
  0
LINE
  8
0
 10
56.799988
 20
-97.783501
 11
56.799988
 21
-109.183495
  0
LINE
  8
0
 10
56.799988
 20
-150.816498
 11
56.799988
 21
-162.216507
  0
LINE
  8
0
 10
32.999996
 20
-100.999992
 11
56.799984
 21
-100.047997
  0
LINE
  8
0
 10
32.999996
 20
-159.000031
 11
56.799988
 21
-159.952026
  0
LINE
  8
0
 10
58.000000
 20
-93.500000
 11
58.000000
 21
-96.983498
  0
LINE
  8
0
 10
105.000000
 20
-50.000000
 11
105.000000
 21
-210.000000
  0
LINE
  8
0
 10
70.000000
 20
-50.000000
 11
105.000000
 21
-50.000000
  0
LINE
  8
0
  6
CENTER
 62
     2
 10
37.123146
 20
-66.000000
 11
298.200012
 21
-66.000000
  0
LINE
  8
0
 10
281.517517
 20
-206.701523
 11
271.500000
 21
-206.701523
  0
LINE
  8
0
 10
281.517517
 20
-200.350845
 11
271.500000
 21
-200.350845
  0
LINE
  8
0
 10
281.517517
 20
-187.649139
 11
271.500000
 21
-187.649139
  0
LINE
  8
0
 10
281.517517
 20
-181.298294
 11
271.500000
 21
-181.298294
  0
LINE
  8
0
 10
271.500000
 20
-206.701706
 11
271.500000
 21
-181.298294
  0
LINE
  8
0
 10
282.500000
 20
-205.000000
 11
282.500000
 21
-183.000000
  0
LINE
  8
0
 10
282.500061
 20
-205.000229
 11
281.517517
 21
-206.701920
  0
LINE
  8
0
 10
282.499878
 20
-183.000092
 11
281.517395
 21
-181.298386
  0
LINE
  8
0
 10
295.000000
 20
-200.000366
 11
295.000000
 21
-188.000366
  0
LINE
  8
0
 10
294.000000
 20
-201.000366
 11
294.000000
 21
-187.000366
  0
LINE
  8
0
 10
294.000000
 20
-201.000000
 11
282.500000
 21
-201.000000
  0
LINE
  8
0
 10
294.000000
 20
-187.000000
 11
282.500000
 21
-187.000000
  0
LINE
  8
0
 10
294.999878
 20
-200.000244
 11
293.999878
 21
-201.000244
  0
LINE
  8
0
 10
294.999634
 20
-188.000732
 11
293.999634
 21
-187.000732
  0
LINE
  8
0
  6
CENTER
 62
     2
 10
37.500000
 20
-194.000000
 11
299.799988
 21
-194.000000
  0
LINE
  8
0
 10
44.000000
 20
-201.000000
 11
55.500000
 21
-201.000000
  0
LINE
  8
0
 10
42.999992
 20
-188.000000
 11
43.999992
 21
-187.000000
  0
LINE
  8
0
 10
43.000019
 20
-199.999969
 11
44.000011
 21
-200.999954
  0
LINE
  8
0
 10
56.482483
 20
-181.298294
 11
66.500000
 21
-181.298294
  0
LINE
  8
0
 10
56.482483
 20
-187.649155
 11
66.500000
 21
-187.649155
  0
LINE
  8
0
 10
56.482483
 20
-200.350861
 11
66.500000
 21
-200.350861
  0
LINE
  8
0
 10
56.482483
 20
-206.701706
 11
66.500000
 21
-206.701706
  0
LINE
  8
0
 10
66.500000
 20
-181.298294
 11
66.500000
 21
-206.701706
  0
LINE
  8
0
 10
55.500000
 20
-183.000000
 11
55.500000
 21
-205.000000
  0
LINE
  8
0
 10
55.500000
 20
-182.999954
 11
56.482475
 21
-181.298279
  0
LINE
  8
0
 10
55.499985
 20
-205.000000
 11
56.482471
 21
-206.701706
  0
LINE
  8
0
 10
43.000000
 20
-188.000000
 11
43.000000
 21
-200.000000
  0
LINE
  8
0
 10
44.000000
 20
-187.000000
 11
44.000000
 21
-201.000000
  0
LINE
  8
0
 10
44.000000
 20
-187.000000
 11
55.500000
 21
-187.000000
  0
LINE
  8
0
 10
64.799973
 20
-173.999985
 11
65.800011
 21
-174.999985
  0
LINE
  8
0
  6
CENTER
 62
     2
 10
86.000000
 20
-47.529602
 11
86.000000
 21
-141.300003
  0
LINE
  8
0
 10
246.904907
 20
-129.250000
 11
257.095093
 21
-129.250000
  0
LINE
  8
0
 10
246.904907
 20
-130.750000
 11
257.095093
 21
-130.750000
  0
LINE
  8
0
 10
105.000000
 20
-59.000000
 11
233.000000
 21
-59.000000
  0
LINE
  8
0
 10
105.000000
 20
-73.000000
 11
233.000000
 21
-73.000000
  0
LINE
  8
0
 10
105.000000
 20
-187.000000
 11
233.000000
 21
-187.000000
  0
LINE
  8
0
 10
105.000000
 20
-201.000000
 11
233.000000
 21
-201.000000
  0
LINE
  8
0
  6
CENTER
 62
     2
 10
252.000000
 20
-48.090424
 11
252.000000
 21
-143.000000
  0
LINE
  8
0
 10
268.000000
 20
-50.000000
 11
268.000000
 21
-210.000000
  0
LINE
  8
0
 10
233.000000
 20
-50.000000
 11
233.000000
 21
-210.000000
  0
LINE
  8
0
 10
233.000000
 20
-50.000000
 11
268.000000
 21
-50.000000
  0
LINE
  8
0
 10
80.904907
 20
-129.250000
 11
91.095093
 21
-129.250000
  0
LINE
  8
0
 10
80.904907
 20
-130.750000
 11
91.095093
 21
-130.750000
  0
LINE
  8
0
 10
43.000031
 20
-72.000000
 11
44.000023
 21
-73.000008
  0
LINE
  8
0
 10
43.000019
 20
-60.000008
 11
44.000019
 21
-59.000027
  0
LINE
  8
0
 10
44.000000
 20
-73.000000
 11
55.500000
 21
-73.000000
  0
LINE
  8
0
 10
56.482483
 20
-53.298294
 11
66.500000
 21
-53.298294
  0
LINE
  8
0
 10
56.482483
 20
-59.649155
 11
66.500000
 21
-59.649155
  0
LINE
  8
0
 10
56.482483
 20
-72.350861
 11
66.500000
 21
-72.350861
  0
LINE
  8
0
 10
56.482483
 20
-78.701706
 11
66.500000
 21
-78.701706
  0
LINE
  8
0
 10
66.500000
 20
-53.298294
 11
66.500000
 21
-78.701706
  0
LINE
  8
0
 10
55.500000
 20
-54.999954
 11
55.500000
 21
-77.000000
  0
LINE
  8
0
 10
55.500004
 20
-54.999954
 11
56.482487
 21
-53.298248
  0
LINE
  8
0
 10
55.500088
 20
-76.999969
 11
56.482567
 21
-78.701675
  0
LINE
  8
0
 10
43.000000
 20
-60.000000
 11
43.000000
 21
-72.000000
  0
LINE
  8
0
 10
44.000000
 20
-59.000000
 11
44.000000
 21
-73.000000
  0
LINE
  8
0
 10
44.000000
 20
-59.000000
 11
55.500000
 21
-59.000000
  0
LINE
  8
0
 10
294.999847
 20
-60.000526
 11
293.999847
 21
-59.000526
  0
LINE
  8
0
 10
294.999695
 20
-72.000122
 11
293.999725
 21
-73.000107
  0
LINE
  8
0
 10
294.000000
 20
-59.000000
 11
282.500000
 21
-59.000000
  0
LINE
  8
0
 10
281.517517
 20
-78.701523
 11
271.500000
 21
-78.701523
  0
LINE
  8
0
 10
281.517517
 20
-72.350845
 11
271.500000
 21
-72.350845
  0
LINE
  8
0
 10
281.517517
 20
-59.649139
 11
271.500000
 21
-59.649139
  0
LINE
  8
0
 10
281.517517
 20
-53.298294
 11
271.500000
 21
-53.298294
  0
LINE
  8
0
 10
271.500000
 20
-78.701706
 11
271.500000
 21
-53.298294
  0
LINE
  8
0
 10
282.500000
 20
-77.000008
 11
282.500000
 21
-55.000000
  0
LINE
  8
0
 10
282.500336
 20
-77.000183
 11
281.517761
 21
-78.701912
  0
LINE
  8
0
 10
282.500031
 20
-55.000076
 11
281.517548
 21
-53.298367
  0
LINE
  8
0
 10
295.000000
 20
-72.000374
 11
295.000000
 21
-60.000381
  0
LINE
  8
0
 10
294.000000
 20
-73.000374
 11
294.000000
 21
-59.000381
  0
LINE
  8
0
 10
294.000000
 20
-73.000000
 11
282.500000
 21
-73.000000
  0
LINE
  8
0
 10
59.000000
 20
-92.500000
 11
64.799988
 21
-92.500000
  0
LINE
  8
0
 10
59.000000
 20
-167.500000
 11
64.799988
 21
-167.500000
  0
LINE
  8
0
 10
58.000000
 20
-109.983498
 11
58.000000
 21
-150.016510
  0
LINE
  8
0
 10
58.000000
 20
-163.016510
 11
58.000000
 21
-166.500000
  0
LINE
  8
0
 10
57.599987
 20
-163.016510
 11
64.799988
 21
-163.016510
  0
LINE
  8
0
 10
57.599987
 20
-150.016510
 11
64.799988
 21
-150.016510
  0
LINE
  8
0
 10
57.599991
 20
-96.983498
 11
64.799988
 21
-96.983498
  0
LINE
  8
0
 10
57.599991
 20
-109.983498
 11
64.799988
 21
-109.983498
  0
LINE
  8
0
 10
56.799984
 20
-97.783508
 11
57.599987
 21
-96.983513
  0
LINE
  8
0
 10
56.799995
 20
-109.183510
 11
57.599998
 21
-109.983521
  0
LINE
  8
0
 10
57.599983
 20
-150.016495
 11
56.799984
 21
-150.816498
  0
LINE
  8
0
 10
56.799995
 20
-162.216537
 11
57.600002
 21
-163.016541
  0
LINE
  8
0
 10
57.599968
 20
-96.983498
 11
57.599968
 21
-109.983498
  0
LINE
  8
0
 10
57.599983
 20
-150.016510
 11
57.599983
 21
-163.016510
  0
LINE
  8
0
 10
268.000000
 20
-182.000000
 11
271.500000
 21
-182.000000
  0
LINE
  8
0
 10
268.000000
 20
-206.000000
 11
271.500000
 21
-206.000000
  0
LINE
  8
0
 10
66.500000
 20
-182.000000
 11
70.000000
 21
-182.000000
  0
LINE
  8
0
 10
66.500000
 20
-206.000000
 11
70.000000
 21
-206.000000
  0
LINE
  8
0
 10
66.500000
 20
-54.000000
 11
70.000000
 21
-54.000000
  0
LINE
  8
0
 10
66.500000
 20
-78.000000
 11
70.000000
 21
-78.000000
  0
LINE
  8
0
 10
268.000000
 20
-54.000000
 11
271.500000
 21
-54.000000
  0
LINE
  8
0
 10
268.000000
 20
-78.000000
 11
271.500000
 21
-78.000000
  0
LINE
  8
0
 10
65.800011
 20
-175.000000
 11
70.000000
 21
-175.000000
  0
LINE
  8
0
 10
65.799957
 20
-85.000000
 11
70.000000
 21
-85.000000
  0
LINE
  8
0
 10
70.000000
 20
-210.000000
 11
105.000000
 21
-210.000000
  0
LINE
  8
0
  6
DASHED
 62
     2
 10
75.500092
 20
-49.999931
 11
77.000076
 21
-51.499943
  0
LINE
  8
0
  6
DASHED
 62
     2
 10
77.000000
 20
-51.500000
 11
95.000000
 21
-51.500000
  0
LINE
  8
0
  6
DASHED
 62
     2
 10
95.000008
 20
-51.499985
 11
96.499992
 21
-49.999989
  0
LINE
  8
0
  6
DASHED
 62
     2
 10
96.500008
 20
-49.999992
 11
96.100311
 21
-61.446415
  0
LINE
  8
0
  6
DASHED
 62
     2
 10
95.000000
 20
-51.500000
 11
95.000000
 21
-61.350006
  0
LINE
  8
0
  6
DASHED
 62
     2
 10
77.000000
 20
-60.150009
 11
77.000000
 21
-51.500000
  0
LINE
  8
0
  6
DASHED
 62
     2
 10
75.500000
 20
-49.999977
 11
75.875183
 21
-60.743839
  0
LINE
  8
0
  6
DASHED
 62
     2
 10
241.500000
 20
-50.000011
 11
242.999954
 21
-51.500008
  0
LINE
  8
0
  6
DASHED
 62
     2
 10
243.000000
 20
-51.500183
 11
261.000183
 21
-51.500183
  0
LINE
  8
0
  6
DASHED
 62
     2
 10
261.000244
 20
-51.500008
 11
262.500244
 21
-50.000023
  0
LINE
  8
0
  6
DASHED
 62
     2
 10
262.500671
 20
-50.000008
 11
262.100861
 21
-61.446503
  0
LINE
  8
0
  6
DASHED
 62
     2
 10
261.000000
 20
-61.349998
 11
261.000183
 21
-51.499962
  0
LINE
  8
0
  6
DASHED
 62
     2
 10
243.000000
 20
-51.499969
 11
243.000000
 21
-60.150009
  0
LINE
  8
0
  6
DASHED
 62
     2
 10
241.875305
 20
-60.743828
 11
241.499908
 21
-49.999981
  0
LINE
  8
0
 10
233.000000
 20
-210.000000
 11
268.000000
 21
-210.000000
  0
LINE
  8
0
 10
105.000000
 20
-55.000000
 11
233.000000
 21
-55.000000
  0
LINE
  8
0
 10
105.000000
 20
-205.000000
 11
233.000000
 21
-205.000000
  0
LINE
  8
0
 62
     2
 10
295.000000
 20
-60.399994
 11
282.500000
 21
-60.399994
  0
LINE
  8
0
 62
     2
 10
295.000000
 20
-71.599998
 11
282.500000
 21
-71.599998
  0
LINE
  8
0
 62
     2
 10
295.000000
 20
-188.399994
 11
282.500000
 21
-188.399994
  0
LINE
  8
0
 62
     2
 10
295.000000
 20
-199.600006
 11
282.500000
 21
-199.600006
  0
LINE
  8
0
 62
     2
 10
43.000000
 20
-188.399994
 11
55.500000
 21
-188.399994
  0
LINE
  8
0
 62
     2
 10
43.000000
 20
-199.600006
 11
55.500000
 21
-199.600006
  0
LINE
  8
0
 62
     2
 10
43.000000
 20
-60.399994
 11
55.500000
 21
-60.399994
  0
LINE
  8
0
 62
     2
 10
43.000000
 20
-71.599998
 11
55.500000
 21
-71.599998
  0
LINE
  8
0
 10
14.196152
 20
-110.000000
 11
32.000000
 21
-110.000000
  0
LINE
  8
0
 10
14.196152
 20
-150.000000
 11
32.000000
 21
-150.000000
  0
LINE
  8
0
 10
9.000010
 20
-112.000015
 11
14.196162
 21
-110.000023
  0
LINE
  8
0
 10
9.000006
 20
-147.999954
 11
14.196155
 21
-149.999969
  0
LINE
  8
0
 10
9.000000
 20
-112.000000
 11
9.000000
 21
-148.000000
  0
LINE
  8
0
 10
-49.250000
 20
-148.000000
 11
9.000000
 21
-148.000000
  0
LINE
  8
0
 10
-49.250000
 20
-112.000000
 11
9.000000
 21
-112.000000
  0
LINE
  8
0
 10
-50.000000
 20
-112.750000
 11
-50.000000
 21
-147.250000
  0
LINE
  8
0
 10
6.000000
 20
-112.000000
 11
6.000000
 21
-148.000000
  0
LINE
  8
0
 62
     2
 10
-50.000000
 20
-112.750000
 11
6.000000
 21
-112.750000
  0
LINE
  8
0
 62
     2
 10
5.999995
 20
-112.749962
 11
7.607068
 21
-111.999992
  0
LINE
  8
0
 10
-49.250000
 20
-112.000008
 11
-50.000008
 21
-112.750015
  0
LINE
  8
0
 10
-49.250000
 20
-111.999992
 11
-49.250000
 21
-148.000000
  0
LINE
  8
0
 62
     2
 10
-50.000000
 20
-147.250000
 11
6.000000
 21
-147.250000
  0
LINE
  8
0
 10
-49.249981
 20
-147.999954
 11
-49.999981
 21
-147.249954
  0
LINE
  8
0
 62
     2
 10
5.999990
 20
-147.250061
 11
7.607062
 21
-148.000031
  0
LINE
  8
0
  6
CENTER
 62
     2
 10
-306.455475
 20
-130.000000
 11
-136.310089
 21
-130.000000
  0
LINE
  8
0
  6
CENTER
 62
     2
 10
-220.000000
 20
-46.157272
 11
-220.000000
 21
-215.480713
  0
LINE
  8
0
  6
CENTER
 62
     2
 10
-156.000000
 20
-51.500000
 11
-156.000000
 21
-80.500000
  0
LINE
  8
0
  6
CENTER
 62
     2
 10
-284.000000
 20
-51.000000
 11
-284.000000
 21
-79.500000
  0
LINE
  8
0
  6
CENTER
 62
     2
 10
-297.250000
 20
-66.000000
 11
-270.250000
 21
-66.000000
  0
LINE
  8
0
  6
CENTER
 62
     2
 10
-297.500000
 20
-194.000000
 11
-270.500000
 21
-194.000000
  0
LINE
  8
0
 10
-273.000000
 20
-187.649155
 11
-273.000000
 21
-200.350861
  0
LINE
  8
0
 10
-295.000000
 20
-187.649155
 11
-295.000000
 21
-200.350861
  0
LINE
  8
0
 10
-294.999786
 20
-187.649277
 11
-283.999786
 21
-181.298462
  0
LINE
  8
0
 10
-283.999756
 20
-206.702026
 11
-272.999725
 21
-200.351151
  0
LINE
  8
0
 10
-283.999847
 20
-181.298080
 11
-272.999908
 21
-187.648911
  0
LINE
  8
0
 10
-294.999969
 20
-200.350830
 11
-284.000000
 21
-206.701645
  0
LINE
  8
0
  6
CENTER
 62
     2
 10
-284.000000
 20
-179.000000
 11
-284.000000
 21
-208.750000
  0
LINE
  8
0
  6
CENTER
 62
     2
 10
-168.250000
 20
-194.000000
 11
-142.000000
 21
-194.000000
  0
LINE
  8
0
  6
CENTER
 62
     2
 10
-156.000000
 20
-178.250000
 11
-156.000000
 21
-207.500000
  0
LINE
  8
0
  6
CENTER
 62
     2
 10
-169.250000
 20
-66.000000
 11
-143.000000
 21
-66.000000
  0
LINE
  8
0
 10
-247.413162
 20
-153.170517
 11
-244.067093
 21
-154.067093
  0
LINE
  8
0
 10
-248.966095
 20
-158.966095
 11
-245.620010
 21
-159.862671
  0
LINE
  8
0
 10
-249.862564
 20
-155.619888
 11
-248.965988
 21
-158.965958
  0
LINE
  8
0
 10
-244.066895
 20
-154.067017
 11
-243.170334
 21
-157.413040
  0
LINE
  8
0
 10
-245.619904
 20
-159.862610
 11
-243.170410
 21
-157.413116
  0
LINE
  8
0
 10
-249.862534
 20
-155.619949
 11
-247.413040
 21
-153.170456
  0
LINE
  8
0
 10
-245.619843
 20
-100.137375
 11
-243.170349
 21
-102.586876
  0
LINE
  8
0
 10
-243.170486
 20
-102.586937
 11
-244.067062
 21
-105.933014
  0
LINE
  8
0
 10
-248.966125
 20
-101.033966
 11
-249.862701
 21
-104.380013
  0
LINE
  8
0
 10
-245.619919
 20
-100.137398
 11
-248.965988
 21
-101.033974
  0
LINE
  8
0
 10
-244.067001
 20
-105.932968
 11
-247.413010
 21
-106.829529
  0
LINE
  8
0
 10
-249.862488
 20
-104.380051
 11
-247.413025
 21
-106.829498
  0
LINE
  8
0
 10
-192.586823
 20
-153.170364
 11
-190.137329
 21
-155.619873
  0
LINE
  8
0
 10
-190.137436
 20
-155.619904
 11
-191.034012
 21
-158.965988
  0
LINE
  8
0
 10
-195.933105
 20
-154.066971
 11
-196.829681
 21
-157.413010
  0
LINE
  8
0
 10
-192.586884
 20
-153.170425
 11
-195.932953
 21
-154.067001
  0
LINE
  8
0
 10
-191.034027
 20
-158.965988
 11
-194.380051
 21
-159.862549
  0
LINE
  8
0
 10
-196.829514
 20
-157.413040
 11
-194.380051
 21
-159.862518
  0
LINE
  8
0
 10
-196.829483
 20
-102.586899
 11
-194.379974
 21
-100.137405
  0
LINE
  8
0
 10
-194.380066
 20
-100.137444
 11
-191.033997
 21
-101.034027
  0
LINE
  8
0
 10
-195.932999
 20
-105.933060
 11
-192.586929
 21
-106.829636
  0
LINE
  8
0
 10
-196.829559
 20
-102.586899
 11
-195.932983
 21
-105.932976
  0
LINE
  8
0
 10
-191.033951
 20
-101.034019
 11
-190.137390
 21
-104.380035
  0
LINE
  8
0
 10
-192.586868
 20
-106.829575
 11
-190.137390
 21
-104.380104
  0
LINE
  8
0
 10
-145.000000
 20
-187.649155
 11
-145.000000
 21
-200.350861
  0
LINE
  8
0
 10
-167.000000
 20
-187.649155
 11
-167.000000
 21
-200.350861
  0
LINE
  8
0
 10
-166.999924
 20
-187.649200
 11
-155.999908
 21
-181.298355
  0
LINE
  8
0
 10
-155.999893
 20
-206.701736
 11
-144.999863
 21
-200.350861
  0
LINE
  8
0
 10
-155.999893
 20
-181.298141
 11
-144.999954
 21
-187.648972
  0
LINE
  8
0
 10
-166.999954
 20
-200.350861
 11
-155.999954
 21
-206.701706
  0
LINE
  8
0
 10
-145.000000
 20
-59.649155
 11
-145.000000
 21
-72.350861
  0
LINE
  8
0
 10
-167.000000
 20
-59.649155
 11
-167.000000
 21
-72.350861
  0
LINE
  8
0
 10
-166.999802
 20
-59.649330
 11
-155.999802
 21
-53.298508
  0
LINE
  8
0
 10
-155.999802
 20
-78.702011
 11
-144.999771
 21
-72.351143
  0
LINE
  8
0
 10
-155.999939
 20
-53.298283
 11
-145.000015
 21
-59.649120
  0
LINE
  8
0
 10
-166.999924
 20
-72.350868
 11
-155.999969
 21
-78.701683
  0
LINE
  8
0
 10
-273.000000
 20
-59.649155
 11
-273.000000
 21
-72.350861
  0
LINE
  8
0
 10
-295.000000
 20
-59.649155
 11
-295.000000
 21
-72.350861
  0
LINE
  8
0
 10
-294.999695
 20
-59.649494
 11
-283.999664
 21
-53.298656
  0
LINE
  8
0
 10
-283.999634
 20
-78.702209
 11
-272.999634
 21
-72.351341
  0
LINE
  8
0
 10
-283.999847
 20
-53.298222
 11
-272.999908
 21
-59.649048
  0
LINE
  8
0
 10
-294.999939
 20
-72.350815
 11
-283.999969
 21
-78.701653
  0
LINE
  8
0
 10
-300.000000
 20
-50.000000
 11
-300.000000
 21
-210.000000
  0
LINE
  8
0
 10
-140.000000
 20
-50.000000
 11
-140.000000
 21
-210.000000
  0
LINE
  8
0
 10
-300.000000
 20
-210.000000
 11
-140.000000
 21
-210.000000
  0
LINE
  8
0
 10
-300.000000
 20
-50.000000
 11
-140.000000
 21
-50.000000
  0
LINE
  8
0
 10
-202.000000
 20
-121.282204
 11
-202.000000
 21
-138.717804
  0
LINE
  8
0
 10
-238.000000
 20
-121.282204
 11
-238.000000
 21
-138.717804
  0
LINE
  8
0
  6
CENTER
 62
     2
 10
-54.500000
 20
120.000000
 11
271.400024
 21
120.000000
  0
LINE
  8
0
 10
14.196152
 20
138.000000
 11
14.196152
 21
102.000000
  0
LINE
  8
0
 10
32.000000
 20
148.000000
 11
32.000000
 21
92.000000
  0
LINE
  8
0
 10
33.000000
 20
149.000000
 11
33.000000
 21
91.000000
  0
LINE
  8
0
 10
32.000000
 20
147.999985
 11
33.000000
 21
148.999969
  0
LINE
  8
0
 10
31.999985
 20
91.999985
 11
32.999989
 21
90.999985
  0
LINE
  8
0
 10
70.000000
 20
200.000000
 11
70.000000
 21
40.000000
  0
LINE
  8
0
 10
64.799988
 20
164.000000
 11
64.799988
 21
76.000000
  0
LINE
  8
0
 10
65.799988
 20
165.000000
 11
65.799988
 21
75.000000
  0
LINE
  8
0
 10
64.800064
 20
163.999985
 11
65.799988
 21
164.999939
  0
LINE
  8
0
 10
56.799988
 20
152.216492
 11
56.799988
 21
140.816498
  0
LINE
  8
0
 10
56.799988
 20
99.183502
 11
56.799988
 21
87.783493
  0
LINE
  8
0
 10
32.999996
 20
148.999985
 11
56.799984
 21
149.951981
  0
LINE
  8
0
 10
33.000000
 20
91.000015
 11
56.799992
 21
90.048019
  0
LINE
  8
0
 10
58.000000
 20
156.500000
 11
58.000000
 21
153.016510
  0
LINE
  8
0
 10
105.000000
 20
200.000000
 11
105.000000
 21
40.000000
  0
LINE
  8
0
 10
70.000000
 20
200.000000
 11
105.000000
 21
200.000000
  0
LINE
  8
0
  6
CENTER
 62
     2
 10
37.123146
 20
184.000000
 11
298.200012
 21
184.000000
  0
LINE
  8
0
 10
295.000000
 20
49.999634
 11
295.000000
 21
61.999634
  0
LINE
  8
0
 10
294.000000
 20
48.999634
 11
294.000000
 21
62.999634
  0
LINE
  8
0
 10
294.000000
 20
49.000000
 11
282.500000
 21
49.000000
  0
LINE
  8
0
 10
294.000000
 20
63.000000
 11
282.500000
 21
63.000000
  0
LINE
  8
0
 10
294.999847
 20
49.999718
 11
293.999847
 21
48.999718
  0
LINE
  8
0
 10
294.999573
 20
61.999218
 11
293.999573
 21
62.999218
  0
LINE
  8
0
  6
CENTER
 62
     2
 10
37.500000
 20
56.000000
 11
299.799988
 21
56.000000
  0
LINE
  8
0
 10
44.000000
 20
49.000000
 11
55.500000
 21
49.000000
  0
LINE
  8
0
 10
42.999996
 20
61.999996
 11
43.999996
 21
62.999996
  0
LINE
  8
0
 10
43.000008
 20
50.000015
 11
43.999996
 21
49.000027
  0
LINE
  8
0
 10
66.500000
 20
68.000000
 11
66.500000
 21
44.000000
  0
LINE
  8
0
 10
43.000000
 20
62.000000
 11
43.000000
 21
50.000000
  0
LINE
  8
0
 10
44.000000
 20
63.000000
 11
44.000000
 21
49.000000
  0
LINE
  8
0
 10
44.000000
 20
63.000000
 11
55.500000
 21
63.000000
  0
LINE
  8
0
 10
64.799965
 20
76.000015
 11
65.799995
 21
75.000000
  0
LINE
  8
0
  6
CENTER
 62
     2
 10
252.000000
 20
134.733688
 11
252.000000
 21
103.664749
  0
LINE
  8
0
 10
105.000000
 20
191.000000
 11
233.000000
 21
191.000000
  0
LINE
  8
0
 10
105.000000
 20
177.000000
 11
233.000000
 21
177.000000
  0
LINE
  8
0
 10
105.000000
 20
63.000000
 11
233.000000
 21
63.000000
  0
LINE
  8
0
 10
105.000000
 20
49.000000
 11
233.000000
 21
49.000000
  0
LINE
  8
0
 10
268.000000
 20
200.000000
 11
268.000000
 21
40.000000
  0
LINE
  8
0
 10
233.000000
 20
200.000000
 11
233.000000
 21
40.000000
  0
LINE
  8
0
 10
233.000000
 20
200.000000
 11
268.000000
 21
200.000000
  0
LINE
  8
0
 10
43.000046
 20
178.000015
 11
44.000042
 21
177.000000
  0
LINE
  8
0
 10
43.000019
 20
189.999969
 11
44.000019
 21
190.999954
  0
LINE
  8
0
 10
44.000000
 20
177.000000
 11
55.500000
 21
177.000000
  0
LINE
  8
0
 10
43.000000
 20
190.000000
 11
43.000000
 21
178.000000
  0
LINE
  8
0
 10
44.000000
 20
191.000000
 11
44.000000
 21
177.000000
  0
LINE
  8
0
 10
44.000000
 20
191.000000
 11
55.500000
 21
191.000000
  0
LINE
  8
0
 10
294.999847
 20
189.999481
 11
293.999847
 21
190.999481
  0
LINE
  8
0
 10
294.999756
 20
177.999878
 11
293.999786
 21
176.999893
  0
LINE
  8
0
 10
294.000000
 20
191.000000
 11
282.500000
 21
191.000000
  0
LINE
  8
0
 10
295.000000
 20
177.999634
 11
295.000000
 21
189.999619
  0
LINE
  8
0
 10
294.000000
 20
176.999634
 11
294.000000
 21
190.999619
  0
LINE
  8
0
 10
294.000000
 20
177.000000
 11
282.500000
 21
177.000000
  0
LINE
  8
0
 10
59.000000
 20
157.500000
 11
64.799988
 21
157.500000
  0
LINE
  8
0
 10
59.000000
 20
82.500000
 11
64.799988
 21
82.500000
  0
LINE
  8
0
 10
58.000000
 20
140.016510
 11
58.000000
 21
99.983490
  0
LINE
  8
0
 10
58.000000
 20
86.983490
 11
58.000000
 21
83.500000
  0
LINE
  8
0
 10
57.599987
 20
86.983490
 11
64.799988
 21
86.983490
  0
LINE
  8
0
 10
57.599987
 20
99.983490
 11
64.799988
 21
99.983490
  0
LINE
  8
0
 10
57.599991
 20
153.016510
 11
64.799988
 21
153.016510
  0
LINE
  8
0
 10
57.599991
 20
140.016510
 11
64.799988
 21
140.016510
  0
LINE
  8
0
 10
56.799995
 20
152.216507
 11
57.600002
 21
153.016510
  0
LINE
  8
0
 10
56.799980
 20
140.816483
 11
57.599983
 21
140.016479
  0
LINE
  8
0
 10
57.600002
 20
99.983513
 11
56.800003
 21
99.183510
  0
LINE
  8
0
 10
56.799995
 20
87.783493
 11
57.599998
 21
86.983490
  0
LINE
  8
0
 10
57.599968
 20
153.016510
 11
57.599968
 21
140.016510
  0
LINE
  8
0
 10
57.599983
 20
99.983490
 11
57.599983
 21
86.983490
  0
LINE
  8
0
 10
268.000000
 20
68.000000
 11
271.500000
 21
68.000000
  0
LINE
  8
0
 10
268.000000
 20
44.000000
 11
271.500000
 21
44.000000
  0
LINE
  8
0
 10
66.500000
 20
68.000000
 11
70.000000
 21
68.000000
  0
LINE
  8
0
 10
66.500000
 20
44.000000
 11
70.000000
 21
44.000000
  0
LINE
  8
0
 10
66.500000
 20
196.000000
 11
70.000000
 21
196.000000
  0
LINE
  8
0
 10
66.500000
 20
172.000000
 11
70.000000
 21
172.000000
  0
LINE
  8
0
 10
268.000000
 20
196.000000
 11
271.500000
 21
196.000000
  0
LINE
  8
0
 10
268.000000
 20
172.000000
 11
271.500000
 21
172.000000
  0
LINE
  8
0
 10
65.800011
 20
75.000000
 11
70.000000
 21
75.000000
  0
LINE
  8
0
 10
65.799957
 20
165.000000
 11
70.000000
 21
165.000000
  0
LINE
  8
0
 10
70.000000
 20
40.000000
 11
105.000000
 21
40.000000
  0
LINE
  8
0
 10
233.000000
 20
40.000000
 11
268.000000
 21
40.000000
  0
LINE
  8
0
 10
105.000000
 20
195.000000
 11
233.000000
 21
195.000000
  0
LINE
  8
0
 10
105.000000
 20
45.000000
 11
233.000000
 21
45.000000
  0
LINE
  8
0
 62
     2
 10
295.000000
 20
189.600006
 11
282.500000
 21
189.600006
  0
LINE
  8
0
 62
     2
 10
295.000000
 20
178.399994
 11
282.500000
 21
178.399994
  0
LINE
  8
0
 62
     2
 10
295.000000
 20
61.600006
 11
282.500000
 21
61.600006
  0
LINE
  8
0
 62
     2
 10
295.000000
 20
50.399994
 11
282.500000
 21
50.399994
  0
LINE
  8
0
 62
     2
 10
43.000000
 20
61.600006
 11
55.500000
 21
61.600006
  0
LINE
  8
0
 62
     2
 10
43.000000
 20
50.399994
 11
55.500000
 21
50.399994
  0
LINE
  8
0
 62
     2
 10
43.000000
 20
189.600006
 11
55.500000
 21
189.600006
  0
LINE
  8
0
 62
     2
 10
43.000000
 20
178.399994
 11
55.500000
 21
178.399994
  0
LINE
  8
0
 10
22.154701
 20
140.000000
 11
32.000000
 21
140.000000
  0
LINE
  8
0
 10
22.154694
 20
100.000000
 11
32.000000
 21
100.000000
  0
LINE
  8
0
 10
9.000000
 20
138.000000
 11
9.000000
 21
102.000000
  0
LINE
  8
0
 10
-49.249985
 20
138.000000
 11
9.000000
 21
138.000000
  0
LINE
  8
0
 10
-50.000000
 20
137.249985
 11
-50.000000
 21
102.750000
  0
LINE
  8
0
 10
6.000000
 20
138.000000
 11
6.000000
 21
102.000000
  0
LINE
  8
0
 62
     2
 10
-50.000000
 20
137.250000
 11
6.000000
 21
137.250000
  0
LINE
  8
0
 62
     2
 10
5.999994
 20
137.250015
 11
7.607101
 21
138.000000
  0
LINE
  8
0
 10
55.500000
 20
67.000000
 11
66.500000
 21
67.000000
  0
LINE
  8
0
 10
56.482483
 20
56.000000
 11
66.500000
 21
56.000000
  0
LINE
  8
0
 10
55.500000
 20
67.000000
 11
55.500000
 21
45.000000
  0
LINE
  8
0
 10
55.500000
 20
45.000000
 11
66.500000
 21
45.000000
  0
LINE
  8
0
 10
271.500000
 20
68.000000
 11
271.500000
 21
44.000000
  0
LINE
  8
0
 10
282.500000
 20
67.000000
 11
271.500000
 21
67.000000
  0
LINE
  8
0
 10
281.517517
 20
56.000000
 11
271.500000
 21
56.000000
  0
LINE
  8
0
 10
282.500000
 20
67.000000
 11
282.500000
 21
45.000000
  0
LINE
  8
0
 10
282.500000
 20
45.000000
 11
271.500000
 21
45.000000
  0
LINE
  8
0
 10
66.500000
 20
172.000000
 11
66.500000
 21
196.000000
  0
LINE
  8
0
 10
55.500000
 20
173.000000
 11
66.500000
 21
173.000000
  0
LINE
  8
0
 10
56.482483
 20
184.000000
 11
66.500000
 21
184.000000
  0
LINE
  8
0
 10
55.500000
 20
173.000000
 11
55.500000
 21
195.000000
  0
LINE
  8
0
 10
55.500000
 20
195.000000
 11
66.500000
 21
195.000000
  0
LINE
  8
0
 10
271.500000
 20
172.000000
 11
271.500000
 21
196.000000
  0
LINE
  8
0
 10
282.500000
 20
173.000000
 11
271.500000
 21
173.000000
  0
LINE
  8
0
 10
281.517517
 20
184.000000
 11
271.500000
 21
184.000000
  0
LINE
  8
0
 10
282.500000
 20
173.000000
 11
282.500000
 21
195.000000
  0
LINE
  8
0
 10
282.500000
 20
195.000000
 11
271.500000
 21
195.000000
  0
LINE
  8
0
 10
9.000000
 20
138.000000
 11
21.000000
 21
138.000000
  0
LINE
  8
0
 10
9.000000
 20
102.000000
 11
21.000000
 21
102.000000
  0
LINE
  8
0
 10
21.000000
 20
137.999985
 11
22.154699
 21
139.999985
  0
LINE
  8
0
 10
20.999996
 20
102.000000
 11
22.154696
 21
99.999992
  0
LINE
  8
0
  6
CENTER
 62
     2
 10
86.000000
 20
134.733688
 11
86.000000
 21
103.664749
  0
LINE
  8
0
 10
-49.250031
 20
138.000046
 11
-50.000042
 21
137.250046
  0
LINE
  8
0
 10
-49.249985
 20
138.000000
 11
-49.249985
 21
102.000000
  0
LINE
  8
0
 10
-49.249985
 20
102.000000
 11
9.000000
 21
102.000000
  0
LINE
  8
0
 10
-49.249992
 20
101.999977
 11
-50.000000
 21
102.749992
  0
LINE
  8
0
 62
     2
 10
-50.000000
 20
102.750000
 11
6.000000
 21
102.750000
  0
LINE
  8
0
 62
     2
 10
5.999996
 20
102.750000
 11
7.607106
 21
102.000015
  0
ARC
  8
0
 10
59.000000
 20
-93.500000
 40
1.000000
 50
90.000000
 51
180.000000
  0
ARC
  8
0
 10
59.000000
 20
-166.500000
 40
1.000000
 50
180.000000
 51
270.000000
  0
CIRCLE
  8
0
 10
86.000000
 20
-130.000000
 40
7.950000
  0
CIRCLE
  8
0
 10
252.000000
 20
-130.000000
 40
7.950000
  0
CIRCLE
  8
0
 10
86.000000
 20
-130.000000
 40
5.150000
  0
CIRCLE
  8
0
 10
252.000000
 20
-130.000000
 40
5.150000
  0
ARC
  8
0
 10
18.141380
 20
-130.000000
 40
9.141379
 50
115.567848
 51
244.432159
  0
ARC
  8
0
 10
-250.720642
 20
-110.289772
 40
0.999999
 50
58.297192
 51
147.315781
  0
CIRCLE
  8
0
 10
-220.000000
 20
-130.000000
 40
18.000000
  0
CIRCLE
  8
0
 10
-220.000000
 20
-130.000000
 40
20.000000
  0
CIRCLE
  8
0
 10
-220.000000
 20
-130.000000
 40
30.000000
  0
ARC
  8
0
 10
-220.000000
 20
-130.000000
 40
37.500000
 50
0.000000
 51
32.684067
  0
ARC
  8
0
 10
-246.516510
 20
-156.516510
 40
7.000000
 50
0.000000
 51
121.703087
  0
ARC
  8
0
 10
-246.516510
 20
-103.483498
 40
7.000000
 50
0.000000
 51
31.702862
  0
ARC
  8
0
 10
-193.483490
 20
-103.483498
 40
7.000000
 50
148.297089
 51
301.702911
  0
ARC
  8
0
 10
-220.000000
 20
-130.000000
 40
37.499996
 50
57.315914
 51
122.684113
  0
ARC
  8
0
 10
-200.289764
 20
-99.279381
 40
0.999999
 50
328.297180
 51
57.315781
  0
ARC
  8
0
 10
-189.279358
 20
-110.289772
 40
1.000000
 50
32.684219
 51
121.702805
  0
ARC
  8
0
 10
-220.000000
 20
-130.000000
 40
37.499996
 50
327.315948
 51
0.000000
  0
ARC
  8
0
 10
-193.483490
 20
-156.516510
 40
7.000000
 50
58.297085
 51
211.702911
  0
ARC
  8
0
 10
-189.279358
 20
-149.710236
 40
0.999999
 50
238.297195
 51
327.315765
  0
ARC
  8
0
 10
-200.289764
 20
-160.720627
 40
1.000000
 50
302.684235
 51
31.702808
  0
ARC
  8
0
 10
-220.000000
 20
-130.000000
 40
37.500000
 50
237.315887
 51
302.684082
  0
ARC
  8
0
 10
-246.516510
 20
-156.516510
 40
7.000000
 50
328.297089
 51
0.000000
  0
ARC
  8
0
 10
-239.710236
 20
-160.720627
 40
0.999999
 50
148.297195
 51
237.315781
  0
ARC
  8
0
 10
-250.720642
 20
-149.710236
 40
1.000000
 50
212.684219
 51
301.702820
  0
ARC
  8
0
 10
-220.000000
 20
-130.000000
 40
37.499996
 50
147.315948
 51
212.684021
  0
ARC
  8
0
 10
-246.516510
 20
-103.483498
 40
7.000001
 50
238.296951
 51
0.000000
  0
ARC
  8
0
 10
-239.710236
 20
-99.279381
 40
1.000000
 50
122.684219
 51
211.703186
  0
CIRCLE
  8
0
 10
-220.000000
 20
-130.000000
 40
45.000000
  0
CIRCLE
  8
0
 10
-284.000000
 20
-194.000000
 40
7.000000
  0
CIRCLE
  8
0
 10
-246.516510
 20
-156.516510
 40
6.500000
  0
CIRCLE
  8
0
 10
-193.483490
 20
-156.516510
 40
6.500000
  0
CIRCLE
  8
0
 10
-193.483490
 20
-103.483498
 40
6.500000
  0
CIRCLE
  8
0
 10
-246.516510
 20
-103.483498
 40
6.500000
  0
CIRCLE
  8
0
 10
-246.516510
 20
-156.516510
 40
3.430000
  0
CIRCLE
  8
0
 10
-246.516510
 20
-103.483498
 40
3.430000
  0
CIRCLE
  8
0
 10
-193.483490
 20
-156.516510
 40
3.430000
  0
CIRCLE
  8
0
 10
-193.483490
 20
-103.483498
 40
3.430000
  0
CIRCLE
  8
0
 10
-284.000000
 20
-194.000000
 40
10.500000
  0
CIRCLE
  8
0
 10
-156.000000
 20
-194.000000
 40
7.000000
  0
CIRCLE
  8
0
 10
-156.000000
 20
-194.000000
 40
10.500000
  0
CIRCLE
  8
0
 10
-156.000000
 20
-66.000000
 40
7.000000
  0
CIRCLE
  8
0
 10
-156.000000
 20
-66.000000
 40
10.500000
  0
CIRCLE
  8
0
 10
-284.000000
 20
-66.000000
 40
7.000000
  0
CIRCLE
  8
0
 10
-284.000000
 20
-66.000000
 40
10.500000
  0
CIRCLE
  8
0
 62
     2
 10
-156.000000
 20
-194.000000
 40
5.600000
  0
CIRCLE
  8
0
 62
     2
 10
-156.000000
 20
-66.000000
 40
5.600000
  0
CIRCLE
  8
0
 62
     2
 10
-284.000000
 20
-66.000000
 40
5.600000
  0
CIRCLE
  8
0
 62
     2
 10
-284.000000
 20
-194.000000
 40
5.600000
  0
CIRCLE
  8
0
 62
     2
 10
-220.000000
 20
-130.000000
 40
17.250000
  0
ARC
  8
0
 10
59.000000
 20
156.500000
 40
1.000000
 50
90.000000
 51
180.000000
  0
ARC
  8
0
 10
59.000000
 20
83.500000
 40
1.000000
 50
180.000000
 51
270.000000
  0
ARC
  8
0
 10
71.385948
 20
61.500000
 40
15.885947
 50
159.743866
 51
200.256119
  0
ARC
  8
0
 10
71.385948
 20
50.500000
 40
15.885948
 50
159.743805
 51
200.256058
  0
ARC
  8
0
 10
266.614044
 20
50.500000
 40
15.885948
 50
339.743896
 51
20.256153
  0
ARC
  8
0
 10
266.614044
 20
61.500000
 40
15.885953
 50
339.743835
 51
20.256102
  0
ARC
  8
0
 10
71.385948
 20
189.500000
 40
15.885949
 50
159.743835
 51
200.256104
  0
ARC
  8
0
 10
71.385948
 20
178.500000
 40
15.885951
 50
159.743790
 51
200.256042
  0
ARC
  8
0
 10
266.614044
 20
189.500000
 40
15.885959
 50
339.743805
 51
20.256050
  0
ARC
  8
0
 10
266.614044
 20
178.500000
 40
15.885953
 50
339.743835
 51
20.256102
  0
CIRCLE
  8
0
 62
     2
 10
86.000000
 20
120.000000
 40
10.477500
  0
CIRCLE
  8
0
 10
86.000000
 20
120.000000
 40
9.315500
  0
CIRCLE
  8
0
 10
252.000000
 20
120.000000
 40
9.315500
  0
CIRCLE
  8
0
 62
     2
 10
252.000000
 20
120.000000
 40
10.477500
  0
POLYLINE
  8
0
 66
     1
  0
VERTEX
  8
0
 10
21.000000
 20
-121.753792
  0
VERTEX
  8
0
 10
21.206181
 20
-122.653839
  0
VERTEX
  8
0
 10
21.389400
 20
-123.559608
  0
VERTEX
  8
0
 10
21.549316
 20
-124.470375
  0
VERTEX
  8
0
 10
21.685581
 20
-125.385429
  0
VERTEX
  8
0
 10
21.797848
 20
-126.304054
  0
VERTEX
  8
0
 10
21.885769
 20
-127.225540
  0
VERTEX
  8
0
 10
21.948999
 20
-128.149170
  0
VERTEX
  8
0
 10
21.987192
 20
-129.074234
  0
VERTEX
  8
0
 10
22.000000
 20
-130.000000
  0
VERTEX
  8
0
 10
21.987192
 20
-130.925766
  0
VERTEX
  8
0
 10
21.948999
 20
-131.850830
  0
VERTEX
  8
0
 10
21.885769
 20
-132.774460
  0
VERTEX
  8
0
 10
21.797848
 20
-133.695953
  0
VERTEX
  8
0
 10
21.685581
 20
-134.614578
  0
VERTEX
  8
0
 10
21.549316
 20
-135.529633
  0
VERTEX
  8
0
 10
21.389400
 20
-136.440399
  0
VERTEX
  8
0
 10
21.206181
 20
-137.346161
  0
VERTEX
  8
0
 10
21.000000
 20
-138.246216
  0
SEQEND
  0
POLYLINE
  8
0
 66
     1
  0
VERTEX
  8
0
 10
281.517517
 20
-206.701706
  0
VERTEX
  8
0
 10
281.916992
 20
-205.965088
  0
VERTEX
  8
0
 10
282.227386
 20
-205.179413
  0
VERTEX
  8
0
 10
282.428467
 20
-204.361023
  0
VERTEX
  8
0
 10
282.500000
 20
-203.526291
  0
VERTEX
  8
0
 10
282.428467
 20
-202.691544
  0
VERTEX
  8
0
 10
282.227386
 20
-201.873154
  0
VERTEX
  8
0
 10
281.916992
 20
-201.087463
  0
VERTEX
  8
0
 10
281.517517
 20
-200.350845
  0
SEQEND
  0
POLYLINE
  8
0
 66
     1
  0
VERTEX
  8
0
 10
281.517517
 20
-200.350845
  0
VERTEX
  8
0
 10
281.771301
 20
-199.467636
  0
VERTEX
  8
0
 10
281.989197
 20
-198.573334
  0
VERTEX
  8
0
 10
282.170013
 20
-197.669769
  0
VERTEX
  8
0
 10
282.312683
 20
-196.758804
  0
VERTEX
  8
0
 10
282.415985
 20
-195.842285
  0
VERTEX
  8
0
 10
282.478790
 20
-194.922073
  0
VERTEX
  8
0
 10
282.500000
 20
-194.000000
  0
VERTEX
  8
0
 10
282.478790
 20
-193.077927
  0
VERTEX
  8
0
 10
282.415985
 20
-192.157715
  0
VERTEX
  8
0
 10
282.312683
 20
-191.241196
  0
VERTEX
  8
0
 10
282.170013
 20
-190.330215
  0
VERTEX
  8
0
 10
281.989197
 20
-189.426651
  0
VERTEX
  8
0
 10
281.771301
 20
-188.532349
  0
VERTEX
  8
0
 10
281.517517
 20
-187.649139
  0
SEQEND
  0
POLYLINE
  8
0
 66
     1
  0
VERTEX
  8
0
 10
281.517517
 20
-187.649139
  0
VERTEX
  8
0
 10
281.916992
 20
-186.912521
  0
VERTEX
  8
0
 10
282.227386
 20
-186.126846
  0
VERTEX
  8
0
 10
282.428467
 20
-185.308456
  0
VERTEX
  8
0
 10
282.500000
 20
-184.473724
  0
VERTEX
  8
0
 10
282.428467
 20
-183.638977
  0
VERTEX
  8
0
 10
282.227386
 20
-182.820587
  0
VERTEX
  8
0
 10
281.916992
 20
-182.034912
  0
VERTEX
  8
0
 10
281.517517
 20
-181.298294
  0
SEQEND
  0
POLYLINE
  8
0
 66
     1
  0
VERTEX
  8
0
 10
56.482483
 20
-181.298294
  0
VERTEX
  8
0
 10
56.083008
 20
-182.034912
  0
VERTEX
  8
0
 10
55.772606
 20
-182.820587
  0
VERTEX
  8
0
 10
55.571526
 20
-183.638977
  0
VERTEX
  8
0
 10
55.500000
 20
-184.473724
  0
VERTEX
  8
0
 10
55.571526
 20
-185.308472
  0
VERTEX
  8
0
 10
55.772606
 20
-186.126862
  0
VERTEX
  8
0
 10
56.083008
 20
-186.912537
  0
VERTEX
  8
0
 10
56.482483
 20
-187.649155
  0
SEQEND
  0
POLYLINE
  8
0
 66
     1
  0
VERTEX
  8
0
 10
56.482483
 20
-200.350861
  0
VERTEX
  8
0
 10
56.083008
 20
-201.087479
  0
VERTEX
  8
0
 10
55.772606
 20
-201.873154
  0
VERTEX
  8
0
 10
55.571526
 20
-202.691544
  0
VERTEX
  8
0
 10
55.500000
 20
-203.526276
  0
VERTEX
  8
0
 10
55.571526
 20
-204.361023
  0
VERTEX
  8
0
 10
55.772606
 20
-205.179413
  0
VERTEX
  8
0
 10
56.083008
 20
-205.965088
  0
VERTEX
  8
0
 10
56.482483
 20
-206.701706
  0
SEQEND
  0
POLYLINE
  8
0
 66
     1
  0
VERTEX
  8
0
 10
56.482483
 20
-187.649155
  0
VERTEX
  8
0
 10
56.228695
 20
-188.532364
  0
VERTEX
  8
0
 10
56.010811
 20
-189.426666
  0
VERTEX
  8
0
 10
55.829975
 20
-190.330231
  0
VERTEX
  8
0
 10
55.687328
 20
-191.241196
  0
VERTEX
  8
0
 10
55.584023
 20
-192.157715
  0
VERTEX
  8
0
 10
55.521194
 20
-193.077927
  0
VERTEX
  8
0
 10
55.500000
 20
-194.000000
  0
VERTEX
  8
0
 10
55.521194
 20
-194.922073
  0
VERTEX
  8
0
 10
55.584019
 20
-195.842285
  0
VERTEX
  8
0
 10
55.687328
 20
-196.758804
  0
VERTEX
  8
0
 10
55.829971
 20
-197.669785
  0
VERTEX
  8
0
 10
56.010811
 20
-198.573349
  0
VERTEX
  8
0
 10
56.228695
 20
-199.467651
  0
VERTEX
  8
0
 10
56.482483
 20
-200.350861
  0
SEQEND
  0
POLYLINE
  8
0
 66
     1
  0
VERTEX
  8
0
 10
56.482483
 20
-53.298294
  0
VERTEX
  8
0
 10
56.083008
 20
-54.034912
  0
VERTEX
  8
0
 10
55.772606
 20
-54.820595
  0
VERTEX
  8
0
 10
55.571526
 20
-55.638981
  0
VERTEX
  8
0
 10
55.500000
 20
-56.473724
  0
VERTEX
  8
0
 10
55.571526
 20
-57.308468
  0
VERTEX
  8
0
 10
55.772606
 20
-58.126854
  0
VERTEX
  8
0
 10
56.083008
 20
-58.912537
  0
VERTEX
  8
0
 10
56.482483
 20
-59.649155
  0
SEQEND
  0
POLYLINE
  8
0
 66
     1
  0
VERTEX
  8
0
 10
56.482483
 20
-59.649155
  0
VERTEX
  8
0
 10
56.228695
 20
-60.532360
  0
VERTEX
  8
0
 10
56.010811
 20
-61.426670
  0
VERTEX
  8
0
 10
55.829975
 20
-62.330231
  0
VERTEX
  8
0
 10
55.687328
 20
-63.241196
  0
VERTEX
  8
0
 10
55.584023
 20
-64.157715
  0
VERTEX
  8
0
 10
55.521194
 20
-65.077927
  0
VERTEX
  8
0
 10
55.500000
 20
-66.000000
  0
VERTEX
  8
0
 10
55.521194
 20
-66.922073
  0
VERTEX
  8
0
 10
55.584019
 20
-67.842293
  0
VERTEX
  8
0
 10
55.687328
 20
-68.758812
  0
VERTEX
  8
0
 10
55.829971
 20
-69.669777
  0
VERTEX
  8
0
 10
56.010811
 20
-70.573341
  0
VERTEX
  8
0
 10
56.228695
 20
-71.467651
  0
VERTEX
  8
0
 10
56.482483
 20
-72.350861
  0
SEQEND
  0
POLYLINE
  8
0
 66
     1
  0
VERTEX
  8
0
 10
56.482483
 20
-72.350861
  0
VERTEX
  8
0
 10
56.083008
 20
-73.087479
  0
VERTEX
  8
0
 10
55.772606
 20
-73.873154
  0
VERTEX
  8
0
 10
55.571526
 20
-74.691544
  0
VERTEX
  8
0
 10
55.500000
 20
-75.526283
  0
VERTEX
  8
0
 10
55.571526
 20
-76.361023
  0
VERTEX
  8
0
 10
55.772606
 20
-77.179413
  0
VERTEX
  8
0
 10
56.083008
 20
-77.965088
  0
VERTEX
  8
0
 10
56.482483
 20
-78.701706
  0
SEQEND
  0
POLYLINE
  8
0
 66
     1
  0
VERTEX
  8
0
 10
281.517517
 20
-78.701714
  0
VERTEX
  8
0
 10
281.916992
 20
-77.965096
  0
VERTEX
  8
0
 10
282.227386
 20
-77.179413
  0
VERTEX
  8
0
 10
282.428467
 20
-76.361023
  0
VERTEX
  8
0
 10
282.500000
 20
-75.526283
  0
VERTEX
  8
0
 10
282.428467
 20
-74.691544
  0
VERTEX
  8
0
 10
282.227386
 20
-73.873146
  0
VERTEX
  8
0
 10
281.916992
 20
-73.087463
  0
VERTEX
  8
0
 10
281.517517
 20
-72.350845
  0
SEQEND
  0
POLYLINE
  8
0
 66
     1
  0
VERTEX
  8
0
 10
281.517517
 20
-72.350845
  0
VERTEX
  8
0
 10
281.771301
 20
-71.467644
  0
VERTEX
  8
0
 10
281.989197
 20
-70.573334
  0
VERTEX
  8
0
 10
282.170013
 20
-69.669769
  0
VERTEX
  8
0
 10
282.312683
 20
-68.758804
  0
VERTEX
  8
0
 10
282.415985
 20
-67.842285
  0
VERTEX
  8
0
 10
282.478790
 20
-66.922073
  0
VERTEX
  8
0
 10
282.500000
 20
-66.000000
  0
VERTEX
  8
0
 10
282.478790
 20
-65.077927
  0
VERTEX
  8
0
 10
282.415985
 20
-64.157707
  0
VERTEX
  8
0
 10
282.312683
 20
-63.241188
  0
VERTEX
  8
0
 10
282.170013
 20
-62.330223
  0
VERTEX
  8
0
 10
281.989197
 20
-61.426659
  0
VERTEX
  8
0
 10
281.771301
 20
-60.532345
  0
VERTEX
  8
0
 10
281.517517
 20
-59.649139
  0
SEQEND
  0
POLYLINE
  8
0
 66
     1
  0
VERTEX
  8
0
 10
281.517517
 20
-59.649139
  0
VERTEX
  8
0
 10
281.916992
 20
-58.912525
  0
VERTEX
  8
0
 10
282.227386
 20
-58.126846
  0
VERTEX
  8
0
 10
282.428467
 20
-57.308464
  0
VERTEX
  8
0
 10
282.500000
 20
-56.473724
  0
VERTEX
  8
0
 10
282.428467
 20
-55.638985
  0
VERTEX
  8
0
 10
282.227386
 20
-54.820595
  0
VERTEX
  8
0
 10
281.916992
 20
-54.034912
  0
VERTEX
  8
0
 10
281.517517
 20
-53.298294
  0
SEQEND
  0
TEXT
  8
0
 10
-369.785309
 20
256.649994
 40
9.000000
  1
SD CYLINDER
 50
0.000000
 41
1.052632
 51
0.000000
  7
STANDARD
  0
TEXT
  8
0
 10
242.014816
 20
-274.500000
 40
12.500000
  1
KOGANEI CORP.
 50
0.000000
 41
1.052632
 51
0.000000
  7
STANDARD
  0
TEXT
  8
0
 10
251.264664
 20
256.649994
 40
9.000000
  1
DATE: AUG ,1993
 50
0.000000
 41
1.052632
 51
0.000000
  7
STANDARD
  0
TEXT
  8
0
 10
-384.785309
 20
224.149994
 40
9.000000
  1
MODEL:KA0SDZ140*100
 50
0.000000
 41
1.052632
 51
0.000000
  7
STANDARD
  0
ENDSEC
  0
EOF
