  0
SECTION
  2
HEADER
  0
ENDSEC
  0
SECTION
  2
TABLES
  0
TABLE
  2
LTYPE
 70
     4
  0
LTYPE
  2
CONTINUOUS
 70
    64
  3
Solid line
 72
    65
 73
     0
 40
0.000000
  0
LTYPE
  2
DASHED
 70
    64
  3
__ __ __ __ __ __ __ __ __ __ __ __ __ __ __
 72
    65
 73
     2
 40
3.500000
 49
2.000000
 49
-1.500000
  0
LTYPE
  2
CENTER
 70
    64
  3
____ _ ____ _ ____ _ ____ _ ____ _ ____ _ ____
 72
    65
 73
     4
 40
17.500000
 49
13.000000
 49
-1.500000
 49
1.500000
 49
-1.500000
  0
LTYPE
  2
PHANTOM
 70
    64
  3
_____ _ _ _____ _ _ _____ _ _ _____ _ _ ____  
 72
    65
 73
     6
 40
15.500000
 49
8.000000
 49
-1.500000
 49
1.500000
 49
-1.500000
 49
1.500000
 49
-1.500000
  0
LTYPE
  2
DASHED1
 70
    64
  3
__ __ __ __ __ __ __ __ __ __ __ __ __ __ __
 72
    65
 73
     2
 40
1.500000
 49
1.000000
 49
-0.500000
  0
LTYPE
  2
DASHED2
 70
    64
  3
__ __ __ __ __ __ __ __ __ __ __ __ __ __ __
 72
    65
 73
     2
 40
3.500000
 49
2.500000
 49
-1.000000
  0
LTYPE
  2
DASHED3
 70
    64
  3
__ __ __ __ __ __ __ __ __ __ __ __ __ __ __
 72
    65
 73
     2
 40
6.000000
 49
4.000000
 49
-2.000000
  0
LTYPE
  2
DASHED4
 70
    64
  3
__ __ __ __ __ __ __ __ __ __ __ __ __ __ __
 72
    65
 73
     2
 40
12.000000
 49
10.000000
 49
-2.000000
  0
LTYPE
  2
DASHED5
 70
    64
  3
__ __ __ __ __ __ __ __ __ __ __ __ __ __ __
 72
    65
 73
     2
 40
17.000000
 49
15.000000
 49
-2.000000
  0
LTYPE
  2
DASHED6
 70
    64
  3
__ __ __ __ __ __ __ __ __ __ __ __ __ __ __
 72
    65
 73
     2
 40
29.000000
 49
27.000000
 49
-2.000000
  0
LTYPE
  2
PHANTOM1
 70
    64
  3
_____ _ _ _____ _ _ _____ _ _ _____ _ _ ____  
 72
    65
 73
     6
 40
31.000000
 49
25.000000
 49
-1.500000
 49
1.000000
 49
-1.000000
 49
1.000000
 49
-1.500000
  0
LTYPE
  2
PHANTOM2
 70
    64
  3
_____ _ _ _____ _ _ _____ _ _ _____ _ _ ____  
 72
    65
 73
     6
 40
36.000000
 49
27.000000
 49
-1.500000
 49
2.500000
 49
-1.000000
 49
2.500000
 49
-1.500000
  0
LTYPE
  2
PHANTOM3
 70
    64
  3
_____ _ _ _____ _ _ _____ _ _ _____ _ _ ____  
 72
    65
 73
     6
 40
78.000000
 49
64.000000
 49
-2.000000
 49
4.000000
 49
-2.000000
 49
4.000000
 49
-2.000000
  0
LTYPE
  2
CENTER1
 70
    64
  3
____ _ ____ _ ____ _ ____ _ ____ _ ____ _ ____
 72
    65
 73
     4
 40
19.000000
 49
14.000000
 49
-1.000000
 49
3.000000
 49
-1.000000
  0
LTYPE
  2
CENTER2
 70
    64
  3
____ _ ____ _ ____ _ ____ _ ____ _ ____ _ ____
 72
    65
 73
     4
 40
28.500000
 49
25.000000
 49
-1.000000
 49
1.500000
 49
-1.000000
  0
LTYPE
  2
CENTER3
 70
    64
  3
____ _ ____ _ ____ _ ____ _ ____ _ ____ _ ____
 72
    65
 73
     4
 40
31.500000
 49
27.000000
 49
-1.000000
 49
2.500000
 49
-1.000000
  0
LTYPE
  2
CENTER4
 70
    64
  3
____ _ ____ _ ____ _ ____ _ ____ _ ____ _ ____
 72
    65
 73
     4
 40
50.000000
 49
45.000000
 49
-1.000000
 49
3.000000
 49
-1.000000
  0
LTYPE
  2
CENTER5
 70
    64
  3
____ _ ____ _ ____ _ ____ _ ____ _ ____ _ ____
 72
    65
 73
     4
 40
100.000000
 49
92.000000
 49
-2.000000
 49
4.000000
 49
-2.000000
  0
LTYPE
  2
SBK1
 70
    64
  3
______ _ _ _ ______ _ _ _ ______ _ _ _ _____  
 72
    65
 73
     8
 40
60.500000
 49
45.000000
 49
-2.000000
 49
2.500000
 49
-2.000000
 49
2.500000
 49
-2.000000
 49
2.500000
 49
-2.000000
  0
LTYPE
  2
SBK2
 70
    64
  3
______ _ _ _ ______ _ _ _ ______ _ _ _ _____  
 72
    65
 73
     8
 40
84.000000
 49
64.000000
 49
-2.000000
 49
4.000000
 49
-2.000000
 49
4.000000
 49
-2.000000
 49
4.000000
 49
-2.000000
  0
LTYPE
  2
STCH
 70
    64
  3
__ __ __ __ __ __ __ __ __ __ __ __ __ __ __
 72
    65
 73
     2
 40
3.000000
 49
1.000000
 49
-2.000000
  0
LTYPE
  2
MTCH
 70
    64
  3
_____ _ _ _____ _ _ _____ _ _ _____ _ _ ____  
 72
    65
 73
     6
 40
80.000000
 49
66.000000
 49
-2.000000
 49
4.000000
 49
-2.000000
 49
4.000000
 49
-2.000000
  0
ENDTAB
  0
TABLE
  2
LAYER
 70
     1
  0
LAYER
  2
0
 70
     0
 62
     7
  6
CONTINUOUS
  0
ENDTAB
  0
TABLE
  2
STYLE
 70
     1
  0
STYLE
  2
STANDARD
 70
     0
 40
0.000000
 41
1.000000
 50
0.000000
 71
     0
 42
0.200000
  3
txt
  4
BIGFONT
  0
ENDTAB
  0
TABLE
  2
VIEW
 70
     0
  0
ENDTAB
  0
ENDSEC
  0
SECTION
  2
BLOCKS
  0
ENDSEC
  0
SECTION
  2
ENTITIES
  0
LINE
  8
0
 10
574.500000
 20
400.500000
 11
574.500000
 21
-400.500000
  0
LINE
  8
0
 10
-564.500000
 20
400.500000
 11
574.500000
 21
400.500000
  0
LINE
  8
0
 10
-564.500000
 20
-400.500000
 11
574.500000
 21
-400.500000
  0
LINE
  8
0
 10
-564.500000
 20
400.500000
 11
-564.500000
 21
-400.500000
  0
LINE
  8
0
 10
-564.500000
 20
370.500000
 11
-334.500000
 21
370.500000
  0
LINE
  8
0
 10
344.500000
 20
370.500000
 11
574.500000
 21
370.500000
  0
LINE
  8
0
 10
344.500000
 20
-370.500000
 11
574.500000
 21
-370.500000
  0
LINE
  8
0
 10
344.500000
 20
-370.500000
 11
344.500000
 21
-400.500000
  0
LINE
  8
0
 10
344.500000
 20
400.500000
 11
344.500000
 21
370.500000
  0
LINE
  8
0
 10
-334.500000
 20
400.500000
 11
-334.500000
 21
370.500000
  0
LINE
  8
0
  6
CENTER
 62
     2
 10
-160.838272
 20
-140.000000
 11
433.124268
 21
-140.000000
  0
LINE
  8
0
 10
-21.000000
 20
-38.000000
 11
-21.000000
 21
-242.000000
  0
LINE
  8
0
  6
CENTER
 62
     2
 10
-2.500000
 20
-32.759338
 11
-2.500000
 21
-151.300003
  0
LINE
  8
0
  6
DASHED
 62
     2
 10
166.404907
 20
-139.250000
 11
176.595093
 21
-139.250000
  0
LINE
  8
0
  6
DASHED
 62
     2
 10
166.404907
 20
-140.750000
 11
176.595093
 21
-140.750000
  0
LINE
  8
0
  6
CENTER
 62
     2
 10
171.500000
 20
-31.510620
 11
171.500000
 21
-153.000000
  0
LINE
  8
0
 10
190.000000
 20
-38.000000
 11
190.000000
 21
-242.000000
  0
LINE
  8
0
 10
-7.595093
 20
-139.250000
 11
2.595093
 21
-139.250000
  0
LINE
  8
0
 10
-7.595093
 20
-140.750000
 11
2.595093
 21
-140.750000
  0
LINE
  8
0
 10
18.000000
 20
-38.000000
 11
18.000000
 21
-242.000000
  0
LINE
  8
0
 10
151.000000
 20
-38.000000
 11
151.000000
 21
-242.000000
  0
LINE
  8
0
  6
DASHED
 62
     2
 10
184.721512
 20
-38.000015
 11
184.229019
 21
-52.100063
  0
LINE
  8
0
  6
DASHED
 62
     2
 10
158.771973
 20
-52.100044
 11
158.279312
 21
-38.000019
  0
LINE
  8
0
  6
DASHED
 62
     2
 10
160.000000
 20
-39.500000
 11
183.000000
 21
-39.500000
  0
LINE
  8
0
  6
DASHED
 62
     2
 10
160.000000
 20
-39.500000
 11
160.000000
 21
-52.100006
  0
LINE
  8
0
  6
DASHED
 62
     2
 10
183.000000
 20
-39.500000
 11
183.000000
 21
-52.100006
  0
LINE
  8
0
  6
DASHED
 62
     2
 10
184.720627
 20
-38.000084
 11
183.000153
 21
-39.500065
  0
LINE
  8
0
  6
DASHED
 62
     2
 10
158.280014
 20
-37.999352
 11
160.000504
 21
-39.499352
  0
LINE
  8
0
 10
-31.000000
 20
-83.500000
 11
-31.000000
 21
-196.500000
  0
LINE
  8
0
 10
-30.000000
 20
-82.500000
 11
-30.000000
 21
-197.500000
  0
LINE
  8
0
 10
-30.000000
 20
-197.500000
 11
-21.000000
 21
-197.500000
  0
LINE
  8
0
 10
-30.000000
 20
-82.500000
 11
-21.000000
 21
-82.500000
  0
LINE
  8
0
 10
-30.999990
 20
-83.500015
 11
-30.000010
 21
-82.500031
  0
LINE
  8
0
 10
-31.000006
 20
-196.499985
 11
-30.000006
 21
-197.499985
  0
LINE
  8
0
 10
-61.000000
 20
-107.000000
 11
-61.000000
 21
-173.000000
  0
LINE
  8
0
 10
-34.000000
 20
-94.000000
 11
-34.000000
 21
-98.766022
  0
LINE
  8
0
 10
-33.000000
 20
-93.000000
 11
-31.000000
 21
-93.000000
  0
LINE
  8
0
 10
-33.000000
 20
-187.000000
 11
-31.000000
 21
-187.000000
  0
LINE
  8
0
 10
-41.000008
 20
-105.259384
 11
-59.961540
 21
-105.961662
  0
LINE
  8
0
 10
-59.961536
 20
-174.038498
 11
-40.999985
 21
-174.740768
  0
LINE
  8
0
 10
-40.000000
 20
-165.233978
 11
-31.000000
 21
-165.233978
  0
LINE
  8
0
 10
-40.000000
 20
-181.233978
 11
-31.000000
 21
-181.233978
  0
LINE
  8
0
 10
-41.000000
 20
-166.233978
 11
-41.000000
 21
-180.233978
  0
LINE
  8
0
 10
-41.000008
 20
-166.233978
 11
-40.000008
 21
-165.233963
  0
LINE
  8
0
 10
-40.000015
 20
-181.233994
 11
-41.000015
 21
-180.233978
  0
LINE
  8
0
 10
-40.000000
 20
-165.233978
 11
-40.000000
 21
-181.233978
  0
LINE
  8
0
 10
-40.000000
 20
-114.766022
 11
-31.000000
 21
-114.766022
  0
LINE
  8
0
 10
-41.000000
 20
-99.766022
 11
-41.000000
 21
-113.766022
  0
LINE
  8
0
 10
-40.000011
 20
-114.766045
 11
-41.000011
 21
-113.766037
  0
LINE
  8
0
 10
-40.000000
 20
-98.766022
 11
-40.000000
 21
-114.766022
  0
LINE
  8
0
 10
-40.999958
 20
-99.766029
 11
-39.999977
 21
-98.766045
  0
LINE
  8
0
 10
-40.000000
 20
-98.766022
 11
-31.000000
 21
-98.766022
  0
LINE
  8
0
 10
-34.000000
 20
-181.233978
 11
-34.000000
 21
-186.000000
  0
LINE
  8
0
 10
-34.000000
 20
-114.766022
 11
-34.000000
 21
-165.233978
  0
LINE
  8
0
 10
-21.000000
 20
-38.000000
 11
18.000000
 21
-38.000000
  0
LINE
  8
0
  6
CENTER
 62
     2
 10
-59.682892
 20
-59.000000
 11
232.682495
 21
-59.000000
  0
LINE
  8
0
 10
-39.244690
 20
-43.415283
 11
-25.600006
 21
-43.415283
  0
LINE
  8
0
 10
-39.177872
 20
-74.592224
 11
-25.600006
 21
-74.592224
  0
LINE
  8
0
 10
-25.600006
 20
-74.000000
 11
-21.000000
 21
-74.000000
  0
LINE
  8
0
 10
-25.600006
 20
-44.000000
 11
-21.000000
 21
-44.000000
  0
LINE
  8
0
 10
-25.600006
 20
-43.415283
 11
-25.600006
 21
-74.592224
  0
LINE
  8
0
 10
-40.600006
 20
-45.762787
 11
-40.600006
 21
-72.129013
  0
LINE
  8
0
 10
-39.227982
 20
-51.209534
 11
-25.600006
 21
-51.209534
  0
LINE
  8
0
 10
-39.194580
 20
-66.798004
 11
-25.600006
 21
-66.798004
  0
LINE
  8
0
 10
-39.244705
 20
-43.415257
 11
-40.600021
 21
-45.762733
  0
LINE
  8
0
 10
-40.599941
 20
-72.128990
 11
-39.177807
 21
-74.592194
  0
LINE
  8
0
 10
-55.000000
 20
-50.000000
 11
-40.600006
 21
-50.000000
  0
LINE
  8
0
 10
-55.000000
 20
-68.000000
 11
-40.600006
 21
-68.000000
  0
LINE
  8
0
 10
-56.000000
 20
-51.000000
 11
-56.000000
 21
-67.000000
  0
LINE
  8
0
 10
-54.999989
 20
-50.000050
 11
-55.999989
 21
-51.000050
  0
LINE
  8
0
 10
-56.000057
 20
-67.000053
 11
-55.000057
 21
-68.000053
  0
LINE
  8
0
 10
-55.000015
 20
-50.000000
 11
-55.000015
 21
-68.000000
  0
LINE
  8
0
 10
-39.244690
 20
-205.415298
 11
-25.600006
 21
-205.415298
  0
LINE
  8
0
 10
-39.177872
 20
-236.592224
 11
-25.600006
 21
-236.592224
  0
LINE
  8
0
 10
-25.600006
 20
-236.000000
 11
-21.000000
 21
-236.000000
  0
LINE
  8
0
 10
-25.600006
 20
-206.000000
 11
-21.000000
 21
-206.000000
  0
LINE
  8
0
 10
-25.600006
 20
-205.415298
 11
-25.600006
 21
-236.592224
  0
LINE
  8
0
 10
-40.600006
 20
-207.762787
 11
-40.600006
 21
-234.129013
  0
LINE
  8
0
 10
-39.227982
 20
-213.209534
 11
-25.600006
 21
-213.209534
  0
LINE
  8
0
 10
-39.194580
 20
-228.798004
 11
-25.600006
 21
-228.798004
  0
LINE
  8
0
 10
-39.244640
 20
-205.415298
 11
-40.599953
 21
-207.762772
  0
LINE
  8
0
 10
-40.600018
 20
-234.129028
 11
-39.177883
 21
-236.592239
  0
LINE
  8
0
 10
-55.000000
 20
-212.000000
 11
-40.600006
 21
-212.000000
  0
LINE
  8
0
 10
-55.000000
 20
-230.000000
 11
-40.600006
 21
-230.000000
  0
LINE
  8
0
 10
-56.000000
 20
-213.000000
 11
-56.000000
 21
-229.000000
  0
LINE
  8
0
 10
-55.000011
 20
-212.000031
 11
-56.000011
 21
-213.000031
  0
LINE
  8
0
 10
-56.000008
 20
-229.000000
 11
-55.000008
 21
-230.000000
  0
LINE
  8
0
 10
-55.000015
 20
-212.000000
 11
-55.000015
 21
-230.000000
  0
LINE
  8
0
 10
208.244690
 20
-236.584747
 11
194.599976
 21
-236.584747
  0
LINE
  8
0
 10
208.177856
 20
-205.407837
 11
194.599976
 21
-205.407837
  0
LINE
  8
0
 10
194.599976
 20
-206.000046
 11
190.000000
 21
-206.000046
  0
LINE
  8
0
 10
194.599976
 20
-236.000046
 11
190.000000
 21
-236.000046
  0
LINE
  8
0
 10
194.600037
 20
-236.584702
 11
194.600037
 21
-205.407776
  0
LINE
  8
0
 10
209.600037
 20
-234.237213
 11
209.600037
 21
-207.870987
  0
LINE
  8
0
 10
208.227966
 20
-228.790512
 11
194.599976
 21
-228.790512
  0
LINE
  8
0
 10
208.194580
 20
-213.202042
 11
194.599976
 21
-213.202042
  0
LINE
  8
0
 10
208.245026
 20
-236.584915
 11
209.600342
 21
-234.237442
  0
LINE
  8
0
 10
209.600281
 20
-207.870895
 11
208.178146
 21
-205.407700
  0
LINE
  8
0
 10
224.000000
 20
-230.000046
 11
209.599976
 21
-230.000046
  0
LINE
  8
0
 10
224.000000
 20
-212.000046
 11
209.599976
 21
-212.000046
  0
LINE
  8
0
 10
225.000000
 20
-229.000000
 11
225.000000
 21
-213.000000
  0
LINE
  8
0
 10
223.999832
 20
-229.999786
 11
224.999863
 21
-228.999756
  0
LINE
  8
0
 10
224.999817
 20
-213.000092
 11
223.999832
 21
-212.000122
  0
LINE
  8
0
 10
224.000000
 20
-230.000000
 11
224.000000
 21
-212.000000
  0
LINE
  8
0
 10
224.000000
 20
-68.000000
 11
224.000000
 21
-50.000000
  0
LINE
  8
0
 10
208.244690
 20
-74.584747
 11
194.599976
 21
-74.584747
  0
LINE
  8
0
 10
208.177856
 20
-43.407837
 11
194.599976
 21
-43.407837
  0
LINE
  8
0
 10
194.599976
 20
-44.000046
 11
190.000000
 21
-44.000046
  0
LINE
  8
0
 10
194.599976
 20
-74.000046
 11
190.000000
 21
-74.000046
  0
LINE
  8
0
 10
194.600037
 20
-74.584702
 11
194.600037
 21
-43.407776
  0
LINE
  8
0
 10
209.600037
 20
-72.237213
 11
209.600037
 21
-45.870987
  0
LINE
  8
0
 10
208.227966
 20
-66.790512
 11
194.599976
 21
-66.790512
  0
LINE
  8
0
 10
208.194580
 20
-51.202042
 11
194.599976
 21
-51.202042
  0
LINE
  8
0
 10
208.244873
 20
-74.584900
 11
209.600189
 21
-72.237419
  0
LINE
  8
0
 10
209.600204
 20
-45.870911
 11
208.178085
 21
-43.407726
  0
LINE
  8
0
 10
224.000000
 20
-68.000046
 11
209.599976
 21
-68.000046
  0
LINE
  8
0
 10
224.000000
 20
-50.000046
 11
209.599976
 21
-50.000046
  0
LINE
  8
0
 10
225.000000
 20
-67.000000
 11
225.000000
 21
-51.000000
  0
LINE
  8
0
 10
223.999832
 20
-67.999878
 11
224.999817
 21
-66.999901
  0
LINE
  8
0
 10
224.999756
 20
-51.000237
 11
223.999756
 21
-50.000233
  0
LINE
  8
0
  6
CENTER
 62
     2
 10
-59.258110
 20
-221.000000
 11
230.216614
 21
-221.000000
  0
LINE
  8
0
 10
18.000000
 20
-68.000000
 11
151.000000
 21
-68.000000
  0
LINE
  8
0
 10
18.000000
 20
-50.000000
 11
151.000000
 21
-50.000000
  0
LINE
  8
0
 10
18.000000
 20
-230.000000
 11
151.000000
 21
-230.000000
  0
LINE
  8
0
 10
18.000000
 20
-212.000000
 11
151.000000
 21
-212.000000
  0
LINE
  8
0
 10
151.000000
 20
-38.000000
 11
190.000000
 21
-38.000000
  0
LINE
  8
0
  6
DASHED
 62
     2
 10
-15.720311
 20
-37.999779
 11
-13.999821
 21
-39.499783
  0
LINE
  8
0
  6
DASHED
 62
     2
 10
10.720662
 20
-38.000008
 11
10.228168
 21
-52.100021
  0
LINE
  8
0
  6
DASHED
 62
     2
 10
-15.227874
 20
-52.100010
 11
-15.720536
 21
-37.999996
  0
LINE
  8
0
  6
DASHED
 62
     2
 10
-14.000000
 20
-39.500000
 11
9.000000
 21
-39.500000
  0
LINE
  8
0
  6
DASHED
 62
     2
 10
-14.000000
 20
-39.500000
 11
-14.000000
 21
-52.100006
  0
LINE
  8
0
  6
DASHED
 62
     2
 10
9.000000
 20
-39.500000
 11
9.000000
 21
-52.100006
  0
LINE
  8
0
  6
DASHED
 62
     2
 10
10.720433
 20
-37.999893
 11
8.999919
 21
-39.499916
  0
LINE
  8
0
 10
-21.000000
 20
-242.000000
 11
18.000000
 21
-242.000000
  0
LINE
  8
0
 10
151.000000
 20
-242.000000
 11
190.000000
 21
-242.000000
  0
LINE
  8
0
 10
18.000000
 20
-43.500000
 11
151.000000
 21
-43.500000
  0
LINE
  8
0
 10
-85.669876
 20
-130.726379
 11
-73.000000
 21
-130.726379
  0
LINE
  8
0
 10
-85.669876
 20
-149.273621
 11
-73.000000
 21
-149.273621
  0
LINE
  8
0
 10
-156.000000
 20
-120.750000
 11
-156.000000
 21
-159.250000
  0
LINE
  8
0
 10
-155.250015
 20
-160.000000
 11
-90.000000
 21
-160.000000
  0
LINE
  8
0
 10
-155.250015
 20
-120.000000
 11
-90.000000
 21
-120.000000
  0
LINE
  8
0
 10
-85.669876
 20
-162.500000
 11
-61.000000
 21
-162.500000
  0
LINE
  8
0
 10
-85.669876
 20
-117.500000
 11
-61.000000
 21
-117.500000
  0
LINE
  8
0
 10
-93.000000
 20
-120.000000
 11
-93.000000
 21
-160.000000
  0
LINE
  8
0
 10
-90.000000
 20
-120.000000
 11
-90.000000
 21
-160.000000
  0
LINE
  8
0
 10
-90.000031
 20
-119.999992
 11
-85.669907
 21
-117.499992
  0
LINE
  8
0
 10
-90.000008
 20
-160.000015
 11
-85.669884
 21
-162.500000
  0
LINE
  8
0
 10
-85.669876
 20
-162.500000
 11
-85.669876
 21
-149.273621
  0
LINE
  8
0
 10
-73.000000
 20
-130.726379
 11
-73.000000
 21
-149.273621
  0
LINE
  8
0
 10
-85.669876
 20
-130.726379
 11
-85.669876
 21
-117.500000
  0
LINE
  8
0
 62
     2
 10
-73.000000
 20
-130.726379
 11
-85.669861
 21
-149.273605
  0
LINE
  8
0
 62
     2
 10
-85.669884
 20
-130.726364
 11
-73.000008
 21
-149.273621
  0
LINE
  8
0
 10
-60.999989
 20
-107.000023
 11
-59.961525
 21
-105.961555
  0
LINE
  8
0
 10
-61.000027
 20
-172.999985
 11
-59.961559
 21
-174.038452
  0
LINE
  8
0
 10
-59.961548
 20
-105.961548
 11
-59.961548
 21
-174.038467
  0
LINE
  8
0
 62
     2
 10
-156.000000
 20
-159.250000
 11
-93.000000
 21
-159.250000
  0
LINE
  8
0
 62
     2
 10
-92.999985
 20
-159.249985
 11
-91.392891
 21
-159.999954
  0
LINE
  8
0
 62
     2
 10
-56.000000
 20
-228.600006
 11
-40.600006
 21
-228.600006
  0
LINE
  8
0
 62
     2
 10
-56.000000
 20
-213.399994
 11
-40.600006
 21
-213.399994
  0
LINE
  8
0
 62
     2
 10
-56.000000
 20
-66.600006
 11
-40.600006
 21
-66.600006
  0
LINE
  8
0
 62
     2
 10
-56.000000
 20
-51.399994
 11
-40.600006
 21
-51.399994
  0
LINE
  8
0
 62
     2
 10
225.000000
 20
-51.400040
 11
209.599976
 21
-51.400040
  0
LINE
  8
0
 62
     2
 10
225.000000
 20
-66.600052
 11
209.599976
 21
-66.600052
  0
LINE
  8
0
 62
     2
 10
225.000000
 20
-228.600037
 11
209.599976
 21
-228.600037
  0
LINE
  8
0
 62
     2
 10
225.000000
 20
-213.400055
 11
209.599976
 21
-213.400055
  0
LINE
  8
0
 10
18.000000
 20
-236.500000
 11
151.000000
 21
-236.500000
  0
LINE
  8
0
 10
200.000000
 20
-83.500000
 11
200.000000
 21
-196.500000
  0
LINE
  8
0
 10
199.000000
 20
-82.500000
 11
199.000000
 21
-197.500000
  0
LINE
  8
0
 10
199.000000
 20
-197.500000
 11
190.000000
 21
-197.500000
  0
LINE
  8
0
 10
199.000000
 20
-82.500000
 11
190.000000
 21
-82.500000
  0
LINE
  8
0
 10
199.999512
 20
-83.500542
 11
198.999512
 21
-82.500549
  0
LINE
  8
0
 10
199.999969
 20
-196.499924
 11
198.999954
 21
-197.499939
  0
LINE
  8
0
 10
230.000000
 20
-107.000000
 11
230.000000
 21
-173.000000
  0
LINE
  8
0
 10
203.000000
 20
-94.000000
 11
203.000000
 21
-98.766022
  0
LINE
  8
0
 10
202.000000
 20
-93.000000
 11
200.000000
 21
-93.000000
  0
LINE
  8
0
 10
202.000000
 20
-187.000000
 11
200.000000
 21
-187.000000
  0
LINE
  8
0
 10
209.999939
 20
-105.259232
 11
228.961487
 21
-105.961517
  0
LINE
  8
0
 10
228.961487
 20
-174.038467
 11
209.999939
 21
-174.740738
  0
LINE
  8
0
 10
209.000000
 20
-165.233978
 11
200.000000
 21
-165.233978
  0
LINE
  8
0
 10
209.000000
 20
-181.233978
 11
200.000000
 21
-181.233978
  0
LINE
  8
0
 10
210.000000
 20
-166.233978
 11
210.000000
 21
-180.233978
  0
LINE
  8
0
 10
209.999924
 20
-166.234055
 11
208.999939
 21
-165.234070
  0
LINE
  8
0
 10
208.999863
 20
-181.233871
 11
209.999863
 21
-180.233871
  0
LINE
  8
0
 10
209.000000
 20
-165.233978
 11
209.000000
 21
-181.233978
  0
LINE
  8
0
 10
209.000000
 20
-114.766022
 11
200.000000
 21
-114.766022
  0
LINE
  8
0
 10
210.000000
 20
-99.766022
 11
210.000000
 21
-113.766022
  0
LINE
  8
0
 10
208.999908
 20
-114.765953
 11
209.999939
 21
-113.765930
  0
LINE
  8
0
 10
209.000000
 20
-98.766022
 11
209.000000
 21
-114.766022
  0
LINE
  8
0
 10
209.999802
 20
-99.766129
 11
208.999817
 21
-98.766167
  0
LINE
  8
0
 10
209.000000
 20
-98.766022
 11
200.000000
 21
-98.766022
  0
LINE
  8
0
 10
203.000000
 20
-181.233978
 11
203.000000
 21
-186.000000
  0
LINE
  8
0
 10
203.000000
 20
-114.766022
 11
203.000000
 21
-165.233978
  0
LINE
  8
0
 10
354.669861
 20
-130.726379
 11
342.000000
 21
-130.726379
  0
LINE
  8
0
 10
354.669861
 20
-149.273621
 11
342.000000
 21
-149.273621
  0
LINE
  8
0
 10
425.000000
 20
-120.750000
 11
425.000000
 21
-159.250000
  0
LINE
  8
0
 10
354.669861
 20
-162.500000
 11
230.000000
 21
-162.500000
  0
LINE
  8
0
 10
354.669861
 20
-117.500000
 11
230.000000
 21
-117.500000
  0
LINE
  8
0
 10
362.000000
 20
-120.000000
 11
362.000000
 21
-160.000000
  0
LINE
  8
0
 10
359.000000
 20
-120.000000
 11
359.000000
 21
-160.000000
  0
LINE
  8
0
 10
359.000366
 20
-119.999382
 11
354.670288
 21
-117.499390
  0
LINE
  8
0
 10
359.000153
 20
-160.000412
 11
354.670044
 21
-162.500397
  0
LINE
  8
0
 10
354.669861
 20
-162.500000
 11
354.669861
 21
-149.273621
  0
LINE
  8
0
 10
342.000000
 20
-130.726379
 11
342.000000
 21
-149.273621
  0
LINE
  8
0
 10
354.669861
 20
-130.726379
 11
354.669861
 21
-117.500000
  0
LINE
  8
0
 62
     2
 10
342.000793
 20
-130.725845
 11
354.670654
 21
-149.273056
  0
LINE
  8
0
 62
     2
 10
354.669830
 20
-130.726303
 11
341.999939
 21
-149.273560
  0
LINE
  8
0
 10
230.000214
 20
-106.999756
 11
228.961761
 21
-105.961288
  0
LINE
  8
0
 10
230.000275
 20
-173.000244
 11
228.961792
 21
-174.038727
  0
LINE
  8
0
 10
228.961548
 20
-105.961548
 11
228.961548
 21
-174.038467
  0
LINE
  8
0
 62
     2
 10
212.124512
 20
-106.766022
 11
196.323608
 21
-106.766022
  0
LINE
  8
0
 62
     2
 10
212.124512
 20
-173.234070
 11
196.173096
 21
-173.234070
  0
LINE
  8
0
 62
     2
 10
-156.000000
 20
-120.750000
 11
-93.000000
 21
-120.750000
  0
LINE
  8
0
 62
     2
 10
-93.000000
 20
-120.749977
 11
-91.392906
 21
-120.000000
  0
LINE
  8
0
 10
-155.999969
 20
-120.750023
 11
-155.249985
 21
-120.000031
  0
LINE
  8
0
 10
-156.000107
 20
-159.250122
 11
-155.250107
 21
-160.000122
  0
LINE
  8
0
 10
-155.250015
 20
-120.000000
 11
-155.250015
 21
-160.000000
  0
LINE
  8
0
 10
424.250000
 20
-160.000000
 11
359.000000
 21
-160.000000
  0
LINE
  8
0
 10
424.250000
 20
-120.000000
 11
359.000000
 21
-120.000000
  0
LINE
  8
0
 62
     2
 10
425.000000
 20
-159.250000
 11
362.000000
 21
-159.250000
  0
LINE
  8
0
 62
     2
 10
425.000000
 20
-120.750000
 11
362.000000
 21
-120.750000
  0
LINE
  8
0
 10
425.000397
 20
-120.749687
 11
424.250397
 21
-119.999687
  0
LINE
  8
0
 10
425.000366
 20
-159.250366
 11
424.250366
 21
-160.000381
  0
LINE
  8
0
 10
424.250000
 20
-120.000000
 11
424.250000
 21
-160.000000
  0
LINE
  8
0
 62
     2
 10
361.999939
 20
-120.750015
 11
360.392853
 21
-120.000038
  0
LINE
  8
0
 62
     2
 10
361.999878
 20
-159.249878
 11
360.392792
 21
-159.999863
  0
LINE
  8
0
  6
CENTER
 62
     2
 10
-459.877747
 20
-140.000000
 11
-238.277740
 21
-140.000000
  0
LINE
  8
0
  6
CENTER
 62
     2
 10
-350.000000
 20
-28.966766
 11
-350.000000
 21
-252.166763
  0
LINE
  8
0
 10
-315.570435
 20
-168.772598
 11
-312.304474
 21
-172.038559
  0
LINE
  8
0
 10
-321.227417
 20
-174.429352
 11
-317.961426
 21
-177.695358
  0
LINE
  8
0
 10
-312.305023
 20
-172.038483
 11
-313.500458
 21
-176.499939
  0
LINE
  8
0
 10
-320.032562
 20
-169.967911
 11
-321.227997
 21
-174.429337
  0
LINE
  8
0
 10
-317.961456
 20
-177.695602
 11
-313.500031
 21
-176.500183
  0
LINE
  8
0
 10
-320.031921
 20
-169.968231
 11
-315.570526
 21
-168.772812
  0
LINE
  8
0
 10
-321.227264
 20
-105.570831
 11
-317.961273
 21
-102.304848
  0
LINE
  8
0
 10
-315.570404
 20
-111.227547
 11
-312.304413
 21
-107.961563
  0
LINE
  8
0
 10
-317.961334
 20
-102.304626
 11
-313.499939
 21
-103.500053
  0
LINE
  8
0
 10
-320.031891
 20
-110.032028
 11
-315.570496
 21
-111.227455
  0
LINE
  8
0
 10
-312.304565
 20
-107.961456
 11
-313.499969
 21
-103.500061
  0
LINE
  8
0
 10
-320.031982
 20
-110.032005
 11
-321.227417
 21
-105.570580
  0
LINE
  8
0
 10
-384.429352
 20
-111.227226
 11
-387.695312
 21
-107.961258
  0
LINE
  8
0
 10
-378.772369
 20
-105.570412
 11
-382.038391
 21
-102.304398
  0
LINE
  8
0
 10
-387.695587
 20
-107.961327
 11
-386.500122
 21
-103.499908
  0
LINE
  8
0
 10
-379.968231
 20
-110.031853
 11
-378.772797
 21
-105.570450
  0
LINE
  8
0
 10
-382.038574
 20
-102.304604
 11
-386.499969
 21
-103.500023
  0
LINE
  8
0
 10
-379.967987
 20
-110.031982
 11
-384.429382
 21
-111.227409
  0
LINE
  8
0
 10
-378.772583
 20
-174.429596
 11
-382.038544
 21
-177.695557
  0
LINE
  8
0
 10
-384.429352
 20
-168.772568
 11
-387.695374
 21
-172.038574
  0
LINE
  8
0
 10
-382.038666
 20
-177.695511
 11
-386.500153
 21
-176.500046
  0
LINE
  8
0
 10
-379.968109
 20
-169.968094
 11
-384.429535
 21
-168.772659
  0
LINE
  8
0
 10
-387.695129
 20
-172.038437
 11
-386.499725
 21
-176.499832
  0
LINE
  8
0
 10
-379.967682
 20
-169.967834
 11
-378.772247
 21
-174.429260
  0
LINE
  8
0
 10
-248.000000
 20
-38.000000
 11
-248.000000
 21
-242.000000
  0
LINE
  8
0
 10
-452.000000
 20
-38.000000
 11
-452.000000
 21
-242.000000
  0
LINE
  8
0
 10
-452.000000
 20
-242.000000
 11
-248.000000
 21
-242.000000
  0
LINE
  8
0
 10
-452.000000
 20
-38.000000
 11
-248.000000
 21
-38.000000
  0
LINE
  8
0
  6
CENTER
 62
     2
 10
-431.000000
 20
-40.791016
 11
-431.000000
 21
-77.528183
  0
LINE
  8
0
  6
CENTER
 62
     2
 10
-448.204224
 20
-59.000000
 11
-414.293030
 21
-59.000000
  0
LINE
  8
0
 10
-417.500000
 20
-51.213272
 11
-417.500000
 21
-66.794220
  0
LINE
  8
0
 10
-444.500000
 20
-51.205780
 11
-444.500000
 21
-66.801727
  0
LINE
  8
0
 10
-417.500061
 20
-66.794006
 11
-431.006592
 21
-74.592003
  0
LINE
  8
0
 10
-431.006805
 20
-43.415096
 11
-444.500305
 21
-51.205585
  0
LINE
  8
0
 10
-444.499908
 20
-66.801697
 11
-431.006409
 21
-74.592163
  0
LINE
  8
0
 10
-431.006531
 20
-43.415234
 11
-417.500031
 21
-51.213203
  0
LINE
  8
0
  6
CENTER
 62
     2
 10
-269.000000
 20
-40.791016
 11
-269.000000
 21
-77.528183
  0
LINE
  8
0
  6
CENTER
 62
     2
 10
-286.204254
 20
-59.000000
 11
-252.293030
 21
-59.000000
  0
LINE
  8
0
 10
-255.500000
 20
-51.213272
 11
-255.500000
 21
-66.794220
  0
LINE
  8
0
 10
-282.500000
 20
-51.205780
 11
-282.500000
 21
-66.801727
  0
LINE
  8
0
 10
-255.500031
 20
-66.794022
 11
-269.006531
 21
-74.592010
  0
LINE
  8
0
 10
-269.006622
 20
-43.415096
 11
-282.500061
 21
-51.205547
  0
LINE
  8
0
 10
-282.500000
 20
-66.801704
 11
-269.006500
 21
-74.592186
  0
LINE
  8
0
 10
-269.006470
 20
-43.415321
 11
-255.499985
 21
-51.213291
  0
LINE
  8
0
  6
CENTER
 62
     2
 10
-269.000000
 20
-202.791016
 11
-269.000000
 21
-239.528183
  0
LINE
  8
0
  6
CENTER
 62
     2
 10
-286.204254
 20
-221.000000
 11
-252.293030
 21
-221.000000
  0
LINE
  8
0
 10
-255.500000
 20
-213.213272
 11
-255.500000
 21
-228.794220
  0
LINE
  8
0
 10
-282.500000
 20
-213.205780
 11
-282.500000
 21
-228.801727
  0
LINE
  8
0
 10
-255.500046
 20
-228.794128
 11
-269.006592
 21
-236.592133
  0
LINE
  8
0
 10
-269.006531
 20
-205.415207
 11
-282.500031
 21
-213.205688
  0
LINE
  8
0
 10
-282.499969
 20
-228.801636
 11
-269.006439
 21
-236.592102
  0
LINE
  8
0
 10
-269.006470
 20
-205.415161
 11
-255.499969
 21
-213.213120
  0
LINE
  8
0
  6
CENTER
 62
     2
 10
-431.000000
 20
-202.791016
 11
-431.000000
 21
-239.528183
  0
LINE
  8
0
  6
CENTER
 62
     2
 10
-448.204224
 20
-221.000000
 11
-414.293030
 21
-221.000000
  0
LINE
  8
0
 10
-417.500000
 20
-213.213272
 11
-417.500000
 21
-228.794220
  0
LINE
  8
0
 10
-444.500000
 20
-213.205780
 11
-444.500000
 21
-228.801727
  0
LINE
  8
0
 10
-417.500092
 20
-228.794098
 11
-431.006561
 21
-236.592087
  0
LINE
  8
0
 10
-431.006561
 20
-205.415161
 11
-444.500092
 21
-213.205673
  0
LINE
  8
0
 10
-444.499878
 20
-228.801605
 11
-431.006317
 21
-236.592102
  0
LINE
  8
0
 10
-431.006439
 20
-205.415176
 11
-417.499939
 21
-213.213150
  0
LINE
  8
0
 10
-329.500000
 20
-130.726379
 11
-329.500000
 21
-149.273621
  0
LINE
  8
0
 10
-370.500000
 20
-130.726379
 11
-370.500000
 21
-149.273621
  0
LINE
  8
0
  6
CENTER
 62
     2
 10
-160.838272
 20
150.000000
 11
433.124268
 21
150.000000
  0
LINE
  8
0
 10
-21.000000
 20
252.000000
 11
-21.000000
 21
48.000000
  0
LINE
  8
0
  6
CENTER
 62
     2
 10
-2.500000
 20
168.000000
 11
-2.500000
 21
132.000000
  0
LINE
  8
0
  6
CENTER
 62
     2
 10
171.500000
 20
168.000000
 11
171.500000
 21
132.000000
  0
LINE
  8
0
 10
190.000000
 20
252.000000
 11
190.000000
 21
48.000000
  0
LINE
  8
0
 10
18.000000
 20
252.000000
 11
18.000000
 21
48.000000
  0
LINE
  8
0
 10
151.000000
 20
252.000000
 11
151.000000
 21
48.000000
  0
LINE
  8
0
 10
-31.000000
 20
206.500000
 11
-31.000000
 21
93.500000
  0
LINE
  8
0
 10
-30.000000
 20
207.500000
 11
-30.000000
 21
92.500000
  0
LINE
  8
0
 10
-30.000000
 20
92.500000
 11
-21.000000
 21
92.500000
  0
LINE
  8
0
 10
-30.000000
 20
207.500000
 11
-21.000000
 21
207.500000
  0
LINE
  8
0
 10
-30.999985
 20
206.499969
 11
-30.000006
 21
207.499954
  0
LINE
  8
0
 10
-31.000013
 20
93.500008
 11
-30.000013
 21
92.500008
  0
LINE
  8
0
 10
-61.000000
 20
183.000000
 11
-61.000000
 21
117.000000
  0
LINE
  8
0
 10
-34.000000
 20
196.000000
 11
-34.000000
 21
191.233978
  0
LINE
  8
0
 10
-33.000000
 20
197.000000
 11
-31.000000
 21
197.000000
  0
LINE
  8
0
 10
-33.000000
 20
103.000000
 11
-31.000000
 21
103.000000
  0
LINE
  8
0
 10
-41.000004
 20
184.740540
 11
-59.961533
 21
184.038269
  0
LINE
  8
0
 10
-59.961533
 20
115.961441
 11
-40.999989
 21
115.259163
  0
LINE
  8
0
 10
-40.000000
 20
124.766022
 11
-31.000000
 21
124.766022
  0
LINE
  8
0
 10
-40.000000
 20
108.766022
 11
-31.000000
 21
108.766022
  0
LINE
  8
0
 10
-41.000000
 20
123.766022
 11
-41.000000
 21
109.766022
  0
LINE
  8
0
 10
-41.000008
 20
123.765991
 11
-40.000008
 21
124.765991
  0
LINE
  8
0
 10
-40.000023
 20
108.766014
 11
-41.000023
 21
109.766014
  0
LINE
  8
0
 10
-40.000000
 20
124.766022
 11
-40.000000
 21
108.766022
  0
LINE
  8
0
 10
-40.000000
 20
175.233978
 11
-31.000000
 21
175.233978
  0
LINE
  8
0
 10
-41.000000
 20
190.233978
 11
-41.000000
 21
176.233978
  0
LINE
  8
0
 10
-40.000015
 20
175.233963
 11
-41.000015
 21
176.233963
  0
LINE
  8
0
 10
-40.000000
 20
191.233978
 11
-40.000000
 21
175.233978
  0
LINE
  8
0
 10
-40.999939
 20
190.233978
 11
-39.999950
 21
191.233963
  0
LINE
  8
0
 10
-40.000000
 20
191.233978
 11
-31.000000
 21
191.233978
  0
LINE
  8
0
 10
-34.000000
 20
108.766022
 11
-34.000000
 21
104.000000
  0
LINE
  8
0
 10
-34.000000
 20
175.233978
 11
-34.000000
 21
124.766022
  0
LINE
  8
0
 10
-21.000000
 20
252.000000
 11
18.000000
 21
252.000000
  0
LINE
  8
0
  6
CENTER
 62
     2
 10
-59.682892
 20
231.000000
 11
232.682495
 21
231.000000
  0
LINE
  8
0
 10
-25.600006
 20
216.000000
 11
-21.000000
 21
216.000000
  0
LINE
  8
0
 10
-25.600006
 20
246.000000
 11
-21.000000
 21
246.000000
  0
LINE
  8
0
 10
-55.000000
 20
240.000000
 11
-40.600006
 21
240.000000
  0
LINE
  8
0
 10
-55.000000
 20
222.000000
 11
-40.600006
 21
222.000000
  0
LINE
  8
0
 10
-56.000000
 20
239.000000
 11
-56.000000
 21
223.000000
  0
LINE
  8
0
 10
-54.999939
 20
239.999924
 11
-55.999939
 21
238.999924
  0
LINE
  8
0
 10
-56.000042
 20
222.999924
 11
-55.000042
 21
221.999924
  0
LINE
  8
0
 10
-55.000015
 20
240.000000
 11
-55.000015
 21
222.000000
  0
LINE
  8
0
 10
-25.600006
 20
54.000000
 11
-21.000000
 21
54.000000
  0
LINE
  8
0
 10
-25.600006
 20
84.000000
 11
-21.000000
 21
84.000000
  0
LINE
  8
0
 10
-55.000000
 20
78.000000
 11
-40.600006
 21
78.000000
  0
LINE
  8
0
 10
-55.000000
 20
60.000000
 11
-40.600006
 21
60.000000
  0
LINE
  8
0
 10
-56.000000
 20
77.000000
 11
-56.000000
 21
61.000000
  0
LINE
  8
0
 10
-55.000004
 20
77.999962
 11
-56.000004
 21
76.999962
  0
LINE
  8
0
 10
-56.000004
 20
60.999977
 11
-55.000004
 21
59.999973
  0
LINE
  8
0
 10
-55.000015
 20
78.000000
 11
-55.000015
 21
60.000000
  0
LINE
  8
0
 10
194.599976
 20
83.999954
 11
190.000000
 21
83.999954
  0
LINE
  8
0
 10
194.599976
 20
53.999954
 11
190.000000
 21
53.999954
  0
LINE
  8
0
 10
224.000000
 20
59.999954
 11
209.599976
 21
59.999954
  0
LINE
  8
0
 10
224.000000
 20
77.999954
 11
209.599976
 21
77.999954
  0
LINE
  8
0
 10
225.000000
 20
61.000000
 11
225.000000
 21
77.000000
  0
LINE
  8
0
 10
223.999847
 20
60.000214
 11
224.999863
 21
61.000237
  0
LINE
  8
0
 10
224.999771
 20
76.999870
 11
223.999802
 21
77.999847
  0
LINE
  8
0
 10
224.000000
 20
60.000000
 11
224.000000
 21
78.000000
  0
LINE
  8
0
 10
224.000000
 20
222.000000
 11
224.000000
 21
240.000000
  0
LINE
  8
0
 10
194.599976
 20
245.999954
 11
190.000000
 21
245.999954
  0
LINE
  8
0
 10
194.599976
 20
215.999954
 11
190.000000
 21
215.999954
  0
LINE
  8
0
 10
224.000000
 20
221.999954
 11
209.599976
 21
221.999954
  0
LINE
  8
0
 10
224.000000
 20
239.999954
 11
209.599976
 21
239.999954
  0
LINE
  8
0
 10
225.000000
 20
223.000000
 11
225.000000
 21
239.000000
  0
LINE
  8
0
 10
223.999802
 20
222.000107
 11
224.999786
 21
223.000092
  0
LINE
  8
0
 10
224.999695
 20
238.999725
 11
223.999695
 21
239.999725
  0
LINE
  8
0
  6
CENTER
 62
     2
 10
-59.258110
 20
69.000000
 11
230.216614
 21
69.000000
  0
LINE
  8
0
 10
18.000000
 20
222.000000
 11
151.000000
 21
222.000000
  0
LINE
  8
0
 10
18.000000
 20
240.000000
 11
151.000000
 21
240.000000
  0
LINE
  8
0
 10
18.000000
 20
60.000000
 11
151.000000
 21
60.000000
  0
LINE
  8
0
 10
18.000000
 20
78.000000
 11
151.000000
 21
78.000000
  0
LINE
  8
0
 10
151.000000
 20
252.000000
 11
190.000000
 21
252.000000
  0
LINE
  8
0
 10
-21.000000
 20
48.000000
 11
18.000000
 21
48.000000
  0
LINE
  8
0
 10
151.000000
 20
48.000000
 11
190.000000
 21
48.000000
  0
LINE
  8
0
 10
18.000000
 20
246.500000
 11
151.000000
 21
246.500000
  0
LINE
  8
0
 10
-156.000000
 20
169.250000
 11
-156.000000
 21
130.750000
  0
LINE
  8
0
 10
-155.250015
 20
130.000000
 11
-90.000000
 21
130.000000
  0
LINE
  8
0
 10
-155.250015
 20
170.000000
 11
-90.000000
 21
170.000000
  0
LINE
  8
0
 10
-71.845299
 20
172.500000
 11
-61.000000
 21
172.500000
  0
LINE
  8
0
 10
-93.000000
 20
170.000000
 11
-93.000000
 21
130.000000
  0
LINE
  8
0
 10
-90.000000
 20
170.000000
 11
-90.000000
 21
130.000000
  0
LINE
  8
0
 10
-90.000023
 20
170.000015
 11
-89.133995
 21
170.500015
  0
LINE
  8
0
 10
-85.669876
 20
129.500000
 11
-85.669876
 21
170.500000
  0
LINE
  8
0
 10
-60.999985
 20
182.999969
 11
-59.961521
 21
184.038437
  0
LINE
  8
0
 10
-61.000042
 20
116.999947
 11
-59.961578
 21
115.961479
  0
LINE
  8
0
 10
-59.961548
 20
184.038452
 11
-59.961548
 21
115.961533
  0
LINE
  8
0
 62
     2
 10
-156.000000
 20
130.750000
 11
-93.000000
 21
130.750000
  0
LINE
  8
0
 62
     2
 10
-92.999992
 20
130.749969
 11
-91.392906
 21
130.000000
  0
LINE
  8
0
 62
     2
 10
-56.000000
 20
61.399994
 11
-40.600006
 21
61.399994
  0
LINE
  8
0
 62
     2
 10
-56.000000
 20
76.600006
 11
-40.600006
 21
76.600006
  0
LINE
  8
0
 62
     2
 10
-56.000000
 20
223.399994
 11
-40.600006
 21
223.399994
  0
LINE
  8
0
 62
     2
 10
-56.000000
 20
238.600006
 11
-40.600006
 21
238.600006
  0
LINE
  8
0
 62
     2
 10
225.000000
 20
238.599960
 11
209.599976
 21
238.599960
  0
LINE
  8
0
 62
     2
 10
225.000000
 20
223.399948
 11
209.599976
 21
223.399948
  0
LINE
  8
0
 62
     2
 10
225.000000
 20
61.399963
 11
209.599976
 21
61.399963
  0
LINE
  8
0
 62
     2
 10
225.000000
 20
76.599945
 11
209.599976
 21
76.599945
  0
LINE
  8
0
 10
18.000000
 20
53.500000
 11
151.000000
 21
53.500000
  0
LINE
  8
0
 10
200.000000
 20
206.500000
 11
200.000000
 21
93.500000
  0
LINE
  8
0
 10
199.000000
 20
207.500000
 11
199.000000
 21
92.500000
  0
LINE
  8
0
 10
199.000000
 20
92.500000
 11
190.000000
 21
92.500000
  0
LINE
  8
0
 10
199.000000
 20
207.500000
 11
190.000000
 21
207.500000
  0
LINE
  8
0
 10
199.999405
 20
206.499298
 11
198.999405
 21
207.499298
  0
LINE
  8
0
 10
199.999954
 20
93.500069
 11
198.999924
 21
92.500053
  0
LINE
  8
0
 10
230.000000
 20
183.000000
 11
230.000000
 21
117.000000
  0
LINE
  8
0
 10
203.000000
 20
196.000000
 11
203.000000
 21
191.233978
  0
LINE
  8
0
 10
202.000000
 20
197.000000
 11
200.000000
 21
197.000000
  0
LINE
  8
0
 10
202.000000
 20
103.000000
 11
200.000000
 21
103.000000
  0
LINE
  8
0
 10
209.999939
 20
184.740784
 11
228.961487
 21
184.038498
  0
LINE
  8
0
 10
228.961517
 20
115.961517
 11
209.999969
 21
115.259239
  0
LINE
  8
0
 10
209.000000
 20
124.766022
 11
200.000000
 21
124.766022
  0
LINE
  8
0
 10
209.000000
 20
108.766022
 11
200.000000
 21
108.766022
  0
LINE
  8
0
 10
210.000000
 20
123.766022
 11
210.000000
 21
109.766022
  0
LINE
  8
0
 10
209.999908
 20
123.765900
 11
208.999908
 21
124.765900
  0
LINE
  8
0
 10
208.999832
 20
108.766159
 11
209.999832
 21
109.766159
  0
LINE
  8
0
 10
209.000000
 20
124.766022
 11
209.000000
 21
108.766022
  0
LINE
  8
0
 10
209.000000
 20
175.233978
 11
200.000000
 21
175.233978
  0
LINE
  8
0
 10
210.000000
 20
190.233978
 11
210.000000
 21
176.233978
  0
LINE
  8
0
 10
208.999908
 20
175.234039
 11
209.999924
 21
176.234055
  0
LINE
  8
0
 10
209.000000
 20
191.233978
 11
209.000000
 21
175.233978
  0
LINE
  8
0
 10
209.999802
 20
190.233810
 11
208.999802
 21
191.233780
  0
LINE
  8
0
 10
209.000000
 20
191.233978
 11
200.000000
 21
191.233978
  0
LINE
  8
0
 10
203.000000
 20
108.766022
 11
203.000000
 21
104.000000
  0
LINE
  8
0
 10
203.000000
 20
175.233978
 11
203.000000
 21
124.766022
  0
LINE
  8
0
 10
425.000000
 20
169.250000
 11
425.000000
 21
130.750000
  0
LINE
  8
0
 10
340.845276
 20
127.500000
 11
230.000000
 21
127.500000
  0
LINE
  8
0
 10
340.845245
 20
172.500000
 11
230.000000
 21
172.500000
  0
LINE
  8
0
 10
362.000000
 20
170.000000
 11
362.000000
 21
130.000000
  0
LINE
  8
0
 10
359.000000
 20
170.000000
 11
359.000000
 21
130.000000
  0
LINE
  8
0
 10
359.000427
 20
170.000732
 11
358.135529
 21
170.500092
  0
LINE
  8
0
 10
359.000153
 20
129.999619
 11
358.134766
 21
129.499985
  0
LINE
  8
0
 10
354.669861
 20
129.500000
 11
354.669861
 21
170.500000
  0
LINE
  8
0
 10
230.000259
 20
183.000336
 11
228.961823
 21
184.038803
  0
LINE
  8
0
 10
230.000275
 20
116.999763
 11
228.961807
 21
115.961281
  0
LINE
  8
0
 10
228.961548
 20
184.038452
 11
228.961548
 21
115.961533
  0
LINE
  8
0
 62
     2
 10
-156.000000
 20
169.250000
 11
-93.000000
 21
169.250000
  0
LINE
  8
0
 62
     2
 10
-92.999992
 20
169.249985
 11
-91.392899
 21
169.999954
  0
LINE
  8
0
 10
-155.999939
 20
169.249939
 11
-155.249969
 21
169.999924
  0
LINE
  8
0
 10
-156.000107
 20
130.749969
 11
-155.250107
 21
129.999954
  0
LINE
  8
0
 10
-155.250015
 20
170.000000
 11
-155.250015
 21
130.000000
  0
LINE
  8
0
 10
424.250000
 20
130.000000
 11
359.000000
 21
130.000000
  0
LINE
  8
0
 10
424.250000
 20
170.000000
 11
359.000000
 21
170.000000
  0
LINE
  8
0
 62
     2
 10
425.000000
 20
130.750000
 11
362.000000
 21
130.750000
  0
LINE
  8
0
 62
     2
 10
425.000000
 20
169.250000
 11
362.000000
 21
169.250000
  0
LINE
  8
0
 10
425.000519
 20
169.250427
 11
424.250519
 21
170.000427
  0
LINE
  8
0
 10
425.000458
 20
130.749588
 11
424.250458
 21
129.999588
  0
LINE
  8
0
 10
424.250000
 20
170.000000
 11
424.250000
 21
130.000000
  0
LINE
  8
0
 62
     2
 10
361.999908
 20
169.249939
 11
360.392822
 21
169.999924
  0
LINE
  8
0
 62
     2
 10
361.999908
 20
130.750107
 11
360.392822
 21
130.000122
  0
LINE
  8
0
 10
-89.133995
 20
170.500000
 11
-73.000000
 21
170.500000
  0
LINE
  8
0
 10
-72.999985
 20
170.499985
 11
-71.845284
 21
172.499985
  0
LINE
  8
0
 10
-71.845299
 20
127.500000
 11
-61.000000
 21
127.500000
  0
LINE
  8
0
 10
-72.999992
 20
129.500015
 11
-71.845291
 21
127.500008
  0
LINE
  8
0
 10
-89.133995
 20
129.500000
 11
-73.000000
 21
129.500000
  0
LINE
  8
0
 10
-90.000031
 20
130.000000
 11
-89.133987
 21
129.499985
  0
LINE
  8
0
 10
340.845276
 20
172.500000
 11
330.000000
 21
172.500000
  0
LINE
  8
0
 10
358.134003
 20
170.500000
 11
342.000000
 21
170.500000
  0
LINE
  8
0
 10
341.999908
 20
170.499908
 11
340.845184
 21
172.499908
  0
LINE
  8
0
 10
358.134003
 20
129.500000
 11
342.000000
 21
129.500000
  0
LINE
  8
0
 10
342.000061
 20
129.500000
 11
340.845306
 21
127.499962
  0
LINE
  8
0
 10
340.845276
 20
127.500000
 11
330.000000
 21
127.500000
  0
LINE
  8
0
 10
-40.600006
 20
244.500000
 11
-25.600008
 21
244.500000
  0
LINE
  8
0
 10
-39.394234
 20
231.000000
 11
-25.600006
 21
231.000000
  0
LINE
  8
0
 10
-40.600006
 20
244.500000
 11
-40.600006
 21
217.500000
  0
LINE
  8
0
 10
-40.600006
 20
217.500000
 11
-25.600004
 21
217.500000
  0
LINE
  8
0
 10
-25.600006
 20
246.000000
 11
-25.600006
 21
216.000000
  0
LINE
  8
0
 10
209.600006
 20
244.500000
 11
194.600006
 21
244.500000
  0
LINE
  8
0
 10
209.600006
 20
244.500000
 11
209.600006
 21
217.500000
  0
LINE
  8
0
 10
208.394226
 20
231.000000
 11
194.600006
 21
231.000000
  0
LINE
  8
0
 10
209.600006
 20
217.500000
 11
194.600006
 21
217.500000
  0
LINE
  8
0
 10
194.600006
 20
246.000000
 11
194.600006
 21
216.000000
  0
LINE
  8
0
 10
-40.600006
 20
55.500000
 11
-25.600008
 21
55.500000
  0
LINE
  8
0
 10
-40.600006
 20
55.500000
 11
-40.600006
 21
82.500000
  0
LINE
  8
0
 10
-39.394234
 20
69.000000
 11
-25.600006
 21
69.000000
  0
LINE
  8
0
 10
-40.600006
 20
82.500000
 11
-25.600004
 21
82.500000
  0
LINE
  8
0
 10
-25.600006
 20
54.000000
 11
-25.600006
 21
84.000000
  0
LINE
  8
0
 10
209.600006
 20
55.500000
 11
194.600006
 21
55.500000
  0
LINE
  8
0
 10
209.600006
 20
55.500000
 11
209.600006
 21
82.500000
  0
LINE
  8
0
 10
208.394226
 20
69.000000
 11
194.600006
 21
69.000000
  0
LINE
  8
0
 10
209.600006
 20
82.500000
 11
194.600006
 21
82.500000
  0
LINE
  8
0
 10
194.600006
 20
54.000000
 11
194.600006
 21
84.000000
  0
CIRCLE
  8
0
 10
-2.500000
 20
-140.000000
 40
7.950000
  0
CIRCLE
  8
0
  6
DASHED
 62
     2
 10
171.500000
 20
-140.000000
 40
7.950000
  0
CIRCLE
  8
0
 10
-2.500000
 20
-140.000000
 40
5.150000
  0
CIRCLE
  8
0
  6
DASHED
 62
     2
 10
171.500000
 20
-140.000000
 40
5.150000
  0
ARC
  8
0
 10
-33.000000
 20
-186.000000
 40
1.000000
 50
180.000000
 51
270.000000
  0
ARC
  8
0
 10
-33.000000
 20
-94.000000
 40
1.000000
 50
90.000000
 51
180.000000
  0
ARC
  8
0
 10
-34.521866
 20
-70.685120
 40
6.078140
 50
140.243668
 51
220.001770
  0
ARC
  8
0
 10
-34.349518
 20
-47.301941
 40
6.250493
 50
141.551300
 51
218.694290
  0
ARC
  8
0
 10
-18.032913
 20
-58.958389
 40
22.567137
 50
159.917740
 51
200.327774
  0
ARC
  8
0
 10
-34.521866
 20
-232.685120
 40
6.078140
 50
140.243668
 51
220.001709
  0
ARC
  8
0
 10
-34.349518
 20
-209.301941
 40
6.250493
 50
141.551300
 51
218.694321
  0
ARC
  8
0
 10
-18.032913
 20
-220.958389
 40
22.567137
 50
159.917740
 51
200.327774
  0
ARC
  8
0
 10
203.521851
 20
-209.314880
 40
6.078140
 50
320.243683
 51
40.001816
  0
ARC
  8
0
 10
203.349487
 20
-232.698059
 40
6.250496
 50
321.551331
 51
38.694321
  0
ARC
  8
0
 10
187.032898
 20
-221.041611
 40
22.567133
 50
339.917786
 51
20.327805
  0
ARC
  8
0
 10
203.349487
 20
-70.698059
 40
6.250496
 50
321.551331
 51
38.694321
  0
ARC
  8
0
 10
187.032898
 20
-59.041611
 40
22.567133
 50
339.917786
 51
20.327785
  0
ARC
  8
0
 10
203.521851
 20
-47.314880
 40
6.078137
 50
320.243713
 51
40.001762
  0
ARC
  8
0
 10
-74.988892
 20
-140.000000
 40
14.145086
 50
139.034286
 51
220.965714
  0
ARC
  8
0
 10
-100.916679
 20
-140.000000
 40
29.416679
 50
0.000000
 51
18.375933
  0
ARC
  8
0
 10
-100.916679
 20
-140.000000
 40
29.416679
 50
341.624054
 51
0.000000
  0
ARC
  8
0
 10
369.916687
 20
-140.000000
 40
29.416687
 50
179.999969
 51
198.375900
  0
ARC
  8
0
 10
202.000000
 20
-186.000000
 40
1.000000
 50
270.000000
 51
0.000000
  0
ARC
  8
0
 10
202.000000
 20
-94.000000
 40
1.000000
 50
0.000000
 51
90.000000
  0
ARC
  8
0
 10
343.988892
 20
-140.000000
 40
14.145075
 50
319.034241
 51
40.965622
  0
ARC
  8
0
 10
369.916687
 20
-140.000000
 40
29.416691
 50
161.624039
 51
179.999969
  0
CIRCLE
  8
0
 10
-350.000000
 20
-140.000000
 40
57.500000
  0
ARC
  8
0
 10
-316.766022
 20
-173.234070
 40
10.000008
 50
56.944412
 51
213.055389
  0
CIRCLE
  8
0
 10
-316.766022
 20
-173.234070
 40
8.000000
  0
CIRCLE
  8
0
 10
-316.765930
 20
-106.766022
 40
8.000000
  0
CIRCLE
  8
0
 10
-383.234009
 20
-106.765930
 40
8.000000
  0
CIRCLE
  8
0
 10
-383.234070
 20
-173.233978
 40
8.000000
  0
ARC
  8
0
 10
-310.765991
 20
-115.985596
 40
0.999995
 50
31.470470
 51
123.056709
  0
ARC
  8
0
 10
-310.766052
 20
-164.014526
 40
1.000000
 50
236.945236
 51
328.529907
  0
ARC
  8
0
 10
-350.000000
 20
-140.000000
 40
47.000011
 50
328.529846
 51
31.470057
  0
ARC
  8
0
 10
-316.765930
 20
-106.766022
 40
9.999995
 50
146.944366
 51
303.055420
  0
ARC
  8
0
 10
-325.985474
 20
-100.766052
 40
0.999992
 50
326.944397
 51
58.529385
  0
ARC
  8
0
 10
-350.000000
 20
-140.000000
 40
46.999996
 50
58.529835
 51
121.470039
  0
ARC
  8
0
 10
-374.014404
 20
-100.765991
 40
1.000006
 50
121.470619
 51
213.055969
  0
ARC
  8
0
 10
-383.234009
 20
-106.765930
 40
10.000001
 50
236.944382
 51
33.055431
  0
ARC
  8
0
 10
-389.233948
 20
-115.985489
 40
0.999994
 50
56.944996
 51
148.529907
  0
ARC
  8
0
 10
-350.000000
 20
-140.000000
 40
47.000011
 50
148.529846
 51
211.470062
  0
ARC
  8
0
 10
-389.234009
 20
-164.014404
 40
0.999999
 50
211.470840
 51
303.056702
  0
ARC
  8
0
 10
-383.234070
 20
-173.233978
 40
9.999995
 50
326.944366
 51
123.055397
  0
ARC
  8
0
 10
-374.014526
 20
-179.233948
 40
0.999996
 50
146.944031
 51
238.529617
  0
ARC
  8
0
 10
-350.000000
 20
-140.000000
 40
46.999996
 50
238.529831
 51
301.470062
  0
ARC
  8
0
 10
-325.985596
 20
-179.234009
 40
0.999999
 50
301.470856
 51
33.055973
  0
CIRCLE
  8
0
 10
-431.000000
 20
-59.000000
 40
9.000000
  0
CIRCLE
  8
0
 10
-431.000000
 20
-59.000000
 40
13.000000
  0
CIRCLE
  8
0
 10
-269.000000
 20
-59.000000
 40
9.000000
  0
CIRCLE
  8
0
 10
-269.000000
 20
-59.000000
 40
13.000000
  0
CIRCLE
  8
0
 10
-269.000000
 20
-221.000000
 40
9.000000
  0
CIRCLE
  8
0
 10
-269.000000
 20
-221.000000
 40
13.000000
  0
CIRCLE
  8
0
 10
-431.000000
 20
-221.000000
 40
9.000000
  0
CIRCLE
  8
0
 10
-431.000000
 20
-221.000000
 40
13.000000
  0
CIRCLE
  8
0
 10
-350.000000
 20
-140.000000
 40
20.000000
  0
CIRCLE
  8
0
 10
-350.000000
 20
-140.000000
 40
22.500000
  0
CIRCLE
  8
0
 10
-350.000000
 20
-140.000000
 40
35.000000
  0
CIRCLE
  8
0
 62
     2
 10
-269.000000
 20
-59.000000
 40
7.600000
  0
CIRCLE
  8
0
 62
     2
 10
-269.000000
 20
-221.000000
 40
7.600000
  0
CIRCLE
  8
0
 62
     2
 10
-431.000000
 20
-59.000000
 40
7.600000
  0
CIRCLE
  8
0
 62
     2
 10
-431.000000
 20
-221.000000
 40
7.600000
  0
CIRCLE
  8
0
 62
     2
 10
-350.000000
 20
-140.000000
 40
19.250000
  0
ARC
  8
0
 10
-33.000000
 20
104.000000
 40
1.000000
 50
180.000000
 51
270.000000
  0
ARC
  8
0
 10
-33.000000
 20
196.000000
 40
1.000000
 50
90.000000
 51
180.000000
  0
ARC
  8
0
 10
202.000000
 20
104.000000
 40
1.000000
 50
270.000000
 51
0.000000
  0
ARC
  8
0
 10
202.000000
 20
196.000000
 40
1.000000
 50
0.000000
 51
90.000000
  0
CIRCLE
  8
0
 62
     2
 10
171.500000
 20
150.000000
 40
13.220500
  0
CIRCLE
  8
0
 10
171.500000
 20
150.000000
 40
12.058500
  0
CIRCLE
  8
0
 62
     2
 10
-2.500000
 20
150.000000
 40
13.220500
  0
CIRCLE
  8
0
 10
-2.500000
 20
150.000000
 40
12.058500
  0
ARC
  8
0
 10
-21.103615
 20
237.750000
 40
19.496393
 50
159.743851
 51
200.256119
  0
ARC
  8
0
 10
-21.103615
 20
224.250000
 40
19.496391
 50
159.743790
 51
200.256058
  0
ARC
  8
0
 10
190.103607
 20
237.750000
 40
19.496391
 50
339.743835
 51
20.256119
  0
ARC
  8
0
 10
190.103607
 20
224.250000
 40
19.496386
 50
339.743896
 51
20.256161
  0
ARC
  8
0
 10
-21.103615
 20
62.250000
 40
19.496389
 50
159.743820
 51
200.256058
  0
ARC
  8
0
 10
-21.103615
 20
75.750000
 40
19.496391
 50
159.743866
 51
200.256119
  0
ARC
  8
0
 10
190.103607
 20
62.250000
 40
19.496391
 50
339.743835
 51
20.256119
  0
ARC
  8
0
 10
190.103607
 20
75.750000
 40
19.496395
 50
339.743805
 51
20.256041
  0
TEXT
  8
0
 10
-519.785156
 20
375.250000
 40
12.500000
  1
SD CYLINDER
 50
0.000000
 41
1.052632
 51
0.000000
  7
STANDARD
  0
TEXT
  8
0
 10
-542.285156
 20
330.250000
 40
12.500000
  1
MODEL:KA0SDD180*100
 50
0.000000
 41
1.052632
 51
0.000000
  7
STANDARD
  0
TEXT
  8
0
 10
364.214844
 20
375.250000
 40
12.500000
  1
DATE: AUG ,1993
 50
0.000000
 41
1.052632
 51
0.000000
  7
STANDARD
  0
TEXT
  8
0
 10
345.179352
 20
-400.700012
 40
18.000000
  1
KOGANEI CORP.
 50
0.000000
 41
1.052632
 51
0.000000
  7
STANDARD
  0
ENDSEC
  0
EOF
