  0
SECTION
  2
HEADER
  0
ENDSEC
  0
SECTION
  2
TABLES
  0
TABLE
  2
LTYPE
 70
     4
  0
LTYPE
  2
CONTINUOUS
 70
    64
  3
Solid line
 72
    65
 73
     0
 40
0.000000
  0
LTYPE
  2
DASHED
 70
    64
  3
__ __ __ __ __ __ __ __ __ __ __ __ __ __ __
 72
    65
 73
     2
 40
3.500000
 49
2.000000
 49
-1.500000
  0
LTYPE
  2
CENTER
 70
    64
  3
____ _ ____ _ ____ _ ____ _ ____ _ ____ _ ____
 72
    65
 73
     4
 40
17.500000
 49
13.000000
 49
-1.500000
 49
1.500000
 49
-1.500000
  0
LTYPE
  2
PHANTOM
 70
    64
  3
_____ _ _ _____ _ _ _____ _ _ _____ _ _ ____  
 72
    65
 73
     6
 40
15.500000
 49
8.000000
 49
-1.500000
 49
1.500000
 49
-1.500000
 49
1.500000
 49
-1.500000
  0
LTYPE
  2
DASHED1
 70
    64
  3
__ __ __ __ __ __ __ __ __ __ __ __ __ __ __
 72
    65
 73
     2
 40
1.500000
 49
1.000000
 49
-0.500000
  0
LTYPE
  2
DASHED2
 70
    64
  3
__ __ __ __ __ __ __ __ __ __ __ __ __ __ __
 72
    65
 73
     2
 40
3.500000
 49
2.500000
 49
-1.000000
  0
LTYPE
  2
DASHED3
 70
    64
  3
__ __ __ __ __ __ __ __ __ __ __ __ __ __ __
 72
    65
 73
     2
 40
6.000000
 49
4.000000
 49
-2.000000
  0
LTYPE
  2
DASHED4
 70
    64
  3
__ __ __ __ __ __ __ __ __ __ __ __ __ __ __
 72
    65
 73
     2
 40
12.000000
 49
10.000000
 49
-2.000000
  0
LTYPE
  2
DASHED5
 70
    64
  3
__ __ __ __ __ __ __ __ __ __ __ __ __ __ __
 72
    65
 73
     2
 40
17.000000
 49
15.000000
 49
-2.000000
  0
LTYPE
  2
DASHED6
 70
    64
  3
__ __ __ __ __ __ __ __ __ __ __ __ __ __ __
 72
    65
 73
     2
 40
29.000000
 49
27.000000
 49
-2.000000
  0
LTYPE
  2
PHANTOM1
 70
    64
  3
_____ _ _ _____ _ _ _____ _ _ _____ _ _ ____  
 72
    65
 73
     6
 40
31.000000
 49
25.000000
 49
-1.500000
 49
1.000000
 49
-1.000000
 49
1.000000
 49
-1.500000
  0
LTYPE
  2
PHANTOM2
 70
    64
  3
_____ _ _ _____ _ _ _____ _ _ _____ _ _ ____  
 72
    65
 73
     6
 40
36.000000
 49
27.000000
 49
-1.500000
 49
2.500000
 49
-1.000000
 49
2.500000
 49
-1.500000
  0
LTYPE
  2
PHANTOM3
 70
    64
  3
_____ _ _ _____ _ _ _____ _ _ _____ _ _ ____  
 72
    65
 73
     6
 40
78.000000
 49
64.000000
 49
-2.000000
 49
4.000000
 49
-2.000000
 49
4.000000
 49
-2.000000
  0
LTYPE
  2
CENTER1
 70
    64
  3
____ _ ____ _ ____ _ ____ _ ____ _ ____ _ ____
 72
    65
 73
     4
 40
19.000000
 49
14.000000
 49
-1.000000
 49
3.000000
 49
-1.000000
  0
LTYPE
  2
CENTER2
 70
    64
  3
____ _ ____ _ ____ _ ____ _ ____ _ ____ _ ____
 72
    65
 73
     4
 40
28.500000
 49
25.000000
 49
-1.000000
 49
1.500000
 49
-1.000000
  0
LTYPE
  2
CENTER3
 70
    64
  3
____ _ ____ _ ____ _ ____ _ ____ _ ____ _ ____
 72
    65
 73
     4
 40
31.500000
 49
27.000000
 49
-1.000000
 49
2.500000
 49
-1.000000
  0
LTYPE
  2
CENTER4
 70
    64
  3
____ _ ____ _ ____ _ ____ _ ____ _ ____ _ ____
 72
    65
 73
     4
 40
50.000000
 49
45.000000
 49
-1.000000
 49
3.000000
 49
-1.000000
  0
LTYPE
  2
CENTER5
 70
    64
  3
____ _ ____ _ ____ _ ____ _ ____ _ ____ _ ____
 72
    65
 73
     4
 40
100.000000
 49
92.000000
 49
-2.000000
 49
4.000000
 49
-2.000000
  0
LTYPE
  2
SBK1
 70
    64
  3
______ _ _ _ ______ _ _ _ ______ _ _ _ _____  
 72
    65
 73
     8
 40
60.500000
 49
45.000000
 49
-2.000000
 49
2.500000
 49
-2.000000
 49
2.500000
 49
-2.000000
 49
2.500000
 49
-2.000000
  0
LTYPE
  2
SBK2
 70
    64
  3
______ _ _ _ ______ _ _ _ ______ _ _ _ _____  
 72
    65
 73
     8
 40
84.000000
 49
64.000000
 49
-2.000000
 49
4.000000
 49
-2.000000
 49
4.000000
 49
-2.000000
 49
4.000000
 49
-2.000000
  0
LTYPE
  2
STCH
 70
    64
  3
__ __ __ __ __ __ __ __ __ __ __ __ __ __ __
 72
    65
 73
     2
 40
3.000000
 49
1.000000
 49
-2.000000
  0
LTYPE
  2
MTCH
 70
    64
  3
_____ _ _ _____ _ _ _____ _ _ _____ _ _ ____  
 72
    65
 73
     6
 40
80.000000
 49
66.000000
 49
-2.000000
 49
4.000000
 49
-2.000000
 49
4.000000
 49
-2.000000
  0
ENDTAB
  0
TABLE
  2
LAYER
 70
     1
  0
LAYER
  2
0
 70
     0
 62
     7
  6
CONTINUOUS
  0
ENDTAB
  0
TABLE
  2
STYLE
 70
     1
  0
STYLE
  2
STANDARD
 70
     0
 40
0.000000
 41
1.000000
 50
0.000000
 71
     0
 42
0.200000
  3
txt
  4
BIGFONT
  0
ENDTAB
  0
TABLE
  2
VIEW
 70
     0
  0
ENDTAB
  0
ENDSEC
  0
SECTION
  2
BLOCKS
  0
ENDSEC
  0
SECTION
  2
ENTITIES
  0
LINE
  8
0
 10
399.799988
 20
276.250000
 11
399.799988
 21
-276.750000
  0
LINE
  8
0
 10
-399.250000
 20
276.250000
 11
-399.250000
 21
-276.750000
  0
LINE
  8
0
 10
-399.250000
 20
276.250000
 11
399.799988
 21
276.250000
  0
LINE
  8
0
 10
-399.250000
 20
-276.750000
 11
399.799988
 21
-276.750000
  0
LINE
  8
0
 10
239.799988
 20
-251.750000
 11
399.799988
 21
-251.750000
  0
LINE
  8
0
 10
239.799988
 20
251.250000
 11
399.799988
 21
251.250000
  0
LINE
  8
0
 10
-399.250000
 20
251.250000
 11
-239.250000
 21
251.250000
  0
LINE
  8
0
 10
239.799988
 20
-251.750000
 11
239.799988
 21
-276.750000
  0
LINE
  8
0
 10
239.799988
 20
251.250000
 11
239.799988
 21
276.250000
  0
LINE
  8
0
 10
-239.250000
 20
276.250000
 11
-239.250000
 21
251.250000
  0
LINE
  8
0
  6
CENTER
 62
     2
 10
-171.576782
 20
-120.000000
 11
387.182129
 21
-120.000000
  0
LINE
  8
0
 10
-83.000000
 20
-92.000000
 11
-83.000000
 21
-148.000000
  0
LINE
  8
0
 10
-82.000000
 20
-91.000000
 11
-82.000000
 21
-149.000000
  0
LINE
  8
0
 10
-83.000038
 20
-91.999962
 11
-82.000061
 21
-91.000000
  0
LINE
  8
0
 10
-82.999947
 20
-147.999954
 11
-81.999947
 21
-148.999939
  0
LINE
  8
0
 10
-45.000000
 20
-29.000000
 11
-45.000000
 21
-211.000000
  0
LINE
  8
0
 10
-50.200012
 20
-76.000000
 11
-50.200012
 21
-164.000000
  0
LINE
  8
0
 10
-49.200012
 20
-75.000000
 11
-49.200012
 21
-165.000000
  0
LINE
  8
0
 10
-50.199852
 20
-76.000031
 11
-49.199928
 21
-75.000084
  0
LINE
  8
0
 10
-58.200012
 20
-87.783508
 11
-58.200012
 21
-99.183502
  0
LINE
  8
0
 10
-58.200012
 20
-140.816498
 11
-58.200012
 21
-152.216507
  0
LINE
  8
0
 10
-81.999969
 20
-91.000069
 11
-58.200005
 21
-90.048073
  0
LINE
  8
0
 10
-82.000015
 20
-148.999985
 11
-58.200024
 21
-149.951981
  0
LINE
  8
0
 10
-57.000000
 20
-83.500000
 11
-57.000000
 21
-86.983490
  0
LINE
  8
0
  6
CENTER
 62
     2
 10
-77.160370
 20
-48.000000
 11
196.284912
 21
-48.000000
  0
LINE
  8
0
  6
CENTER
 62
     2
 10
-77.500000
 20
-192.000000
 11
192.799988
 21
-192.000000
  0
LINE
  8
0
 10
-50.200012
 20
-164.000015
 11
-49.199989
 21
-165.000031
  0
LINE
  8
0
  6
CENTER
 62
     2
 10
-26.500000
 20
-23.750000
 11
-26.500000
 21
-131.300003
  0
LINE
  8
0
  6
DASHED
 62
     2
 10
137.404907
 20
-119.250000
 11
147.595093
 21
-119.250000
  0
LINE
  8
0
  6
DASHED
 62
     2
 10
137.404907
 20
-120.750000
 11
147.595093
 21
-120.750000
  0
LINE
  8
0
  6
CENTER
 62
     2
 10
142.500000
 20
-24.368591
 11
142.500000
 21
-133.000000
  0
LINE
  8
0
 10
161.000000
 20
-29.000000
 11
161.000000
 21
-211.000000
  0
LINE
  8
0
 10
-31.595093
 20
-119.250000
 11
-21.404907
 21
-119.250000
  0
LINE
  8
0
 10
-31.595093
 20
-120.750000
 11
-21.404907
 21
-120.750000
  0
LINE
  8
0
 10
-56.000000
 20
-82.500000
 11
-50.200012
 21
-82.500000
  0
LINE
  8
0
 10
-56.000000
 20
-157.500000
 11
-50.200012
 21
-157.500000
  0
LINE
  8
0
 10
-57.000000
 20
-99.983490
 11
-57.000000
 21
-140.016510
  0
LINE
  8
0
 10
-57.000000
 20
-153.016510
 11
-57.000000
 21
-156.500000
  0
LINE
  8
0
 10
-57.400009
 20
-153.016510
 11
-50.200012
 21
-153.016510
  0
LINE
  8
0
 10
-57.400009
 20
-140.016510
 11
-50.200012
 21
-140.016510
  0
LINE
  8
0
 10
-57.400009
 20
-86.983490
 11
-50.200012
 21
-86.983490
  0
LINE
  8
0
 10
-57.400009
 20
-99.983490
 11
-50.200012
 21
-99.983490
  0
LINE
  8
0
 10
-58.200054
 20
-87.783485
 11
-57.400059
 21
-86.983490
  0
LINE
  8
0
 10
-58.200005
 20
-99.183525
 11
-57.400009
 21
-99.983521
  0
LINE
  8
0
 10
-57.399998
 20
-140.016510
 11
-58.199982
 21
-140.816498
  0
LINE
  8
0
 10
-58.200024
 20
-152.216537
 11
-57.400017
 21
-153.016541
  0
LINE
  8
0
 10
-57.400024
 20
-86.983490
 11
-57.400024
 21
-99.983490
  0
LINE
  8
0
 10
-57.400024
 20
-140.016510
 11
-57.400024
 21
-153.016510
  0
LINE
  8
0
 10
-49.199982
 20
-165.000000
 11
-45.000000
 21
-165.000000
  0
LINE
  8
0
 10
-49.200043
 20
-75.000000
 11
-45.000000
 21
-75.000000
  0
LINE
  8
0
 10
-6.000000
 20
-29.000000
 11
-6.000000
 21
-211.000000
  0
LINE
  8
0
 10
122.000000
 20
-29.000000
 11
122.000000
 21
-211.000000
  0
LINE
  8
0
 10
-45.000000
 20
-211.000000
 11
-6.000000
 21
-211.000000
  0
LINE
  8
0
 10
-45.000000
 20
-29.000000
 11
-6.000000
 21
-29.000000
  0
LINE
  8
0
 10
122.000000
 20
-29.000000
 11
161.000000
 21
-29.000000
  0
LINE
  8
0
 10
122.000000
 20
-211.000000
 11
161.000000
 21
-211.000000
  0
LINE
  8
0
  6
DASHED
 62
     2
 10
-13.279408
 20
-29.000011
 11
-13.771901
 21
-43.100025
  0
LINE
  8
0
  6
DASHED
 62
     2
 10
-39.227840
 20
-43.100018
 11
-39.720505
 21
-28.999981
  0
LINE
  8
0
  6
DASHED
 62
     2
 10
-38.000000
 20
-30.500000
 11
-15.000000
 21
-30.500000
  0
LINE
  8
0
  6
DASHED
 62
     2
 10
-38.000000
 20
-30.500000
 11
-38.000000
 21
-43.100006
  0
LINE
  8
0
  6
DASHED
 62
     2
 10
-15.000000
 20
-30.500000
 11
-15.000000
 21
-43.100006
  0
LINE
  8
0
  6
DASHED
 62
     2
 10
-13.279573
 20
-28.999937
 11
-15.000064
 21
-30.499937
  0
LINE
  8
0
  6
DASHED
 62
     2
 10
-39.720352
 20
-28.999865
 11
-37.999863
 21
-30.499866
  0
LINE
  8
0
  6
DASHED
 62
     2
 10
131.000000
 20
-30.500000
 11
131.000000
 21
-43.100006
  0
LINE
  8
0
  6
DASHED
 62
     2
 10
129.279831
 20
-28.999653
 11
131.000320
 21
-30.499655
  0
LINE
  8
0
  6
DASHED
 62
     2
 10
154.000000
 20
-43.349998
 11
154.000183
 21
-33.499962
  0
LINE
  8
0
  6
DASHED
 62
     2
 10
155.720627
 20
-29.000132
 11
154.000107
 21
-30.500153
  0
LINE
  8
0
  6
DASHED
 62
     2
 10
154.000000
 20
-30.500000
 11
154.000000
 21
-43.100006
  0
LINE
  8
0
  6
DASHED
 62
     2
 10
155.721237
 20
-29.000046
 11
155.228745
 21
-43.100060
  0
LINE
  8
0
  6
DASHED
 62
     2
 10
129.772064
 20
-43.100002
 11
129.279404
 21
-28.999992
  0
LINE
  8
0
  6
DASHED
 62
     2
 10
131.000000
 20
-30.500000
 11
154.000000
 21
-30.500000
  0
LINE
  8
0
 10
-6.000000
 20
-205.000000
 11
87.000000
 21
-205.000000
  0
LINE
  8
0
 10
-6.000000
 20
-35.000000
 11
1.000000
 21
-35.000000
  0
LINE
  8
0
 10
-6.000000
 20
-56.000000
 11
1.000000
 21
-56.000000
  0
LINE
  8
0
 10
-6.000000
 20
-40.000000
 11
1.000000
 21
-40.000000
  0
LINE
  8
0
 10
-49.000000
 20
-205.499863
 11
-45.000000
 21
-205.499863
  0
LINE
  8
0
 10
-49.000000
 20
-178.499863
 11
-45.000000
 21
-178.499863
  0
LINE
  8
0
 10
-49.000092
 20
-178.149994
 11
-49.000092
 21
-205.850006
  0
LINE
  8
0
 10
-62.000092
 20
-180.500000
 11
-62.000092
 21
-203.500000
  0
LINE
  8
0
 10
-60.643219
 20
-205.849854
 11
-49.000000
 21
-205.849854
  0
LINE
  8
0
 10
-60.643219
 20
-178.149857
 11
-49.000000
 21
-178.149857
  0
LINE
  8
0
 10
-60.643219
 20
-185.074860
 11
-49.000000
 21
-185.074860
  0
LINE
  8
0
 10
-60.643219
 20
-198.924866
 11
-49.000000
 21
-198.924866
  0
LINE
  8
0
 10
-62.000019
 20
-180.499954
 11
-60.643238
 21
-178.149933
  0
LINE
  8
0
 10
-62.000042
 20
-203.500015
 11
-60.643269
 21
-205.850006
  0
LINE
  8
0
 10
-74.500000
 20
-199.999863
 11
-62.000000
 21
-199.999863
  0
LINE
  8
0
 10
-74.500000
 20
-183.999863
 11
-62.000000
 21
-183.999863
  0
LINE
  8
0
 10
-75.500092
 20
-185.000000
 11
-75.500092
 21
-199.000000
  0
LINE
  8
0
 10
-74.499924
 20
-183.999985
 11
-75.499924
 21
-185.000000
  0
LINE
  8
0
 10
-75.499939
 20
-198.999908
 11
-74.499947
 21
-199.999908
  0
LINE
  8
0
 10
-74.500122
 20
-184.000000
 11
-74.500122
 21
-200.000000
  0
LINE
  8
0
 10
-49.000000
 20
-61.500000
 11
-45.000000
 21
-61.500000
  0
LINE
  8
0
 10
-49.000000
 20
-34.500000
 11
-45.000000
 21
-34.500000
  0
LINE
  8
0
 10
-49.000000
 20
-34.149994
 11
-49.000000
 21
-61.850006
  0
LINE
  8
0
 10
-62.000000
 20
-36.500000
 11
-62.000000
 21
-59.500000
  0
LINE
  8
0
 10
-60.643219
 20
-61.850006
 11
-49.000000
 21
-61.850006
  0
LINE
  8
0
 10
-60.643219
 20
-34.149994
 11
-49.000000
 21
-34.149994
  0
LINE
  8
0
 10
-60.643219
 20
-41.074997
 11
-49.000000
 21
-41.074997
  0
LINE
  8
0
 10
-60.643219
 20
-54.925003
 11
-49.000000
 21
-54.925003
  0
LINE
  8
0
 10
-62.000019
 20
-36.499973
 11
-60.643250
 21
-34.149982
  0
LINE
  8
0
 10
-61.999969
 20
-59.499969
 11
-60.643188
 21
-61.849983
  0
LINE
  8
0
 10
-74.500000
 20
-56.000000
 11
-62.000000
 21
-56.000000
  0
LINE
  8
0
 10
-74.500000
 20
-40.000000
 11
-62.000000
 21
-40.000000
  0
LINE
  8
0
 10
-75.500000
 20
-41.000000
 11
-75.500000
 21
-55.000000
  0
LINE
  8
0
 10
-74.499977
 20
-40.000038
 11
-75.499977
 21
-41.000038
  0
LINE
  8
0
 10
-75.500023
 20
-55.000057
 11
-74.500023
 21
-56.000061
  0
LINE
  8
0
 10
-74.500031
 20
-40.000000
 11
-74.500031
 21
-56.000000
  0
LINE
  8
0
 10
165.000000
 20
-34.500137
 11
161.000000
 21
-34.500137
  0
LINE
  8
0
 10
165.000000
 20
-61.500137
 11
161.000000
 21
-61.500137
  0
LINE
  8
0
 10
165.000122
 20
-61.850006
 11
165.000122
 21
-34.149994
  0
LINE
  8
0
 10
178.000122
 20
-59.500000
 11
178.000122
 21
-36.500000
  0
LINE
  8
0
 10
176.643188
 20
-34.150146
 11
165.000000
 21
-34.150146
  0
LINE
  8
0
 10
176.643188
 20
-61.850143
 11
165.000000
 21
-61.850143
  0
LINE
  8
0
 10
176.643188
 20
-54.925140
 11
165.000000
 21
-54.925140
  0
LINE
  8
0
 10
176.643188
 20
-41.075134
 11
165.000000
 21
-41.075134
  0
LINE
  8
0
 10
178.000275
 20
-59.500286
 11
176.643494
 21
-61.850300
  0
LINE
  8
0
 10
178.000107
 20
-36.499928
 11
176.643341
 21
-34.149925
  0
LINE
  8
0
 10
190.500000
 20
-40.000137
 11
178.000000
 21
-40.000137
  0
LINE
  8
0
 10
190.500000
 20
-56.000137
 11
178.000000
 21
-56.000137
  0
LINE
  8
0
 10
191.500122
 20
-55.000000
 11
191.500122
 21
-41.000000
  0
LINE
  8
0
 10
190.499863
 20
-55.999866
 11
191.499847
 21
-54.999886
  0
LINE
  8
0
 10
191.499817
 20
-41.000267
 11
190.499847
 21
-40.000286
  0
LINE
  8
0
 10
190.500122
 20
-56.000000
 11
190.500122
 21
-40.000000
  0
LINE
  8
0
 10
165.000000
 20
-178.500137
 11
161.000000
 21
-178.500137
  0
LINE
  8
0
 10
165.000000
 20
-205.500137
 11
161.000000
 21
-205.500137
  0
LINE
  8
0
 10
165.000122
 20
-205.850006
 11
165.000122
 21
-178.149994
  0
LINE
  8
0
 10
178.000122
 20
-203.500000
 11
178.000122
 21
-180.500000
  0
LINE
  8
0
 10
176.643188
 20
-178.150146
 11
165.000000
 21
-178.150146
  0
LINE
  8
0
 10
176.643188
 20
-205.850143
 11
165.000000
 21
-205.850143
  0
LINE
  8
0
 10
176.643188
 20
-198.925140
 11
165.000000
 21
-198.925140
  0
LINE
  8
0
 10
176.643188
 20
-185.075134
 11
165.000000
 21
-185.075134
  0
LINE
  8
0
 10
178.000381
 20
-203.500336
 11
176.643600
 21
-205.850342
  0
LINE
  8
0
 10
178.000198
 20
-180.499908
 11
176.643417
 21
-178.149887
  0
LINE
  8
0
 10
190.500000
 20
-184.000137
 11
178.000000
 21
-184.000137
  0
LINE
  8
0
 10
190.500000
 20
-200.000137
 11
178.000000
 21
-200.000137
  0
LINE
  8
0
 10
191.500122
 20
-199.000000
 11
191.500122
 21
-185.000000
  0
LINE
  8
0
 10
190.499725
 20
-199.999771
 11
191.499725
 21
-198.999771
  0
LINE
  8
0
 10
191.499847
 20
-185.000122
 11
190.499863
 21
-184.000122
  0
LINE
  8
0
 10
190.500122
 20
-200.000000
 11
190.500122
 21
-184.000000
  0
LINE
  8
0
 10
-6.000000
 20
-200.000000
 11
87.000000
 21
-200.000000
  0
LINE
  8
0
 10
-6.000000
 20
-184.000000
 11
87.000000
 21
-184.000000
  0
LINE
  8
0
 10
-102.535904
 20
-100.000000
 11
-83.000000
 21
-100.000000
  0
LINE
  8
0
 10
-102.535896
 20
-140.000000
 11
-83.000000
 21
-140.000000
  0
LINE
  8
0
 10
-164.250000
 20
-138.000000
 11
-106.000000
 21
-138.000000
  0
LINE
  8
0
 10
-164.250000
 20
-102.000000
 11
-106.000000
 21
-102.000000
  0
LINE
  8
0
 10
-165.000000
 20
-102.750000
 11
-165.000000
 21
-137.250000
  0
LINE
  8
0
 10
-109.000000
 20
-102.000000
 11
-109.000000
 21
-138.000000
  0
LINE
  8
0
 10
-106.000000
 20
-102.000000
 11
-106.000000
 21
-138.000000
  0
LINE
  8
0
 10
-105.999985
 20
-138.000000
 11
-102.535889
 21
-140.000000
  0
LINE
  8
0
 10
-106.000008
 20
-101.999931
 11
-102.535912
 21
-99.999931
  0
LINE
  8
0
 10
-102.535889
 20
-100.000000
 11
-102.535889
 21
-111.282196
  0
LINE
  8
0
 10
-92.000000
 20
-111.282196
 11
-92.000000
 21
-128.717804
  0
LINE
  8
0
 10
-102.535904
 20
-111.282196
 11
-92.000000
 21
-111.282196
  0
LINE
  8
0
 10
-102.535904
 20
-128.717804
 11
-92.000000
 21
-128.717804
  0
LINE
  8
0
 62
     2
 10
-92.000023
 20
-111.282158
 11
-102.535942
 21
-128.717773
  0
LINE
  8
0
 62
     2
 10
-102.535896
 20
-111.282181
 11
-91.999992
 21
-128.717773
  0
LINE
  8
0
 10
-102.535889
 20
-128.717804
 11
-102.535889
 21
-140.000000
  0
LINE
  8
0
 62
     2
 10
-165.000000
 20
-137.250000
 11
-109.000000
 21
-137.250000
  0
LINE
  8
0
 62
     2
 10
-109.000046
 20
-137.250031
 11
-108.134644
 21
-138.000046
  0
LINE
  8
0
 62
     2
 10
-75.500000
 20
-41.300003
 11
-62.000000
 21
-41.300003
  0
LINE
  8
0
 62
     2
 10
-75.500000
 20
-54.699997
 11
-62.000000
 21
-54.699997
  0
LINE
  8
0
 62
     2
 10
-75.500092
 20
-185.299866
 11
-62.000000
 21
-185.299866
  0
LINE
  8
0
 62
     2
 10
-75.500092
 20
-198.699860
 11
-62.000000
 21
-198.699860
  0
LINE
  8
0
 62
     2
 10
191.500122
 20
-41.300140
 11
178.000000
 21
-41.300140
  0
LINE
  8
0
 62
     2
 10
191.500122
 20
-54.700134
 11
178.000000
 21
-54.700134
  0
LINE
  8
0
 10
199.000000
 20
-92.000000
 11
199.000000
 21
-148.000000
  0
LINE
  8
0
 10
198.000000
 20
-91.000000
 11
198.000000
 21
-149.000000
  0
LINE
  8
0
 10
198.999985
 20
-91.999985
 11
198.000000
 21
-91.000008
  0
LINE
  8
0
 10
198.999969
 20
-148.000000
 11
197.999954
 21
-149.000000
  0
LINE
  8
0
 10
166.200012
 20
-76.000000
 11
166.200012
 21
-164.000000
  0
LINE
  8
0
 10
165.200012
 20
-75.000000
 11
165.200012
 21
-165.000000
  0
LINE
  8
0
 10
166.199677
 20
-76.000282
 11
165.199768
 21
-75.000328
  0
LINE
  8
0
 10
174.200012
 20
-87.783508
 11
174.200012
 21
-99.183502
  0
LINE
  8
0
 10
174.200012
 20
-140.816498
 11
174.200012
 21
-152.216507
  0
LINE
  8
0
 10
198.000015
 20
-91.000053
 11
174.200012
 21
-90.048058
  0
LINE
  8
0
 10
197.999985
 20
-148.999924
 11
174.199997
 21
-149.951920
  0
LINE
  8
0
 10
173.000000
 20
-83.500000
 11
173.000000
 21
-86.983490
  0
LINE
  8
0
 10
166.199951
 20
-163.999985
 11
165.199936
 21
-165.000000
  0
LINE
  8
0
 10
172.000000
 20
-82.500000
 11
166.200012
 21
-82.500000
  0
LINE
  8
0
 10
172.000000
 20
-157.500000
 11
166.200012
 21
-157.500000
  0
LINE
  8
0
 10
173.000000
 20
-99.983490
 11
173.000000
 21
-140.016510
  0
LINE
  8
0
 10
173.000000
 20
-153.016510
 11
173.000000
 21
-156.500000
  0
LINE
  8
0
 10
173.400024
 20
-153.016510
 11
166.200012
 21
-153.016510
  0
LINE
  8
0
 10
173.400024
 20
-140.016510
 11
166.200012
 21
-140.016510
  0
LINE
  8
0
 10
173.400024
 20
-86.983490
 11
166.200012
 21
-86.983490
  0
LINE
  8
0
 10
173.400024
 20
-99.983490
 11
166.200012
 21
-99.983490
  0
LINE
  8
0
 10
174.200180
 20
-87.783379
 11
173.400162
 21
-86.983383
  0
LINE
  8
0
 10
174.200119
 20
-99.183632
 11
173.400146
 21
-99.983627
  0
LINE
  8
0
 10
173.400070
 20
-140.016510
 11
174.200058
 21
-140.816483
  0
LINE
  8
0
 10
174.200119
 20
-152.216583
 11
173.400085
 21
-153.016602
  0
LINE
  8
0
 10
173.400024
 20
-86.983490
 11
173.400024
 21
-99.983490
  0
LINE
  8
0
 10
173.400024
 20
-140.016510
 11
173.400024
 21
-153.016510
  0
LINE
  8
0
 10
165.199982
 20
-165.000000
 11
161.000000
 21
-165.000000
  0
LINE
  8
0
 10
165.200043
 20
-75.000000
 11
161.000000
 21
-75.000000
  0
LINE
  8
0
 10
318.535889
 20
-140.000000
 11
199.000000
 21
-140.000000
  0
LINE
  8
0
 10
380.250031
 20
-138.000000
 11
322.000000
 21
-138.000000
  0
LINE
  8
0
 10
380.250031
 20
-102.000000
 11
322.000000
 21
-102.000000
  0
LINE
  8
0
 10
381.000000
 20
-102.750000
 11
381.000000
 21
-137.250000
  0
LINE
  8
0
 10
325.000000
 20
-102.000000
 11
325.000000
 21
-138.000000
  0
LINE
  8
0
 10
322.000000
 20
-102.000000
 11
322.000000
 21
-138.000000
  0
LINE
  8
0
 10
321.999817
 20
-137.999756
 11
318.535736
 21
-139.999741
  0
LINE
  8
0
 10
321.999847
 20
-102.000275
 11
318.535736
 21
-100.000282
  0
LINE
  8
0
 10
318.535889
 20
-100.000000
 11
318.535889
 21
-111.282196
  0
LINE
  8
0
 10
308.000000
 20
-111.282196
 11
308.000000
 21
-128.717804
  0
LINE
  8
0
 10
318.535889
 20
-111.282196
 11
308.000000
 21
-111.282196
  0
LINE
  8
0
 10
318.535889
 20
-128.717804
 11
308.000000
 21
-128.717804
  0
LINE
  8
0
 62
     2
 10
308.000092
 20
-111.282150
 11
318.535980
 21
-128.717728
  0
LINE
  8
0
 62
     2
 10
318.535889
 20
-111.282196
 11
308.000000
 21
-128.717758
  0
LINE
  8
0
 10
318.535889
 20
-128.717804
 11
318.535889
 21
-140.000000
  0
LINE
  8
0
 62
     2
 10
381.000000
 20
-137.250000
 11
325.000000
 21
-137.250000
  0
LINE
  8
0
 62
     2
 10
325.000092
 20
-137.250092
 11
324.134766
 21
-138.000031
  0
LINE
  8
0
 10
318.535889
 20
-100.000000
 11
199.000000
 21
-100.000000
  0
LINE
  8
0
 62
     2
 10
191.500122
 20
-185.300140
 11
178.000000
 21
-185.300140
  0
LINE
  8
0
 62
     2
 10
191.500122
 20
-198.700134
 11
178.000000
 21
-198.700134
  0
LINE
  8
0
 10
-164.999969
 20
-137.249954
 11
-164.249969
 21
-137.999954
  0
LINE
  8
0
 10
-164.250000
 20
-138.000000
 11
-164.250000
 21
-102.000000
  0
LINE
  8
0
 62
     2
 10
-165.000000
 20
-102.750000
 11
-109.000000
 21
-102.750000
  0
LINE
  8
0
 62
     2
 10
-108.999977
 20
-102.750000
 11
-108.134575
 21
-101.999985
  0
LINE
  8
0
 10
-165.000092
 20
-102.749985
 11
-164.250076
 21
-101.999985
  0
LINE
  8
0
 10
381.000305
 20
-137.250305
 11
380.250336
 21
-138.000290
  0
LINE
  8
0
 10
380.250031
 20
-138.000000
 11
380.250031
 21
-102.000000
  0
LINE
  8
0
 62
     2
 10
325.000153
 20
-102.749855
 11
324.134857
 21
-101.999901
  0
LINE
  8
0
 62
     2
 10
381.000000
 20
-102.750000
 11
325.000000
 21
-102.750000
  0
LINE
  8
0
 10
381.000031
 20
-102.749985
 11
380.250061
 21
-102.000015
  0
LINE
  8
0
 62
     4
 10
1.000000
 20
-31.300003
 11
29.000000
 21
-31.300003
  0
LINE
  8
0
 62
     4
 10
1.000000
 20
-53.600357
 11
29.000000
 21
-53.600357
  0
LINE
  8
0
 62
     4
 10
1.000000
 20
-69.728638
 11
29.000000
 21
-69.728638
  0
LINE
  8
0
 62
     4
 10
1.000000
 20
-76.056725
 11
12.428368
 21
-76.056725
  0
LINE
  8
0
 62
     4
 10
1.000000
 20
-31.300003
 11
1.000000
 21
-76.056725
  0
LINE
  8
0
 62
     4
 10
29.000000
 20
-31.300003
 11
29.000000
 21
-73.706284
  0
LINE
  8
0
 10
29.000000
 20
-35.000000
 11
122.000000
 21
-35.000000
  0
LINE
  8
0
 10
29.000000
 20
-40.000000
 11
122.000000
 21
-40.000000
  0
LINE
  8
0
 10
29.000000
 20
-56.000000
 11
122.000000
 21
-56.000000
  0
LINE
  8
0
 62
     4
 10
21.134003
 20
-36.206085
 11
22.865997
 21
-36.206085
  0
LINE
  8
0
 62
     4
 10
21.134003
 20
-38.882126
 11
22.865997
 21
-38.882126
  0
LINE
  8
0
 62
     4
 10
21.133986
 20
-36.206074
 11
20.267937
 21
-37.544090
  0
LINE
  8
0
 62
     4
 10
20.267956
 20
-37.544098
 11
21.134007
 21
-38.882126
  0
LINE
  8
0
 62
     4
 10
22.865992
 20
-36.206081
 11
23.732042
 21
-37.544102
  0
LINE
  8
0
 62
     4
 10
22.866009
 20
-38.882133
 11
23.732054
 21
-37.544113
  0
LINE
  8
0
 62
     4
 10
7.133999
 20
-36.206085
 11
8.866001
 21
-36.206085
  0
LINE
  8
0
 62
     4
 10
7.133999
 20
-38.882126
 11
8.866001
 21
-38.882126
  0
LINE
  8
0
 62
     4
 10
7.134003
 20
-36.206078
 11
6.267951
 21
-37.544102
  0
LINE
  8
0
 62
     4
 10
6.267950
 20
-37.544106
 11
7.134001
 21
-38.882130
  0
LINE
  8
0
 62
     4
 10
8.865991
 20
-36.206081
 11
9.732041
 21
-37.544106
  0
LINE
  8
0
 62
     4
 10
8.866003
 20
-38.882130
 11
9.732053
 21
-37.544106
  0
LINE
  8
0
 62
     4
 10
87.000000
 20
-163.943268
 11
98.430008
 21
-163.943268
  0
LINE
  8
0
 62
     4
 10
87.000000
 20
-170.271362
 11
115.000000
 21
-170.271362
  0
LINE
  8
0
 62
     4
 10
87.000000
 20
-186.399643
 11
115.000000
 21
-186.399643
  0
LINE
  8
0
 62
     4
 10
87.000000
 20
-208.699997
 11
115.000000
 21
-208.699997
  0
LINE
  8
0
 62
     4
 10
107.134003
 20
-201.117874
 11
108.865997
 21
-201.117874
  0
LINE
  8
0
 62
     4
 10
107.134003
 20
-203.793915
 11
108.865997
 21
-203.793915
  0
LINE
  8
0
 62
     4
 10
115.000000
 20
-163.943268
 11
115.000000
 21
-208.699997
  0
LINE
  8
0
 62
     4
 10
87.000000
 20
-163.943268
 11
87.000000
 21
-165.404938
  0
LINE
  8
0
 10
115.000000
 20
-200.000000
 11
122.000000
 21
-200.000000
  0
LINE
  8
0
 10
115.000000
 20
-205.000000
 11
122.000000
 21
-205.000000
  0
LINE
  8
0
 10
115.000000
 20
-184.000000
 11
122.000000
 21
-184.000000
  0
LINE
  8
0
 62
     4
 10
107.133972
 20
-201.117844
 11
106.267921
 21
-202.455872
  0
LINE
  8
0
 62
     4
 10
106.267960
 20
-202.455902
 11
107.134010
 21
-203.793915
  0
LINE
  8
0
 62
     4
 10
108.866005
 20
-203.793900
 11
109.732063
 21
-202.455887
  0
LINE
  8
0
 62
     4
 10
109.732040
 20
-202.455887
 11
108.865997
 21
-201.117874
  0
LINE
  8
0
 62
     4
 10
93.134003
 20
-201.117874
 11
94.865997
 21
-201.117874
  0
LINE
  8
0
 62
     4
 10
93.134003
 20
-203.793915
 11
94.865997
 21
-203.793915
  0
LINE
  8
0
 62
     4
 10
93.133965
 20
-201.117844
 11
92.267914
 21
-202.455887
  0
LINE
  8
0
 62
     4
 10
92.267952
 20
-202.455902
 11
93.134003
 21
-203.793915
  0
LINE
  8
0
 62
     4
 10
94.865997
 20
-203.793915
 11
95.732048
 21
-202.455902
  0
LINE
  8
0
 62
     4
 10
95.732040
 20
-202.455887
 11
94.865997
 21
-201.117874
  0
LINE
  8
0
 62
     4
 10
97.000000
 20
-165.329300
 11
97.000000
 21
-167.425552
  0
LINE
  8
0
 62
     4
 10
105.000000
 20
-165.329300
 11
105.000000
 21
-167.425552
  0
LINE
  8
0
 62
     4
 10
103.571625
 20
-163.943268
 11
115.000000
 21
-163.943268
  0
LINE
  8
0
 62
     4
 10
-0.500000
 20
-71.079033
 11
-0.500000
 21
-75.111099
  0
LINE
  8
0
 62
     4
 10
116.500000
 20
-164.888901
 11
116.500000
 21
-168.920959
  0
LINE
  8
0
 62
     4
 10
13.238032
 20
-75.642807
 11
16.761917
 21
-74.698586
  0
LINE
  8
0
 62
     4
 10
13.238052
 20
-74.698555
 11
16.761936
 21
-75.642776
  0
LINE
  8
0
 62
     4
 10
91.500000
 20
-166.024902
 11
97.000000
 21
-166.024902
  0
LINE
  8
0
 62
     4
 10
91.500000
 20
-164.216888
 11
97.845612
 21
-164.216888
  0
LINE
  8
0
 62
     4
 10
91.500000
 20
-164.216888
 11
91.500000
 21
-166.293716
  0
LINE
  8
0
 62
     4
 10
104.153854
 20
-164.216888
 11
115.000000
 21
-164.216888
  0
LINE
  8
0
 62
     4
 10
105.000000
 20
-166.024902
 11
115.000000
 21
-166.024902
  0
LINE
  8
0
 62
     4
 10
87.000000
 20
-166.293716
 11
97.000000
 21
-166.293716
  0
LINE
  8
0
 62
     4
 10
62.000000
 20
-165.404938
 11
91.500000
 21
-165.404938
  0
LINE
  8
0
 62
     4
 10
65.000000
 20
-168.404938
 11
87.000000
 21
-168.404938
  0
LINE
  8
0
 62
     4
 10
62.000000
 20
-165.404984
 11
64.999992
 21
-168.404968
  0
LINE
  8
0
 62
     4
 10
105.000000
 20
-166.293716
 11
115.000000
 21
-166.293716
  0
LINE
  8
0
 62
     4
 10
87.000000
 20
-164.395279
 11
91.500000
 21
-164.395279
  0
LINE
  8
0
 62
     4
 10
87.000000
 20
-166.293716
 11
87.000000
 21
-208.699997
  0
LINE
  8
0
 62
     4
 10
11.000000
 20
-72.574440
 11
11.000000
 21
-74.670700
  0
LINE
  8
0
 62
     4
 10
19.000000
 20
-72.574440
 11
19.000000
 21
-74.670700
  0
LINE
  8
0
 62
     4
 10
17.570023
 20
-76.056725
 11
29.000000
 21
-76.056725
  0
LINE
  8
0
 62
     4
 10
99.238052
 20
-165.301407
 11
102.761948
 21
-164.357178
  0
LINE
  8
0
 62
     4
 10
99.238060
 20
-164.357162
 11
102.761948
 21
-165.301376
  0
LINE
  8
0
 62
     4
 10
115.000008
 20
-164.216919
 11
116.500000
 21
-164.888931
  0
LINE
  8
0
 62
     4
 10
114.999992
 20
-166.024857
 11
116.500000
 21
-166.244858
  0
LINE
  8
0
 62
     4
 10
114.999992
 20
-169.592941
 11
116.499992
 21
-168.920944
  0
LINE
  8
0
 62
     4
 10
24.500000
 20
-73.706284
 11
24.500000
 21
-75.783112
  0
LINE
  8
0
 62
     4
 10
0.999992
 20
-70.407036
 11
-0.500006
 21
-71.079033
  0
LINE
  8
0
 62
     4
 10
1.000000
 20
-73.975090
 11
11.000000
 21
-73.975090
  0
LINE
  8
0
 62
     4
 10
1.000000
 20
-75.783112
 11
11.846161
 21
-75.783112
  0
LINE
  8
0
 62
     4
 10
-0.499999
 20
-73.755096
 11
0.999999
 21
-73.975090
  0
LINE
  8
0
 62
     4
 10
0.999997
 20
-75.783127
 11
-0.500005
 21
-75.111115
  0
LINE
  8
0
 62
     4
 10
19.000000
 20
-73.975090
 11
24.500000
 21
-73.975090
  0
LINE
  8
0
 62
     4
 10
18.154396
 20
-75.783112
 11
24.500000
 21
-75.783112
  0
LINE
  8
0
 62
     4
 10
1.000000
 20
-73.706284
 11
11.000000
 21
-73.706284
  0
LINE
  8
0
 62
     4
 10
19.000000
 20
-73.706284
 11
29.000000
 21
-73.706284
  0
LINE
  8
0
 62
     4
 10
24.500000
 20
-75.604721
 11
29.000000
 21
-75.604721
  0
LINE
  8
0
 62
     4
 10
29.000000
 20
-71.595062
 11
52.267944
 21
-71.595062
  0
LINE
  8
0
 62
     4
 10
24.500000
 20
-74.595062
 11
54.000000
 21
-74.595062
  0
LINE
  8
0
 62
     4
 10
29.000000
 20
-74.595062
 11
29.000000
 21
-76.056725
  0
LINE
  8
0
 62
     4
 10
54.000019
 20
-74.595062
 11
52.267967
 21
-71.595062
  0
LINE
  8
0
  6
CENTER
 62
     2
 10
-380.550415
 20
-120.000000
 11
-178.843323
 21
-120.000000
  0
LINE
  8
0
  6
CENTER
 62
     2
 10
-280.000000
 20
-18.827713
 11
-280.000000
 21
-221.902359
  0
LINE
  8
0
 10
-307.413269
 20
-143.170547
 11
-304.067200
 21
-144.067123
  0
LINE
  8
0
 10
-308.966187
 20
-148.966110
 11
-305.620117
 21
-149.862686
  0
LINE
  8
0
 10
-309.862488
 20
-145.619827
 11
-308.965912
 21
-148.965912
  0
LINE
  8
0
 10
-304.066833
 20
-144.067032
 11
-303.170258
 21
-147.413040
  0
LINE
  8
0
 10
-305.619781
 20
-149.862671
 11
-303.170319
 21
-147.413208
  0
LINE
  8
0
 10
-309.862366
 20
-145.620071
 11
-307.412872
 21
-143.170578
  0
LINE
  8
0
 10
-305.619781
 20
-90.137321
 11
-303.170288
 21
-92.586823
  0
LINE
  8
0
 10
-303.170563
 20
-92.586868
 11
-304.067169
 21
-95.932953
  0
LINE
  8
0
 10
-308.966217
 20
-91.033928
 11
-309.862793
 21
-94.379990
  0
LINE
  8
0
 10
-305.619934
 20
-90.137421
 11
-308.966003
 21
-91.033997
  0
LINE
  8
0
 10
-304.067047
 20
-95.932999
 11
-307.413055
 21
-96.829559
  0
LINE
  8
0
 10
-309.862305
 20
-94.379951
 11
-307.412872
 21
-96.829407
  0
LINE
  8
0
 10
-252.586807
 20
-143.170319
 11
-250.137314
 21
-145.619812
  0
LINE
  8
0
 10
-250.137604
 20
-145.619843
 11
-251.034180
 21
-148.965927
  0
LINE
  8
0
 10
-255.933105
 20
-144.066971
 11
-256.829681
 21
-147.413040
  0
LINE
  8
0
 10
-252.586929
 20
-143.170456
 11
-255.932999
 21
-144.067032
  0
LINE
  8
0
 10
-251.034027
 20
-148.965958
 11
-254.380051
 21
-149.862518
  0
LINE
  8
0
 10
-256.829376
 20
-147.412949
 11
-254.379913
 21
-149.862411
  0
LINE
  8
0
 10
-256.829376
 20
-92.587029
 11
-254.379883
 21
-90.137535
  0
LINE
  8
0
 10
-254.380066
 20
-90.137459
 11
-251.034058
 21
-91.034019
  0
LINE
  8
0
 10
-255.933029
 20
-95.933052
 11
-252.586945
 21
-96.829628
  0
LINE
  8
0
 10
-256.829407
 20
-92.586853
 11
-255.932831
 21
-95.932930
  0
LINE
  8
0
 10
-251.033768
 20
-91.033997
 11
-250.137207
 21
-94.380013
  0
LINE
  8
0
 10
-252.586716
 20
-96.829605
 11
-250.137238
 21
-94.380135
  0
LINE
  8
0
 10
-371.000000
 20
-29.000000
 11
-189.000000
 21
-29.000000
  0
LINE
  8
0
 10
-371.000000
 20
-211.000000
 11
-189.000000
 21
-211.000000
  0
LINE
  8
0
 10
-189.000000
 20
-29.000000
 11
-189.000000
 21
-211.000000
  0
LINE
  8
0
 10
-371.000000
 20
-29.000000
 11
-371.000000
 21
-211.000000
  0
LINE
  8
0
  6
CENTER
 62
     2
 10
-352.000000
 20
-177.213333
 11
-352.000000
 21
-207.026672
  0
LINE
  8
0
  6
CENTER
 62
     2
 10
-366.455444
 20
-192.000000
 11
-338.569458
 21
-192.000000
  0
LINE
  8
0
 10
-364.000000
 20
-185.071793
 11
-364.000000
 21
-198.928192
  0
LINE
  8
0
 10
-340.000000
 20
-185.071793
 11
-340.000000
 21
-198.928192
  0
LINE
  8
0
 10
-340.000031
 20
-198.928116
 11
-352.000031
 21
-205.856308
  0
LINE
  8
0
 10
-352.000092
 20
-178.143478
 11
-364.000092
 21
-185.071671
  0
LINE
  8
0
 10
-363.999908
 20
-198.928131
 11
-351.999939
 21
-205.856323
  0
LINE
  8
0
 10
-351.999878
 20
-178.143555
 11
-339.999878
 21
-185.071747
  0
LINE
  8
0
 10
-363.999939
 20
-54.928192
 11
-351.999969
 21
-61.856384
  0
LINE
  8
0
 10
-351.999908
 20
-34.143612
 11
-339.999878
 21
-41.071831
  0
LINE
  8
0
  6
CENTER
 62
     2
 10
-352.000000
 20
-33.213333
 11
-352.000000
 21
-63.026672
  0
LINE
  8
0
  6
CENTER
 62
     2
 10
-366.455444
 20
-48.000000
 11
-338.569458
 21
-48.000000
  0
LINE
  8
0
 10
-364.000000
 20
-41.071793
 11
-364.000000
 21
-54.928192
  0
LINE
  8
0
 10
-340.000000
 20
-41.071793
 11
-340.000000
 21
-54.928192
  0
LINE
  8
0
 10
-340.000061
 20
-54.928059
 11
-352.000061
 21
-61.856258
  0
LINE
  8
0
 10
-352.000061
 20
-34.143421
 11
-364.000061
 21
-41.071632
  0
LINE
  8
0
 10
-219.999985
 20
-54.928158
 11
-208.000000
 21
-61.856346
  0
LINE
  8
0
 10
-207.999954
 20
-34.143635
 11
-195.999969
 21
-41.071827
  0
LINE
  8
0
  6
CENTER
 62
     2
 10
-208.000000
 20
-33.213333
 11
-208.000000
 21
-63.026672
  0
LINE
  8
0
  6
CENTER
 62
     2
 10
-222.455475
 20
-48.000000
 11
-194.569427
 21
-48.000000
  0
LINE
  8
0
 10
-220.000000
 20
-41.071793
 11
-220.000000
 21
-54.928192
  0
LINE
  8
0
 10
-196.000000
 20
-41.071793
 11
-196.000000
 21
-54.928192
  0
LINE
  8
0
 10
-196.000122
 20
-54.928085
 11
-208.000122
 21
-61.856300
  0
LINE
  8
0
 10
-208.000061
 20
-34.143459
 11
-220.000031
 21
-41.071659
  0
LINE
  8
0
 10
-219.999939
 20
-198.928131
 11
-207.999954
 21
-205.856323
  0
LINE
  8
0
 10
-208.000000
 20
-178.143555
 11
-195.999939
 21
-185.071777
  0
LINE
  8
0
  6
CENTER
 62
     2
 10
-208.000000
 20
-177.213333
 11
-208.000000
 21
-207.026672
  0
LINE
  8
0
  6
CENTER
 62
     2
 10
-222.455475
 20
-192.000000
 11
-194.569427
 21
-192.000000
  0
LINE
  8
0
 10
-220.000000
 20
-185.071793
 11
-220.000000
 21
-198.928192
  0
LINE
  8
0
 10
-196.000000
 20
-185.071793
 11
-196.000000
 21
-198.928192
  0
LINE
  8
0
 10
-196.000000
 20
-198.928116
 11
-208.000031
 21
-205.856354
  0
LINE
  8
0
 10
-208.000031
 20
-178.143494
 11
-220.000061
 21
-185.071716
  0
LINE
  8
0
 10
-298.000000
 20
-111.282196
 11
-298.000000
 21
-128.717804
  0
LINE
  8
0
 10
-262.000000
 20
-111.282196
 11
-262.000000
 21
-128.717804
  0
LINE
  8
0
  6
DASHED
 62
     1
 10
-219.878342
 20
-41.018177
 11
-211.290192
 21
-57.966450
  0
LINE
  8
0
  6
DASHED
 62
     1
 10
-197.909958
 20
-51.186325
 11
-211.290161
 21
-57.966434
  0
LINE
  8
0
  6
DASHED
 62
     1
 10
-223.892365
 20
-43.052204
 11
-207.168091
 21
-76.056740
  0
LINE
  8
0
  6
DASHED
 62
     1
 10
-200.699982
 20
-31.299978
 11
-206.498077
 21
-34.238026
  0
LINE
  8
0
  6
DASHED
 62
     1
 10
-194.679901
 20
-69.728615
 11
-202.529633
 21
-73.706284
  0
LINE
  8
0
  6
DASHED
 62
     1
 10
-206.498123
 20
-34.238068
 11
-197.909973
 21
-51.186340
  0
LINE
  8
0
  6
DASHED
 62
     1
 10
-189.399811
 20
-53.600368
 11
-194.679886
 21
-69.728638
  0
LINE
  8
0
  6
DASHED
 62
     1
 10
-219.878281
 20
-41.018139
 11
-223.892349
 21
-43.052170
  0
LINE
  8
0
  6
DASHED
 62
     1
 10
-207.993713
 20
-72.215065
 11
-206.185684
 21
-75.783127
  0
LINE
  8
0
  6
DASHED
 62
     1
 10
-204.247253
 20
-70.316635
 11
-207.993713
 21
-72.215065
  0
LINE
  8
0
  6
DASHED
 62
     1
 10
-206.276093
 20
-75.604713
 11
-207.168106
 21
-76.056717
  0
LINE
  8
0
  6
CENTER
 62
     1
 10
-200.607071
 20
-71.305748
 11
-197.821259
 21
-76.803429
  0
LINE
  8
0
  6
DASHED
 62
     1
 10
-223.892365
 20
-43.052204
 11
-207.168091
 21
-76.056740
  0
LINE
  8
0
  6
DASHED
 62
     1
 10
-196.284317
 20
-70.765854
 11
-206.185669
 21
-75.783134
  0
LINE
  8
0
  6
DASHED
 62
     1
 10
-204.247269
 20
-70.316643
 11
-202.529633
 21
-73.706291
  0
LINE
  8
0
  6
CENTER
 62
     1
 10
-197.020615
 20
-37.282967
 11
-210.229706
 21
-43.976368
  0
LINE
  8
0
  6
DASHED
 62
     1
 10
-206.099747
 20
-41.883610
 11
-202.067673
 21
-43.203632
  0
LINE
  8
0
  6
DASHED
 62
     1
 10
-204.779785
 20
-37.851551
 11
-206.099808
 21
-41.883606
  0
LINE
  8
0
  6
DASHED
 62
     1
 10
-204.418869
 20
-38.341309
 11
-205.043747
 21
-38.657951
  0
LINE
  8
0
  6
DASHED
 62
     1
 10
-202.249252
 20
-42.623001
 11
-202.874130
 21
-42.939648
  0
LINE
  8
0
  6
DASHED
 62
     1
 10
-200.699997
 20
-31.300003
 11
-189.399811
 21
-53.600361
  0
LINE
  8
0
  6
DASHED
 62
     1
 10
-204.690079
 20
-37.806091
 11
-204.779755
 21
-37.851536
  0
LINE
  8
0
  6
DASHED
 62
     1
 10
-201.978027
 20
-43.158192
 11
-202.067703
 21
-43.203636
  0
LINE
  8
0
  6
DASHED
 62
     1
 10
-207.321747
 20
-72.435074
 11
-205.965729
 21
-75.111122
  0
LINE
  8
0
  6
DASHED
 62
     1
 10
-204.645691
 20
-71.079056
 11
-203.289658
 21
-73.755104
  0
LINE
  8
0
  6
DASHED
 62
     1
 10
-203.289612
 20
-73.755066
 11
-205.965652
 21
-75.111092
  0
LINE
  8
0
  6
DASHED
 62
     1
 10
-204.645660
 20
-71.079033
 11
-207.321701
 21
-72.435051
  0
LINE
  8
0
  6
DASHED
 62
     1
 10
-207.321701
 20
-72.435089
 11
-207.993713
 21
-72.215088
  0
LINE
  8
0
  6
DASHED
 62
     1
 10
-205.965698
 20
-75.111099
 11
-206.185699
 21
-75.783112
  0
LINE
  8
0
  6
DASHED
 62
     1
 10
-204.425674
 20
-70.407013
 11
-204.645676
 21
-71.079025
  0
LINE
  8
0
  6
DASHED
 62
     1
 10
-195.332748
 20
-72.862091
 11
-202.471115
 21
-76.479294
  0
LINE
  8
0
  6
DASHED
 62
     1
 10
-203.289642
 20
-73.755104
 11
-202.617630
 21
-73.975113
  0
LINE
  8
0
  6
DASHED
 62
     1
 10
-204.425659
 20
-70.407036
 11
-202.617630
 21
-73.975090
  0
LINE
  8
0
  6
DASHED
 62
     1
 10
-203.598846
 20
-74.472298
 11
-203.327637
 21
-75.007507
  0
LINE
  8
0
  6
DASHED
 62
     1
 10
-196.284332
 20
-70.765846
 11
-196.013123
 21
-71.301056
  0
LINE
  8
0
  6
DASHED
 62
     1
 10
-196.013123
 20
-71.301041
 11
-203.327637
 21
-75.007507
  0
LINE
  8
0
  6
DASHED
 62
     1
 10
-203.372238
 20
-75.030106
 11
-202.471161
 21
-76.479301
  0
LINE
  8
0
  6
DASHED
 62
     1
 10
-195.968536
 20
-71.278450
 11
-195.332794
 21
-72.862099
  0
LINE
  8
0
  6
DASHED
 62
     1
 10
-219.878235
 20
-198.981735
 11
-211.289948
 21
-182.033508
  0
LINE
  8
0
  6
DASHED
 62
     1
 10
-197.909821
 20
-188.813690
 11
-211.289948
 21
-182.033478
  0
LINE
  8
0
  6
DASHED
 62
     1
 10
-223.892349
 20
-196.947693
 11
-207.167816
 21
-163.943283
  0
LINE
  8
0
  6
DASHED
 62
     1
 10
-200.700043
 20
-208.700073
 11
-206.498108
 21
-205.761963
  0
LINE
  8
0
  6
DASHED
 62
     1
 10
-194.679703
 20
-170.271469
 11
-202.529373
 21
-166.293747
  0
LINE
  8
0
  6
DASHED
 62
     1
 10
-206.498169
 20
-205.761963
 11
-197.909912
 21
-188.813751
  0
LINE
  8
0
  6
DASHED
 62
     1
 10
-189.399536
 20
-186.399689
 11
-194.679504
 21
-170.271378
  0
LINE
  8
0
  6
DASHED
 62
     1
 10
-219.878220
 20
-198.981689
 11
-223.892258
 21
-196.947601
  0
LINE
  8
0
  6
DASHED
 62
     1
 10
-207.993469
 20
-167.784912
 11
-206.185410
 21
-164.216888
  0
LINE
  8
0
  6
DASHED
 62
     1
 10
-204.246994
 20
-169.683365
 11
-207.993454
 21
-167.784897
  0
LINE
  8
0
  6
DASHED
 62
     1
 10
-206.275803
 20
-164.395309
 11
-207.167831
 21
-163.943283
  0
LINE
  8
0
  6
CENTER
 62
     1
 10
-200.606827
 20
-168.694260
 11
-197.820969
 21
-163.196609
  0
LINE
  8
0
  6
DASHED
 62
     1
 10
-223.892349
 20
-196.947693
 11
-207.167816
 21
-163.943283
  0
LINE
  8
0
  6
DASHED
 62
     1
 10
-196.284027
 20
-169.234146
 11
-206.185333
 21
-164.216782
  0
LINE
  8
0
  6
DASHED
 62
     1
 10
-204.246979
 20
-169.683365
 11
-202.529327
 21
-166.293716
  0
LINE
  8
0
  6
CENTER
 62
     1
 10
-197.020569
 20
-202.717087
 11
-210.229630
 21
-196.023621
  0
LINE
  8
0
  6
DASHED
 62
     1
 10
-206.099686
 20
-198.116440
 11
-202.067596
 21
-196.796463
  0
LINE
  8
0
  6
DASHED
 62
     1
 10
-204.779785
 20
-202.148468
 11
-206.099792
 21
-198.116394
  0
LINE
  8
0
  6
DASHED
 62
     1
 10
-204.418793
 20
-201.658585
 11
-205.043655
 21
-201.341934
  0
LINE
  8
0
  6
DASHED
 62
     1
 10
-202.249207
 20
-197.377136
 11
-202.874115
 21
-197.060486
  0
LINE
  8
0
  6
DASHED
 62
     1
 10
-200.700058
 20
-208.700073
 11
-189.399689
 21
-186.399765
  0
LINE
  8
0
  6
DASHED
 62
     1
 10
-204.690079
 20
-202.193954
 11
-204.779770
 21
-202.148514
  0
LINE
  8
0
  6
DASHED
 62
     1
 10
-201.977997
 20
-196.841858
 11
-202.067673
 21
-196.796417
  0
LINE
  8
0
  6
DASHED
 62
     1
 10
-207.321411
 20
-167.564896
 11
-205.965363
 21
-164.888840
  0
LINE
  8
0
  6
DASHED
 62
     1
 10
-204.645386
 20
-168.920959
 11
-203.289352
 21
-166.244904
  0
LINE
  8
0
  6
DASHED
 62
     1
 10
-203.289337
 20
-166.244904
 11
-205.965378
 21
-164.888885
  0
LINE
  8
0
  6
DASHED
 62
     1
 10
-204.645370
 20
-168.920883
 11
-207.321396
 21
-167.564835
  0
LINE
  8
0
  6
DASHED
 62
     1
 10
-207.321426
 20
-167.564865
 11
-207.993454
 21
-167.784897
  0
LINE
  8
0
  6
DASHED
 62
     1
 10
-205.965439
 20
-164.888901
 11
-206.185440
 21
-164.216904
  0
LINE
  8
0
  6
DASHED
 62
     1
 10
-204.425339
 20
-169.592926
 11
-204.645340
 21
-168.920898
  0
LINE
  8
0
  6
DASHED
 62
     1
 10
-195.332520
 20
-167.137970
 11
-202.470840
 21
-163.520691
  0
LINE
  8
0
  6
DASHED
 62
     1
 10
-203.289383
 20
-166.244904
 11
-202.617355
 21
-166.024902
  0
LINE
  8
0
  6
DASHED
 62
     1
 10
-204.425430
 20
-169.592957
 11
-202.617386
 21
-166.024933
  0
LINE
  8
0
  6
DASHED
 62
     1
 10
-203.598602
 20
-165.527710
 11
-203.327362
 21
-164.992508
  0
LINE
  8
0
  6
DASHED
 62
     1
 10
-196.284058
 20
-169.234222
 11
-196.012817
 21
-168.699036
  0
LINE
  8
0
  6
DASHED
 62
     1
 10
-196.012787
 20
-168.698959
 11
-203.327271
 21
-164.992416
  0
LINE
  8
0
  6
DASHED
 62
     1
 10
-203.371964
 20
-164.969971
 11
-202.470871
 21
-163.520782
  0
LINE
  8
0
  6
DASHED
 62
     1
 10
-195.968201
 20
-168.721588
 11
-195.332428
 21
-167.137955
  0
LINE
  8
0
 10
-83.000000
 20
148.000000
 11
-83.000000
 21
92.000000
  0
LINE
  8
0
 10
-82.000000
 20
149.000000
 11
-82.000000
 21
91.000000
  0
LINE
  8
0
 10
-83.000061
 20
148.000076
 11
-82.000076
 21
149.000046
  0
LINE
  8
0
 10
-83.000023
 20
91.999916
 11
-82.000023
 21
90.999924
  0
LINE
  8
0
 10
-45.000000
 20
211.000000
 11
-45.000000
 21
29.000000
  0
LINE
  8
0
 10
-50.200012
 20
164.000000
 11
-50.200012
 21
76.000000
  0
LINE
  8
0
 10
-49.200012
 20
165.000000
 11
-49.200012
 21
75.000000
  0
LINE
  8
0
 10
-50.199791
 20
163.999878
 11
-49.199867
 21
164.999817
  0
LINE
  8
0
 10
-58.200012
 20
152.216492
 11
-58.200012
 21
140.816498
  0
LINE
  8
0
 10
-58.200012
 20
99.183502
 11
-58.200012
 21
87.783493
  0
LINE
  8
0
 10
-81.999977
 20
148.999863
 11
-58.200008
 21
149.951859
  0
LINE
  8
0
 10
-82.000015
 20
91.000145
 11
-58.200027
 21
90.048141
  0
LINE
  8
0
 10
-57.000000
 20
156.500000
 11
-57.000000
 21
153.016510
  0
LINE
  8
0
  6
CENTER
 62
     2
 10
-77.160370
 20
192.000000
 11
196.284912
 21
192.000000
  0
LINE
  8
0
  6
CENTER
 62
     2
 10
-77.500000
 20
48.000000
 11
192.799988
 21
48.000000
  0
LINE
  8
0
 10
-50.200031
 20
75.999954
 11
-49.200008
 21
74.999954
  0
LINE
  8
0
  6
CENTER
 62
     2
 10
142.500000
 20
135.000000
 11
142.500000
 21
105.000000
  0
LINE
  8
0
 10
161.000000
 20
211.000000
 11
161.000000
 21
29.000000
  0
LINE
  8
0
 10
-56.000000
 20
157.500000
 11
-50.200012
 21
157.500000
  0
LINE
  8
0
 10
-56.000000
 20
82.500000
 11
-50.200012
 21
82.500000
  0
LINE
  8
0
 10
-57.000000
 20
140.016510
 11
-57.000000
 21
99.983498
  0
LINE
  8
0
 10
-57.000000
 20
86.983498
 11
-57.000000
 21
83.500000
  0
LINE
  8
0
 10
-57.400009
 20
86.983498
 11
-50.200012
 21
86.983498
  0
LINE
  8
0
 10
-57.400009
 20
99.983498
 11
-50.200012
 21
99.983498
  0
LINE
  8
0
 10
-57.400009
 20
153.016510
 11
-50.200012
 21
153.016510
  0
LINE
  8
0
 10
-57.400009
 20
140.016510
 11
-50.200012
 21
140.016510
  0
LINE
  8
0
 10
-58.200077
 20
152.216568
 11
-57.400082
 21
153.016571
  0
LINE
  8
0
 10
-58.200027
 20
140.816452
 11
-57.400032
 21
140.016464
  0
LINE
  8
0
 10
-57.399975
 20
99.983459
 11
-58.199959
 21
99.183479
  0
LINE
  8
0
 10
-58.199974
 20
87.783516
 11
-57.399967
 21
86.983513
  0
LINE
  8
0
 10
-57.400024
 20
153.016510
 11
-57.400024
 21
140.016510
  0
LINE
  8
0
 10
-57.400024
 20
99.983498
 11
-57.400024
 21
86.983498
  0
LINE
  8
0
 10
-49.199982
 20
75.000000
 11
-45.000000
 21
75.000000
  0
LINE
  8
0
 10
-49.200043
 20
165.000000
 11
-45.000000
 21
165.000000
  0
LINE
  8
0
 10
-6.000000
 20
211.000000
 11
-6.000000
 21
29.000000
  0
LINE
  8
0
 10
122.000000
 20
211.000000
 11
122.000000
 21
29.000000
  0
LINE
  8
0
 10
-45.000000
 20
29.000000
 11
-6.000000
 21
29.000000
  0
LINE
  8
0
 10
-45.000000
 20
211.000000
 11
-6.000000
 21
211.000000
  0
LINE
  8
0
 10
122.000000
 20
211.000000
 11
161.000000
 21
211.000000
  0
LINE
  8
0
 10
122.000000
 20
29.000000
 11
161.000000
 21
29.000000
  0
LINE
  8
0
 10
-6.000000
 20
35.000000
 11
1.000000
 21
35.000000
  0
LINE
  8
0
 10
-6.000000
 20
205.000000
 11
122.000000
 21
205.000000
  0
LINE
  8
0
 10
-6.000000
 20
184.000000
 11
122.000000
 21
184.000000
  0
LINE
  8
0
 10
-6.000000
 20
200.000000
 11
122.000000
 21
200.000000
  0
LINE
  8
0
 10
-49.000092
 20
34.500137
 11
-45.000000
 21
34.500137
  0
LINE
  8
0
 10
-49.000092
 20
61.500137
 11
-45.000000
 21
61.500137
  0
LINE
  8
0
 10
-74.500000
 20
40.000137
 11
-62.000000
 21
40.000137
  0
LINE
  8
0
 10
-74.500000
 20
56.000137
 11
-62.000000
 21
56.000137
  0
LINE
  8
0
 10
-75.500092
 20
55.000000
 11
-75.500092
 21
41.000000
  0
LINE
  8
0
 10
-74.499901
 20
55.999977
 11
-75.499901
 21
54.999977
  0
LINE
  8
0
 10
-75.499947
 20
41.000050
 11
-74.499947
 21
40.000046
  0
LINE
  8
0
 10
-74.500122
 20
56.000000
 11
-74.500122
 21
40.000000
  0
LINE
  8
0
 10
-49.000000
 20
178.500000
 11
-45.000000
 21
178.500000
  0
LINE
  8
0
 10
-49.000000
 20
205.500000
 11
-45.000000
 21
205.500000
  0
LINE
  8
0
 10
-74.500000
 20
184.000000
 11
-62.000000
 21
184.000000
  0
LINE
  8
0
 10
-74.500000
 20
200.000000
 11
-62.000000
 21
200.000000
  0
LINE
  8
0
 10
-75.500000
 20
199.000000
 11
-75.500000
 21
185.000000
  0
LINE
  8
0
 10
-74.499947
 20
199.999924
 11
-75.499954
 21
198.999924
  0
LINE
  8
0
 10
-75.500031
 20
184.999893
 11
-74.500031
 21
183.999893
  0
LINE
  8
0
 10
-74.500031
 20
200.000000
 11
-74.500031
 21
184.000000
  0
LINE
  8
0
 10
165.000000
 20
205.499863
 11
161.000000
 21
205.499863
  0
LINE
  8
0
 10
165.000000
 20
178.499863
 11
161.000000
 21
178.499863
  0
LINE
  8
0
 10
190.500000
 20
199.999863
 11
178.000000
 21
199.999863
  0
LINE
  8
0
 10
190.500000
 20
183.999863
 11
178.000000
 21
183.999863
  0
LINE
  8
0
 10
191.500122
 20
185.000000
 11
191.500122
 21
199.000000
  0
LINE
  8
0
 10
190.499924
 20
184.000122
 11
191.499908
 21
185.000092
  0
LINE
  8
0
 10
191.499771
 20
198.999741
 11
190.499802
 21
199.999725
  0
LINE
  8
0
 10
190.500122
 20
184.000000
 11
190.500122
 21
200.000000
  0
LINE
  8
0
 10
165.000000
 20
61.499863
 11
161.000000
 21
61.499863
  0
LINE
  8
0
 10
165.000000
 20
34.499863
 11
161.000000
 21
34.499863
  0
LINE
  8
0
 10
190.500000
 20
55.999863
 11
178.000000
 21
55.999863
  0
LINE
  8
0
 10
190.500000
 20
39.999863
 11
178.000000
 21
39.999863
  0
LINE
  8
0
 10
191.500122
 20
41.000000
 11
191.500122
 21
55.000000
  0
LINE
  8
0
 10
190.499741
 20
40.000141
 11
191.499741
 21
41.000141
  0
LINE
  8
0
 10
191.499847
 20
54.999832
 11
190.499847
 21
55.999836
  0
LINE
  8
0
 10
190.500122
 20
40.000000
 11
190.500122
 21
56.000000
  0
LINE
  8
0
 10
-6.000000
 20
40.000000
 11
1.000000
 21
40.000000
  0
LINE
  8
0
 10
-6.000000
 20
56.000000
 11
122.000000
 21
56.000000
  0
LINE
  8
0
 10
-90.845306
 20
140.000000
 11
-83.000000
 21
140.000000
  0
LINE
  8
0
 10
-164.250000
 20
102.000000
 11
-92.000000
 21
102.000000
  0
LINE
  8
0
 10
-164.250000
 20
138.000000
 11
-92.000000
 21
138.000000
  0
LINE
  8
0
 10
-165.000000
 20
137.250000
 11
-165.000000
 21
102.750000
  0
LINE
  8
0
 10
-109.000000
 20
138.000000
 11
-109.000000
 21
102.000000
  0
LINE
  8
0
 10
-102.535889
 20
138.000000
 11
-102.535889
 21
102.000000
  0
LINE
  8
0
 62
     2
 10
-165.000000
 20
102.750000
 11
-109.000000
 21
102.750000
  0
LINE
  8
0
 62
     2
 10
-109.000000
 20
102.750000
 11
-108.134605
 21
101.999992
  0
LINE
  8
0
 62
     2
 10
-75.500000
 20
198.699997
 11
-62.000000
 21
198.699997
  0
LINE
  8
0
 62
     2
 10
-75.500000
 20
185.300003
 11
-62.000000
 21
185.300003
  0
LINE
  8
0
 62
     2
 10
-75.500092
 20
54.700134
 11
-62.000000
 21
54.700134
  0
LINE
  8
0
 62
     2
 10
-75.500092
 20
41.300140
 11
-62.000000
 21
41.300140
  0
LINE
  8
0
 62
     2
 10
191.500122
 20
198.699860
 11
178.000000
 21
198.699860
  0
LINE
  8
0
 62
     2
 10
191.500122
 20
185.299866
 11
178.000000
 21
185.299866
  0
LINE
  8
0
 10
199.000000
 20
148.000000
 11
199.000000
 21
92.000000
  0
LINE
  8
0
 10
198.000000
 20
149.000000
 11
198.000000
 21
91.000000
  0
LINE
  8
0
 10
198.999969
 20
147.999985
 11
197.999985
 21
148.999969
  0
LINE
  8
0
 10
199.000031
 20
91.999985
 11
197.999985
 21
90.999977
  0
LINE
  8
0
 10
166.200012
 20
164.000000
 11
166.200012
 21
76.000000
  0
LINE
  8
0
 10
165.200012
 20
165.000000
 11
165.200012
 21
75.000000
  0
LINE
  8
0
 10
166.199585
 20
163.999664
 11
165.199677
 21
164.999619
  0
LINE
  8
0
 10
174.200012
 20
152.216492
 11
174.200012
 21
140.816498
  0
LINE
  8
0
 10
174.200012
 20
99.183502
 11
174.200012
 21
87.783493
  0
LINE
  8
0
 10
198.000031
 20
149.000046
 11
174.200027
 21
149.952042
  0
LINE
  8
0
 10
198.000000
 20
91.000069
 11
174.199997
 21
90.048065
  0
LINE
  8
0
 10
173.000000
 20
156.500000
 11
173.000000
 21
153.016510
  0
LINE
  8
0
 10
166.199966
 20
76.000008
 11
165.199951
 21
74.999985
  0
LINE
  8
0
 10
172.000000
 20
157.500000
 11
166.200012
 21
157.500000
  0
LINE
  8
0
 10
172.000000
 20
82.500000
 11
166.200012
 21
82.500000
  0
LINE
  8
0
 10
173.000000
 20
140.016510
 11
173.000000
 21
99.983498
  0
LINE
  8
0
 10
173.000000
 20
86.983498
 11
173.000000
 21
83.500000
  0
LINE
  8
0
 10
173.400024
 20
86.983498
 11
166.200012
 21
86.983498
  0
LINE
  8
0
 10
173.400024
 20
99.983498
 11
166.200012
 21
99.983498
  0
LINE
  8
0
 10
173.400024
 20
153.016510
 11
166.200012
 21
153.016510
  0
LINE
  8
0
 10
173.400024
 20
140.016510
 11
166.200012
 21
140.016510
  0
LINE
  8
0
 10
174.200211
 20
152.216660
 11
173.400208
 21
153.016663
  0
LINE
  8
0
 10
174.200058
 20
140.816422
 11
173.400085
 21
140.016434
  0
LINE
  8
0
 10
173.400116
 20
99.983505
 11
174.200104
 21
99.183525
  0
LINE
  8
0
 10
174.200073
 20
87.783485
 11
173.400040
 21
86.983467
  0
LINE
  8
0
 10
173.400024
 20
153.016510
 11
173.400024
 21
140.016510
  0
LINE
  8
0
 10
173.400024
 20
99.983498
 11
173.400024
 21
86.983498
  0
LINE
  8
0
 10
165.199982
 20
75.000000
 11
161.000000
 21
75.000000
  0
LINE
  8
0
 10
165.200043
 20
165.000000
 11
161.000000
 21
165.000000
  0
LINE
  8
0
 10
306.845306
 20
100.000000
 11
199.000000
 21
100.000000
  0
LINE
  8
0
 10
380.250031
 20
102.000000
 11
308.000000
 21
102.000000
  0
LINE
  8
0
 10
380.250031
 20
138.000000
 11
308.000000
 21
138.000000
  0
LINE
  8
0
 10
381.000000
 20
137.250000
 11
381.000000
 21
102.750000
  0
LINE
  8
0
 10
325.000000
 20
138.000000
 11
325.000000
 21
102.000000
  0
LINE
  8
0
 62
     2
 10
381.000000
 20
102.750000
 11
325.000000
 21
102.750000
  0
LINE
  8
0
 62
     2
 10
325.000092
 20
102.749908
 11
324.134796
 21
101.999977
  0
LINE
  8
0
 10
306.845306
 20
140.000000
 11
199.000000
 21
140.000000
  0
LINE
  8
0
 62
     2
 10
191.500122
 20
54.699860
 11
178.000000
 21
54.699860
  0
LINE
  8
0
 62
     2
 10
191.500122
 20
41.299866
 11
178.000000
 21
41.299866
  0
LINE
  8
0
 10
-165.000000
 20
102.750015
 11
-164.250000
 21
102.000015
  0
LINE
  8
0
 10
-164.250000
 20
102.000000
 11
-164.250000
 21
138.000000
  0
LINE
  8
0
 62
     2
 10
-165.000000
 20
137.250000
 11
-109.000000
 21
137.250000
  0
LINE
  8
0
 62
     2
 10
-108.999939
 20
137.249863
 11
-108.134529
 21
137.999878
  0
LINE
  8
0
 10
-165.000137
 20
137.250107
 11
-164.250122
 21
138.000107
  0
LINE
  8
0
 10
381.000244
 20
102.749916
 11
380.250214
 21
101.999908
  0
LINE
  8
0
 10
380.250031
 20
102.000000
 11
380.250031
 21
138.000000
  0
LINE
  8
0
 62
     2
 10
325.000244
 20
137.250275
 11
324.134949
 21
138.000214
  0
LINE
  8
0
 62
     2
 10
381.000000
 20
137.250000
 11
325.000000
 21
137.250000
  0
LINE
  8
0
 10
381.000000
 20
137.249969
 11
380.250061
 21
137.999939
  0
LINE
  8
0
 10
-92.000000
 20
138.000000
 11
-90.845306
 21
140.000000
  0
LINE
  8
0
 10
-90.845306
 20
100.000000
 11
-83.000000
 21
100.000000
  0
LINE
  8
0
 10
-91.999992
 20
101.999992
 11
-90.845314
 21
100.000000
  0
LINE
  8
0
 10
307.999969
 20
137.999969
 11
306.845276
 21
139.999969
  0
LINE
  8
0
 10
307.999969
 20
102.000000
 11
306.845276
 21
99.999985
  0
LINE
  8
0
 10
-62.000004
 20
204.000000
 11
-49.000004
 21
204.000000
  0
LINE
  8
0
 10
-60.928207
 20
192.000000
 11
-49.000000
 21
192.000000
  0
LINE
  8
0
 10
-62.000000
 20
204.000000
 11
-62.000000
 21
180.000000
  0
LINE
  8
0
 10
-61.999996
 20
180.000000
 11
-48.999996
 21
180.000000
  0
LINE
  8
0
 10
-49.000000
 20
205.500000
 11
-49.000000
 21
178.500000
  0
LINE
  8
0
 10
-62.000095
 20
60.000000
 11
-49.000095
 21
60.000000
  0
LINE
  8
0
 10
-60.928299
 20
48.000000
 11
-49.000092
 21
48.000000
  0
LINE
  8
0
 10
-62.000092
 20
59.999996
 11
-62.000092
 21
36.000000
  0
LINE
  8
0
 10
-62.000088
 20
36.000000
 11
-49.000088
 21
36.000000
  0
LINE
  8
0
 10
-49.000092
 20
61.500137
 11
-49.000092
 21
34.500137
  0
LINE
  8
0
 10
178.000000
 20
204.000000
 11
165.000000
 21
204.000000
  0
LINE
  8
0
 10
176.928207
 20
192.000000
 11
165.000000
 21
192.000000
  0
LINE
  8
0
 10
178.000000
 20
204.000000
 11
178.000000
 21
180.000000
  0
LINE
  8
0
 10
178.000000
 20
180.000000
 11
165.000000
 21
180.000000
  0
LINE
  8
0
 10
165.000000
 20
205.500000
 11
165.000000
 21
178.500000
  0
LINE
  8
0
 10
178.000092
 20
60.000000
 11
165.000092
 21
60.000000
  0
LINE
  8
0
 10
176.928299
 20
48.000000
 11
165.000092
 21
48.000000
  0
LINE
  8
0
 10
178.000092
 20
59.999996
 11
178.000092
 21
36.000000
  0
LINE
  8
0
 10
178.000092
 20
36.000000
 11
165.000092
 21
36.000000
  0
LINE
  8
0
 10
165.000092
 20
61.500137
 11
165.000092
 21
34.500137
  0
LINE
  8
0
 62
     4
 10
1.000000
 20
63.892372
 11
29.000000
 21
63.892372
  0
LINE
  8
0
 62
     4
 10
1.000000
 20
59.878311
 11
29.000000
 21
59.878311
  0
LINE
  8
0
 62
     4
 10
1.000000
 20
46.498093
 11
29.000000
 21
46.498093
  0
LINE
  8
0
 62
     4
 10
1.000000
 20
40.700005
 11
29.000000
 21
40.700005
  0
LINE
  8
0
 62
     4
 10
1.000000
 20
29.399818
 11
29.000000
 21
29.399818
  0
LINE
  8
0
 62
     4
 10
1.000000
 20
63.892372
 11
1.000000
 21
56.000000
  0
LINE
  8
0
 62
     4
 10
29.000000
 20
63.892372
 11
29.000000
 21
56.000000
  0
LINE
  8
0
 10
29.000000
 20
40.000000
 11
122.000000
 21
40.000000
  0
LINE
  8
0
 10
29.000000
 20
35.000000
 11
122.000000
 21
35.000000
  0
LINE
  8
0
 62
     4
 10
1.000000
 20
46.498093
 11
1.000000
 21
29.399818
  0
LINE
  8
0
 62
     4
 10
29.000000
 20
46.498093
 11
29.000000
 21
29.399818
  0
LINE
  8
0
 62
     4
 10
21.134003
 20
38.213959
 11
22.865997
 21
38.213959
  0
LINE
  8
0
 62
     4
 10
21.134003
 20
36.857941
 11
22.865997
 21
36.857941
  0
LINE
  8
0
 62
     4
 10
21.134003
 20
38.213963
 11
20.267956
 21
37.535954
  0
LINE
  8
0
 62
     4
 10
21.133995
 20
36.857941
 11
20.267944
 21
37.535954
  0
LINE
  8
0
 62
     4
 10
22.866009
 20
38.213970
 11
23.732056
 21
37.535965
  0
LINE
  8
0
 62
     4
 10
22.865999
 20
36.857933
 11
23.732050
 21
37.535946
  0
LINE
  8
0
 62
     4
 10
7.133999
 20
38.213959
 11
8.866001
 21
38.213959
  0
LINE
  8
0
 62
     4
 10
7.133999
 20
36.857941
 11
8.866001
 21
36.857941
  0
LINE
  8
0
 62
     4
 10
7.134000
 20
38.213959
 11
6.267951
 21
37.535950
  0
LINE
  8
0
 62
     4
 10
7.133999
 20
36.857948
 11
6.267955
 21
37.535957
  0
LINE
  8
0
 62
     4
 10
8.866003
 20
38.213966
 11
9.732050
 21
37.535957
  0
LINE
  8
0
 62
     4
 10
8.865998
 20
36.857937
 11
9.732048
 21
37.535950
  0
LINE
  8
0
 62
     4
 10
87.000000
 20
35.000000
 11
87.000000
 21
29.399803
  0
LINE
  8
0
 62
     4
 10
115.000000
 20
35.000000
 11
115.000000
 21
29.399803
  0
LINE
  8
0
 62
     4
 10
87.000000
 20
34.679825
 11
115.000000
 21
34.679825
  0
LINE
  8
0
 62
     4
 10
87.000000
 20
29.399803
 11
115.000000
 21
29.399803
  0
LINE
  8
0
  6
CENTER
 62
     2
 10
-171.576782
 20
120.000000
 11
387.182129
 21
120.000000
  0
LINE
  8
0
  6
CENTER
 62
     2
 10
-26.500000
 20
135.000000
 11
-26.500000
 21
105.000000
  0
ARC
  8
0
 10
332.583313
 20
-120.000000
 40
26.083321
 50
160.474304
 51
199.525635
  0
ARC
  8
0
 10
-56.000000
 20
-83.500000
 40
1.000000
 50
90.000000
 51
180.000000
  0
ARC
  8
0
 10
-56.000000
 20
-156.500000
 40
1.000000
 50
180.000000
 51
270.000000
  0
CIRCLE
  8
0
 10
-26.500000
 20
-120.000000
 40
7.950000
  0
CIRCLE
  8
0
  6
DASHED
 62
     2
 10
142.500000
 20
-120.000000
 40
7.950000
  0
CIRCLE
  8
0
 10
-26.500000
 20
-120.000000
 40
5.150000
  0
CIRCLE
  8
0
  6
DASHED
 62
     2
 10
142.500000
 20
-120.000000
 40
5.150000
  0
ARC
  8
0
 10
-56.903473
 20
-181.612488
 40
5.096536
 50
137.204651
 51
222.795410
  0
ARC
  8
0
 10
-43.648956
 20
-192.000000
 40
18.351051
 50
157.829636
 51
202.170425
  0
ARC
  8
0
 10
-56.903473
 20
-202.387497
 40
5.096536
 50
137.204651
 51
222.795380
  0
ARC
  8
0
 10
-56.903473
 20
-58.387497
 40
5.096536
 50
137.204651
 51
222.795380
  0
ARC
  8
0
 10
-43.648956
 20
-48.000000
 40
18.351051
 50
157.829590
 51
202.170395
  0
ARC
  8
0
 10
-56.903473
 20
-37.612488
 40
5.096536
 50
137.204651
 51
222.795441
  0
ARC
  8
0
 10
172.903442
 20
-37.612503
 40
5.096533
 50
317.204681
 51
42.795357
  0
ARC
  8
0
 10
159.648926
 20
-48.000000
 40
18.351049
 50
337.829620
 51
22.170406
  0
ARC
  8
0
 10
172.903442
 20
-58.387512
 40
5.096533
 50
317.204681
 51
42.795536
  0
ARC
  8
0
 10
172.903442
 20
-181.612503
 40
5.096536
 50
317.204651
 51
42.795357
  0
ARC
  8
0
 10
159.648926
 20
-192.000000
 40
18.351048
 50
337.829620
 51
22.170418
  0
ARC
  8
0
 10
172.903442
 20
-202.387512
 40
5.096536
 50
317.204651
 51
42.795471
  0
ARC
  8
0
 10
-93.298279
 20
-120.000000
 40
12.701720
 50
136.658310
 51
223.341690
  0
ARC
  8
0
 10
-116.583321
 20
-120.000000
 40
26.083323
 50
340.474335
 51
19.525663
  0
ARC
  8
0
 10
172.000000
 20
-83.500000
 40
1.000000
 50
0.000000
 51
90.000000
  0
ARC
  8
0
 10
172.000000
 20
-156.500000
 40
1.000000
 50
270.000000
 51
0.000000
  0
ARC
  8
0
 10
309.298279
 20
-120.000000
 40
12.701715
 50
316.658234
 51
43.341618
  0
ARC
  8
0
 10
-310.720642
 20
-100.289764
 40
0.999999
 50
58.297192
 51
147.315308
  0
CIRCLE
  8
0
 10
-280.000000
 20
-120.000000
 40
30.000000
  0
ARC
  8
0
 10
-280.000000
 20
-120.000000
 40
37.500000
 50
0.000000
 51
32.684067
  0
ARC
  8
0
 10
-306.516479
 20
-146.516510
 40
7.000000
 50
0.000000
 51
121.703087
  0
ARC
  8
0
 10
-306.516479
 20
-93.483490
 40
7.000000
 50
0.000000
 51
31.702795
  0
ARC
  8
0
 10
-253.483521
 20
-93.483490
 40
7.000012
 50
148.297150
 51
301.702911
  0
ARC
  8
0
 10
-280.000000
 20
-120.000000
 40
37.499996
 50
57.315914
 51
122.684090
  0
ARC
  8
0
 10
-260.289795
 20
-89.279388
 40
1.000012
 50
328.297638
 51
57.315781
  0
ARC
  8
0
 10
-249.279358
 20
-100.289764
 40
1.000000
 50
32.684219
 51
121.702805
  0
ARC
  8
0
 10
-280.000000
 20
-120.000000
 40
37.499996
 50
327.315948
 51
0.000000
  0
ARC
  8
0
 10
-253.483521
 20
-146.516510
 40
7.000000
 50
58.297085
 51
211.702850
  0
ARC
  8
0
 10
-249.279358
 20
-139.710236
 40
0.999999
 50
238.297195
 51
327.315765
  0
ARC
  8
0
 10
-260.289795
 20
-150.720627
 40
1.000000
 50
302.684235
 51
31.703268
  0
ARC
  8
0
 10
-280.000000
 20
-120.000000
 40
37.499992
 50
237.315903
 51
302.684082
  0
ARC
  8
0
 10
-306.516479
 20
-146.516510
 40
6.999986
 50
328.297028
 51
0.000000
  0
ARC
  8
0
 10
-299.710205
 20
-150.720627
 40
1.000012
 50
148.297653
 51
237.315781
  0
ARC
  8
0
 10
-310.720642
 20
-139.710236
 40
1.000013
 50
212.683746
 51
301.702820
  0
ARC
  8
0
 10
-280.000000
 20
-120.000000
 40
37.499996
 50
147.315948
 51
212.684021
  0
ARC
  8
0
 10
-306.516479
 20
-93.483490
 40
7.000001
 50
238.296951
 51
0.000000
  0
ARC
  8
0
 10
-299.710205
 20
-89.279388
 40
1.000000
 50
122.684219
 51
211.703644
  0
CIRCLE
  8
0
 10
-280.000000
 20
-120.000000
 40
45.000000
  0
CIRCLE
  8
0
 10
-306.516479
 20
-146.516510
 40
6.500000
  0
CIRCLE
  8
0
 10
-253.483521
 20
-146.516510
 40
6.500000
  0
CIRCLE
  8
0
 10
-253.483521
 20
-93.483490
 40
6.500000
  0
CIRCLE
  8
0
 10
-306.516479
 20
-93.483490
 40
6.500000
  0
CIRCLE
  8
0
 10
-352.000000
 20
-192.000000
 40
8.000000
  0
CIRCLE
  8
0
 10
-208.000000
 20
-192.000000
 40
8.000000
  0
CIRCLE
  8
0
 10
-208.000000
 20
-48.000000
 40
8.000000
  0
CIRCLE
  8
0
 10
-352.000000
 20
-48.000000
 40
8.000000
  0
CIRCLE
  8
0
 10
-352.000000
 20
-192.000000
 40
11.500000
  0
CIRCLE
  8
0
 10
-352.000000
 20
-48.000000
 40
11.500000
  0
CIRCLE
  8
0
 10
-208.000000
 20
-48.000000
 40
11.500000
  0
CIRCLE
  8
0
 10
-208.000000
 20
-192.000000
 40
11.500000
  0
CIRCLE
  8
0
 10
-280.000000
 20
-120.000000
 40
20.000000
  0
CIRCLE
  8
0
 10
-280.000000
 20
-120.000000
 40
18.000000
  0
CIRCLE
  8
0
 62
     2
 10
-352.000000
 20
-192.000000
 40
6.700000
  0
CIRCLE
  8
0
 62
     2
 10
-352.000000
 20
-48.000000
 40
6.700000
  0
CIRCLE
  8
0
 62
     2
 10
-280.000000
 20
-120.000000
 40
15.400000
  0
CIRCLE
  8
0
 62
     2
 10
-208.000000
 20
-48.000000
 40
6.700000
  0
CIRCLE
  8
0
 62
     2
 10
-208.000000
 20
-192.000000
 40
6.700000
  0
CIRCLE
  8
0
  6
DASHED
 62
     1
 10
-205.305664
 20
-166.904938
 40
1.500000
  0
ARC
  8
0
  6
DASHED
 62
     1
 10
-203.244095
 20
-66.101700
 40
10.406347
 50
274.259674
 51
296.872589
  0
ARC
  8
0
  6
DASHED
 62
     1
 10
-203.244095
 20
-66.101700
 40
10.406348
 50
296.872589
 51
319.485443
  0
ARC
  8
0
  6
DASHED
 62
     1
 10
-203.243866
 20
-173.898285
 40
10.406356
 50
63.126972
 51
85.739830
  0
ARC
  8
0
  6
DASHED
 62
     1
 10
-203.243866
 20
-173.898285
 40
10.406342
 50
40.514133
 51
63.126972
  0
ARC
  8
0
 10
-56.000000
 20
156.500000
 40
1.000000
 50
90.000000
 51
180.000000
  0
ARC
  8
0
 10
-56.000000
 20
83.500000
 40
1.000000
 50
180.000000
 51
270.000000
  0
ARC
  8
0
 10
172.000000
 20
156.500000
 40
1.000000
 50
0.000000
 51
90.000000
  0
ARC
  8
0
 10
172.000000
 20
83.500000
 40
1.000000
 50
270.000000
 51
0.000000
  0
ARC
  8
0
 10
-44.669884
 20
198.000000
 40
17.330120
 50
159.743835
 51
200.256119
  0
ARC
  8
0
 10
-44.669884
 20
186.000000
 40
17.330118
 50
159.743774
 51
200.256058
  0
ARC
  8
0
 10
-44.669975
 20
54.000000
 40
17.330120
 50
159.743851
 51
200.256134
  0
ARC
  8
0
 10
-44.669975
 20
42.000000
 40
17.330118
 50
159.743790
 51
200.256073
  0
ARC
  8
0
 10
160.669983
 20
42.000000
 40
17.330122
 50
339.743896
 51
20.256174
  0
ARC
  8
0
 10
160.669983
 20
54.000000
 40
17.330114
 50
339.743835
 51
20.256109
  0
ARC
  8
0
 10
160.669891
 20
198.000000
 40
17.330114
 50
339.743835
 51
20.256109
  0
ARC
  8
0
 10
160.669891
 20
186.000000
 40
17.330122
 50
339.743896
 51
20.256174
  0
CIRCLE
  8
0
 62
     2
 10
142.500000
 20
120.000000
 40
13.220500
  0
CIRCLE
  8
0
 10
142.500000
 20
120.000000
 40
12.058500
  0
CIRCLE
  8
0
 62
     2
 10
-26.500000
 20
120.000000
 40
13.220500
  0
CIRCLE
  8
0
 10
-26.500000
 20
120.000000
 40
12.058500
  0
ARC
  8
0
 62
     4
 10
22.485704
 20
-37.544098
 40
1.914294
 50
348.799408
 51
11.200604
  0
ARC
  8
0
 62
     4
 10
22.356789
 20
-37.581551
 40
2.048063
 50
11.527869
 51
43.658062
  0
ARC
  8
0
 62
     4
 10
22.000000
 20
-37.994663
 40
2.591917
 50
44.820133
 51
135.179871
  0
ARC
  8
0
 62
     4
 10
21.643211
 20
-37.581551
 40
2.048064
 50
136.341934
 51
168.472137
  0
ARC
  8
0
 62
     4
 10
21.514296
 20
-37.544098
 40
1.914294
 50
168.799393
 51
191.200607
  0
ARC
  8
0
 62
     4
 10
21.643211
 20
-37.506645
 40
2.048063
 50
191.527863
 51
223.658066
  0
ARC
  8
0
 62
     4
 10
22.000000
 20
-37.093533
 40
2.591917
 50
224.820129
 51
315.179871
  0
ARC
  8
0
 62
     4
 10
22.356789
 20
-37.506645
 40
2.048064
 50
316.341949
 51
348.472137
  0
ARC
  8
0
 62
     4
 10
22.608269
 20
-37.545269
 40
2.391731
 50
348.686584
 51
11.093194
  0
ARC
  8
0
 62
     4
 10
22.446728
 20
-37.591877
 40
2.559264
 50
11.421303
 51
43.555782
  0
ARC
  8
0
 62
     4
 10
21.998915
 20
-38.108498
 40
3.240449
 50
44.719772
 51
135.059921
  0
ARC
  8
0
 62
     4
 10
21.553091
 20
-37.590157
 40
2.559262
 50
136.223953
 51
168.358429
  0
ARC
  8
0
 62
     4
 10
21.391731
 20
-37.542927
 40
2.391731
 50
168.686569
 51
191.093201
  0
ARC
  8
0
 62
     4
 10
21.553272
 20
-37.496319
 40
2.559264
 50
191.421310
 51
223.555786
  0
ARC
  8
0
 62
     4
 10
22.001085
 20
-36.979698
 40
3.240449
 50
224.719772
 51
315.059937
  0
ARC
  8
0
 62
     4
 10
22.446909
 20
-37.498039
 40
2.559262
 50
316.223938
 51
348.358429
  0
ARC
  8
0
 62
     4
 10
8.485705
 20
-37.544098
 40
1.914294
 50
348.799408
 51
11.200604
  0
ARC
  8
0
 62
     4
 10
8.356789
 20
-37.581551
 40
2.048064
 50
11.527864
 51
43.658081
  0
ARC
  8
0
 62
     4
 10
8.000000
 20
-37.994663
 40
2.591917
 50
44.820148
 51
135.179855
  0
ARC
  8
0
 62
     4
 10
7.643211
 20
-37.581551
 40
2.048063
 50
136.341904
 51
168.472137
  0
ARC
  8
0
 62
     4
 10
7.514295
 20
-37.544098
 40
1.914294
 50
168.799393
 51
191.200607
  0
ARC
  8
0
 62
     4
 10
7.643211
 20
-37.506645
 40
2.048063
 50
191.527863
 51
223.658096
  0
ARC
  8
0
 62
     4
 10
8.000000
 20
-37.093533
 40
2.591917
 50
224.820145
 51
315.179840
  0
ARC
  8
0
 62
     4
 10
8.356789
 20
-37.506645
 40
2.048063
 50
316.341919
 51
348.472137
  0
ARC
  8
0
 62
     4
 10
8.608270
 20
-37.545269
 40
2.391730
 50
348.686554
 51
11.093198
  0
ARC
  8
0
 62
     4
 10
8.446728
 20
-37.591877
 40
2.559264
 50
11.421303
 51
43.555782
  0
ARC
  8
0
 62
     4
 10
7.998915
 20
-38.108498
 40
3.240449
 50
44.719780
 51
135.059952
  0
ARC
  8
0
 62
     4
 10
7.553092
 20
-37.590157
 40
2.559263
 50
136.223969
 51
168.358444
  0
ARC
  8
0
 62
     4
 10
7.391730
 20
-37.542927
 40
2.391731
 50
168.686569
 51
191.093201
  0
ARC
  8
0
 62
     4
 10
7.553272
 20
-37.496319
 40
2.559264
 50
191.421310
 51
223.555786
  0
ARC
  8
0
 62
     4
 10
8.001085
 20
-36.979698
 40
3.240449
 50
224.719772
 51
315.059937
  0
ARC
  8
0
 62
     4
 10
8.446909
 20
-37.498039
 40
2.559263
 50
316.223969
 51
348.358429
  0
ARC
  8
0
 62
     4
 10
108.488060
 20
-202.455154
 40
1.911935
 50
348.880951
 51
11.296212
  0
ARC
  8
0
 62
     4
 10
108.358574
 20
-202.493011
 40
2.046359
 50
11.625474
 51
43.766903
  0
ARC
  8
0
 62
     4
 10
108.000702
 20
-202.908936
 40
2.593054
 50
44.933960
 51
135.242935
  0
ARC
  8
0
 62
     4
 10
107.641541
 20
-202.494110
 40
2.046359
 50
136.410034
 51
168.551575
  0
ARC
  8
0
 62
     4
 10
107.511940
 20
-202.456650
 40
1.911935
 50
168.880951
 51
191.296219
  0
ARC
  8
0
 62
     4
 10
107.641426
 20
-202.418793
 40
2.046359
 50
191.625473
 51
223.766907
  0
ARC
  8
0
 62
     4
 10
107.999298
 20
-202.002869
 40
2.593054
 50
224.933960
 51
315.242950
  0
ARC
  8
0
 62
     4
 10
108.358459
 20
-202.417694
 40
2.046359
 50
316.410034
 51
348.551575
  0
ARC
  8
0
 62
     4
 10
108.610146
 20
-202.455902
 40
2.389853
 50
348.792267
 51
11.207733
  0
ARC
  8
0
 62
     4
 10
108.448196
 20
-202.502991
 40
2.557909
 50
11.537300
 51
43.678978
  0
ARC
  8
0
 62
     4
 10
108.000000
 20
-203.022263
 40
3.241351
 50
44.845993
 51
135.154007
  0
ARC
  8
0
 62
     4
 10
107.551804
 20
-202.502991
 40
2.557916
 50
136.321014
 51
168.462708
  0
ARC
  8
0
 62
     4
 10
107.389854
 20
-202.455902
 40
2.389853
 50
168.792267
 51
191.207733
  0
ARC
  8
0
 62
     4
 10
107.551804
 20
-202.408813
 40
2.557909
 50
191.537292
 51
223.678986
  0
ARC
  8
0
 62
     4
 10
108.000000
 20
-201.889542
 40
3.241351
 50
224.845993
 51
315.154022
  0
ARC
  8
0
 62
     4
 10
108.448196
 20
-202.408813
 40
2.557916
 50
316.321014
 51
348.462708
  0
ARC
  8
0
 62
     4
 10
94.488060
 20
-202.455154
 40
1.911935
 50
348.880951
 51
11.296212
  0
ARC
  8
0
 62
     4
 10
94.358574
 20
-202.493011
 40
2.046359
 50
11.625474
 51
43.766903
  0
ARC
  8
0
 62
     4
 10
94.000702
 20
-202.908936
 40
2.593054
 50
44.933960
 51
135.242935
  0
ARC
  8
0
 62
     4
 10
93.641541
 20
-202.494110
 40
2.046359
 50
136.410034
 51
168.551575
  0
ARC
  8
0
 62
     4
 10
93.511940
 20
-202.456650
 40
1.911935
 50
168.880951
 51
191.296219
  0
ARC
  8
0
 62
     4
 10
93.641426
 20
-202.418793
 40
2.046359
 50
191.625473
 51
223.766907
  0
ARC
  8
0
 62
     4
 10
93.999298
 20
-202.002869
 40
2.593054
 50
224.933960
 51
315.242950
  0
ARC
  8
0
 62
     4
 10
94.358459
 20
-202.417694
 40
2.046359
 50
316.410034
 51
348.551575
  0
ARC
  8
0
 62
     4
 10
94.610146
 20
-202.455902
 40
2.389853
 50
348.792267
 51
11.207733
  0
ARC
  8
0
 62
     4
 10
94.448196
 20
-202.502991
 40
2.557909
 50
11.537300
 51
43.678978
  0
ARC
  8
0
 62
     4
 10
94.000000
 20
-203.022263
 40
3.241351
 50
44.845993
 51
135.154007
  0
ARC
  8
0
 62
     4
 10
93.551804
 20
-202.502991
 40
2.557916
 50
136.321014
 51
168.462708
  0
ARC
  8
0
 62
     4
 10
93.389854
 20
-202.455902
 40
2.389853
 50
168.792267
 51
191.207733
  0
ARC
  8
0
 62
     4
 10
93.551804
 20
-202.408813
 40
2.557909
 50
191.537292
 51
223.678986
  0
ARC
  8
0
 62
     4
 10
94.000000
 20
-201.889542
 40
3.241351
 50
224.845993
 51
315.154022
  0
ARC
  8
0
 62
     4
 10
94.448196
 20
-202.408813
 40
2.557916
 50
316.321014
 51
348.462708
  0
ARC
  8
0
 62
     4
 10
97.841927
 20
-167.425552
 40
0.841927
 50
180.000000
 51
201.902069
  0
ARC
  8
0
 62
     4
 10
98.680161
 20
-166.944977
 40
1.803849
 50
206.137070
 51
245.629211
  0
ARC
  8
0
 62
     4
 10
101.000000
 20
-161.644531
 40
7.589610
 50
246.188232
 51
293.811768
  0
ARC
  8
0
 62
     4
 10
103.319839
 20
-166.944977
 40
1.803845
 50
294.370789
 51
333.862915
  0
ARC
  8
0
 62
     4
 10
104.158073
 20
-167.425552
 40
0.841926
 50
338.097931
 51
0.000000
  0
ARC
  8
0
 62
     4
 10
104.158073
 20
-165.329300
 40
0.841926
 50
338.097931
 51
21.902065
  0
ARC
  8
0
 62
     4
 10
103.319839
 20
-165.809875
 40
1.803849
 50
26.137075
 51
65.629211
  0
ARC
  8
0
 62
     4
 10
101.000000
 20
-171.110321
 40
7.589610
 50
66.188225
 51
113.811775
  0
ARC
  8
0
 62
     4
 10
98.680161
 20
-165.809875
 40
1.803845
 50
114.370789
 51
153.862930
  0
ARC
  8
0
 62
     4
 10
97.841927
 20
-165.329300
 40
0.841926
 50
158.097931
 51
201.902069
  0
ARC
  8
0
 62
     4
 10
98.680161
 20
-164.848724
 40
1.803849
 50
206.137070
 51
245.629211
  0
ARC
  8
0
 62
     4
 10
101.000000
 20
-159.548279
 40
7.589610
 50
246.188232
 51
293.811768
  0
ARC
  8
0
 62
     4
 10
103.319839
 20
-164.848724
 40
1.803845
 50
294.370789
 51
333.862915
  0
ARC
  8
0
 62
     4
 10
18.158073
 20
-72.574440
 40
0.841927
 50
0.000000
 51
21.902065
  0
ARC
  8
0
 62
     4
 10
17.319843
 20
-73.055008
 40
1.803842
 50
26.136911
 51
65.629318
  0
ARC
  8
0
 62
     4
 10
15.000000
 20
-78.355453
 40
7.589610
 50
66.188225
 51
113.811768
  0
ARC
  8
0
 62
     4
 10
12.680157
 20
-73.055008
 40
1.803843
 50
114.370651
 51
153.863068
  0
ARC
  8
0
 62
     4
 10
11.841926
 20
-72.574440
 40
0.841925
 50
158.097885
 51
180.000000
  0
ARC
  8
0
 62
     4
 10
18.158073
 20
-74.670700
 40
0.841926
 50
338.097931
 51
21.902065
  0
ARC
  8
0
 62
     4
 10
17.319843
 20
-75.151268
 40
1.803842
 50
26.136911
 51
65.629318
  0
ARC
  8
0
 62
     4
 10
15.000000
 20
-80.451714
 40
7.589610
 50
66.188225
 51
113.811768
  0
ARC
  8
0
 62
     4
 10
12.680157
 20
-75.151268
 40
1.803843
 50
114.370651
 51
153.863068
  0
ARC
  8
0
 62
     4
 10
11.841926
 20
-74.670700
 40
0.841925
 50
158.097885
 51
201.902115
  0
ARC
  8
0
 62
     4
 10
12.680157
 20
-74.190132
 40
1.803841
 50
206.136932
 51
245.629349
  0
ARC
  8
0
 62
     4
 10
15.000000
 20
-68.889687
 40
7.589610
 50
246.188232
 51
293.811768
  0
ARC
  8
0
 62
     4
 10
17.319843
 20
-74.190132
 40
1.803844
 50
294.370667
 51
333.863098
  0
ARC
  8
0
 62
     4
 10
23.895164
 20
37.535950
 40
0.504836
 50
338.090698
 51
21.909300
  0
ARC
  8
0
 62
     4
 10
23.392138
 20
37.247463
 40
1.082135
 50
26.146383
 51
65.638657
  0
ARC
  8
0
 62
     4
 10
22.000000
 20
34.065617
 40
4.555133
 50
66.195824
 51
113.804176
  0
ARC
  8
0
 62
     4
 10
20.607862
 20
37.247463
 40
1.082133
 50
114.361343
 51
153.853622
  0
ARC
  8
0
 62
     4
 10
20.104836
 20
37.535950
 40
0.504836
 50
158.090698
 51
201.909302
  0
ARC
  8
0
 62
     4
 10
20.607862
 20
37.824436
 40
1.082135
 50
206.146378
 51
245.638657
  0
ARC
  8
0
 62
     4
 10
22.000000
 20
41.006283
 40
4.555133
 50
246.195816
 51
293.804169
  0
ARC
  8
0
 62
     4
 10
23.392138
 20
37.824436
 40
1.082133
 50
294.361359
 51
333.853607
  0
ARC
  8
0
 62
     4
 10
24.368961
 20
37.535950
 40
0.631039
 50
338.090607
 51
21.909399
  0
ARC
  8
0
 62
     4
 10
23.740179
 20
37.175339
 40
1.352663
 50
26.146580
 51
65.638893
  0
ARC
  8
0
 62
     4
 10
22.000000
 20
33.198006
 40
5.693939
 50
66.195915
 51
113.804085
  0
ARC
  8
0
 62
     4
 10
20.259821
 20
37.175339
 40
1.352663
 50
114.361107
 51
153.853424
  0
ARC
  8
0
 62
     4
 10
19.631039
 20
37.535950
 40
0.631039
 50
158.090607
 51
201.909393
  0
ARC
  8
0
 62
     4
 10
20.259821
 20
37.896561
 40
1.352663
 50
206.146576
 51
245.638901
  0
ARC
  8
0
 62
     4
 10
22.000000
 20
41.873894
 40
5.693939
 50
246.195908
 51
293.804077
  0
ARC
  8
0
 62
     4
 10
23.740179
 20
37.896561
 40
1.352663
 50
294.361115
 51
333.853424
  0
ARC
  8
0
 62
     4
 10
9.895164
 20
37.535950
 40
0.504837
 50
338.090729
 51
21.909260
  0
ARC
  8
0
 62
     4
 10
9.392138
 20
37.247463
 40
1.082134
 50
26.146406
 51
65.638702
  0
ARC
  8
0
 62
     4
 10
8.000000
 20
34.065617
 40
4.555133
 50
66.195824
 51
113.804176
  0
ARC
  8
0
 62
     4
 10
6.607862
 20
37.247463
 40
1.082133
 50
114.361298
 51
153.853592
  0
ARC
  8
0
 62
     4
 10
6.104836
 20
37.535950
 40
0.504837
 50
158.090744
 51
201.909256
  0
ARC
  8
0
 62
     4
 10
6.607862
 20
37.824436
 40
1.082134
 50
206.146408
 51
245.638702
  0
ARC
  8
0
 62
     4
 10
8.000000
 20
41.006283
 40
4.555133
 50
246.195816
 51
293.804169
  0
ARC
  8
0
 62
     4
 10
9.392138
 20
37.824436
 40
1.082133
 50
294.361298
 51
333.853607
  0
ARC
  8
0
 62
     4
 10
10.368960
 20
37.535950
 40
0.631040
 50
338.090637
 51
21.909367
  0
ARC
  8
0
 62
     4
 10
9.740179
 20
37.175339
 40
1.352663
 50
26.146580
 51
65.638893
  0
ARC
  8
0
 62
     4
 10
8.000000
 20
33.198006
 40
5.693939
 50
66.195915
 51
113.804085
  0
ARC
  8
0
 62
     4
 10
6.259821
 20
37.175339
 40
1.352663
 50
114.361107
 51
153.853424
  0
ARC
  8
0
 62
     4
 10
5.631040
 20
37.535950
 40
0.631040
 50
158.090637
 51
201.909363
  0
ARC
  8
0
 62
     4
 10
6.259821
 20
37.896561
 40
1.352663
 50
206.146576
 51
245.638901
  0
ARC
  8
0
 62
     4
 10
8.000000
 20
41.873894
 40
5.693939
 50
246.195908
 51
293.804077
  0
ARC
  8
0
 62
     4
 10
9.740179
 20
37.896561
 40
1.352663
 50
294.361115
 51
333.853424
  0
TEXT
  8
0
 10
-369.785309
 20
256.649994
 40
9.000000
  1
SD CYLINDER
 50
0.000000
 41
1.052632
 51
0.000000
  7
STANDARD
  0
TEXT
  8
0
 10
242.014816
 20
-274.500000
 40
12.500000
  1
KOGANEI CORP.
 50
0.000000
 41
1.052632
 51
0.000000
  7
STANDARD
  0
TEXT
  8
0
 10
251.264664
 20
256.649994
 40
9.000000
  1
DATE: AUG ,1993
 50
0.000000
 41
1.052632
 51
0.000000
  7
STANDARD
  0
TEXT
  8
0
 10
-330.785309
 20
208.149994
 40
9.000000
  1
(WITH SENSOR SWITCH)
 50
0.000000
 41
1.052632
 51
0.000000
  7
STANDARD
  0
TEXT
  8
0
 10
-384.785309
 20
224.149994
 40
9.000000
  1
MODEL:KA0SDDS160*100
 50
0.000000
 41
1.052632
 51
0.000000
  7
STANDARD
  0
ENDSEC
  0
EOF
