  0
SECTION
  2
HEADER
  0
ENDSEC
  0
SECTION
  2
TABLES
  0
TABLE
  2
LTYPE
 70
     4
  0
LTYPE
  2
CONTINUOUS
 70
    64
  3
Solid line
 72
    65
 73
     0
 40
0.000000
  0
LTYPE
  2
DASHED
 70
    64
  3
__ __ __ __ __ __ __ __ __ __ __ __ __ __ __
 72
    65
 73
     2
 40
3.500000
 49
2.000000
 49
-1.500000
  0
LTYPE
  2
CENTER
 70
    64
  3
____ _ ____ _ ____ _ ____ _ ____ _ ____ _ ____
 72
    65
 73
     4
 40
17.500000
 49
13.000000
 49
-1.500000
 49
1.500000
 49
-1.500000
  0
LTYPE
  2
PHANTOM
 70
    64
  3
_____ _ _ _____ _ _ _____ _ _ _____ _ _ ____  
 72
    65
 73
     6
 40
15.500000
 49
8.000000
 49
-1.500000
 49
1.500000
 49
-1.500000
 49
1.500000
 49
-1.500000
  0
LTYPE
  2
DASHED1
 70
    64
  3
__ __ __ __ __ __ __ __ __ __ __ __ __ __ __
 72
    65
 73
     2
 40
1.500000
 49
1.000000
 49
-0.500000
  0
LTYPE
  2
DASHED2
 70
    64
  3
__ __ __ __ __ __ __ __ __ __ __ __ __ __ __
 72
    65
 73
     2
 40
3.500000
 49
2.500000
 49
-1.000000
  0
LTYPE
  2
DASHED3
 70
    64
  3
__ __ __ __ __ __ __ __ __ __ __ __ __ __ __
 72
    65
 73
     2
 40
6.000000
 49
4.000000
 49
-2.000000
  0
LTYPE
  2
DASHED4
 70
    64
  3
__ __ __ __ __ __ __ __ __ __ __ __ __ __ __
 72
    65
 73
     2
 40
12.000000
 49
10.000000
 49
-2.000000
  0
LTYPE
  2
DASHED5
 70
    64
  3
__ __ __ __ __ __ __ __ __ __ __ __ __ __ __
 72
    65
 73
     2
 40
17.000000
 49
15.000000
 49
-2.000000
  0
LTYPE
  2
DASHED6
 70
    64
  3
__ __ __ __ __ __ __ __ __ __ __ __ __ __ __
 72
    65
 73
     2
 40
29.000000
 49
27.000000
 49
-2.000000
  0
LTYPE
  2
PHANTOM1
 70
    64
  3
_____ _ _ _____ _ _ _____ _ _ _____ _ _ ____  
 72
    65
 73
     6
 40
31.000000
 49
25.000000
 49
-1.500000
 49
1.000000
 49
-1.000000
 49
1.000000
 49
-1.500000
  0
LTYPE
  2
PHANTOM2
 70
    64
  3
_____ _ _ _____ _ _ _____ _ _ _____ _ _ ____  
 72
    65
 73
     6
 40
36.000000
 49
27.000000
 49
-1.500000
 49
2.500000
 49
-1.000000
 49
2.500000
 49
-1.500000
  0
LTYPE
  2
PHANTOM3
 70
    64
  3
_____ _ _ _____ _ _ _____ _ _ _____ _ _ ____  
 72
    65
 73
     6
 40
78.000000
 49
64.000000
 49
-2.000000
 49
4.000000
 49
-2.000000
 49
4.000000
 49
-2.000000
  0
LTYPE
  2
CENTER1
 70
    64
  3
____ _ ____ _ ____ _ ____ _ ____ _ ____ _ ____
 72
    65
 73
     4
 40
19.000000
 49
14.000000
 49
-1.000000
 49
3.000000
 49
-1.000000
  0
LTYPE
  2
CENTER2
 70
    64
  3
____ _ ____ _ ____ _ ____ _ ____ _ ____ _ ____
 72
    65
 73
     4
 40
28.500000
 49
25.000000
 49
-1.000000
 49
1.500000
 49
-1.000000
  0
LTYPE
  2
CENTER3
 70
    64
  3
____ _ ____ _ ____ _ ____ _ ____ _ ____ _ ____
 72
    65
 73
     4
 40
31.500000
 49
27.000000
 49
-1.000000
 49
2.500000
 49
-1.000000
  0
LTYPE
  2
CENTER4
 70
    64
  3
____ _ ____ _ ____ _ ____ _ ____ _ ____ _ ____
 72
    65
 73
     4
 40
50.000000
 49
45.000000
 49
-1.000000
 49
3.000000
 49
-1.000000
  0
LTYPE
  2
CENTER5
 70
    64
  3
____ _ ____ _ ____ _ ____ _ ____ _ ____ _ ____
 72
    65
 73
     4
 40
100.000000
 49
92.000000
 49
-2.000000
 49
4.000000
 49
-2.000000
  0
LTYPE
  2
SBK1
 70
    64
  3
______ _ _ _ ______ _ _ _ ______ _ _ _ _____  
 72
    65
 73
     8
 40
60.500000
 49
45.000000
 49
-2.000000
 49
2.500000
 49
-2.000000
 49
2.500000
 49
-2.000000
 49
2.500000
 49
-2.000000
  0
LTYPE
  2
SBK2
 70
    64
  3
______ _ _ _ ______ _ _ _ ______ _ _ _ _____  
 72
    65
 73
     8
 40
84.000000
 49
64.000000
 49
-2.000000
 49
4.000000
 49
-2.000000
 49
4.000000
 49
-2.000000
 49
4.000000
 49
-2.000000
  0
LTYPE
  2
STCH
 70
    64
  3
__ __ __ __ __ __ __ __ __ __ __ __ __ __ __
 72
    65
 73
     2
 40
3.000000
 49
1.000000
 49
-2.000000
  0
LTYPE
  2
MTCH
 70
    64
  3
_____ _ _ _____ _ _ _____ _ _ _____ _ _ ____  
 72
    65
 73
     6
 40
80.000000
 49
66.000000
 49
-2.000000
 49
4.000000
 49
-2.000000
 49
4.000000
 49
-2.000000
  0
ENDTAB
  0
TABLE
  2
LAYER
 70
     1
  0
LAYER
  2
0
 70
     0
 62
     7
  6
CONTINUOUS
  0
ENDTAB
  0
TABLE
  2
STYLE
 70
     1
  0
STYLE
  2
STANDARD
 70
     0
 40
0.000000
 41
1.000000
 50
0.000000
 71
     0
 42
0.200000
  3
txt
  4
BIGFONT
  0
ENDTAB
  0
TABLE
  2
VIEW
 70
     0
  0
ENDTAB
  0
ENDSEC
  0
SECTION
  2
BLOCKS
  0
ENDSEC
  0
SECTION
  2
ENTITIES
  0
LINE
  8
0
 10
574.500000
 20
400.500000
 11
574.500000
 21
-400.500000
  0
LINE
  8
0
 10
-564.500000
 20
400.500000
 11
574.500000
 21
400.500000
  0
LINE
  8
0
 10
-564.500000
 20
-400.500000
 11
574.500000
 21
-400.500000
  0
LINE
  8
0
 10
-564.500000
 20
400.500000
 11
-564.500000
 21
-400.500000
  0
LINE
  8
0
 10
-564.500000
 20
370.500000
 11
-334.500000
 21
370.500000
  0
LINE
  8
0
 10
344.500000
 20
370.500000
 11
574.500000
 21
370.500000
  0
LINE
  8
0
 10
344.500000
 20
-370.500000
 11
574.500000
 21
-370.500000
  0
LINE
  8
0
 10
344.500000
 20
-370.500000
 11
344.500000
 21
-400.500000
  0
LINE
  8
0
 10
344.500000
 20
400.500000
 11
344.500000
 21
370.500000
  0
LINE
  8
0
 10
-334.500000
 20
400.500000
 11
-334.500000
 21
370.500000
  0
LINE
  8
0
 10
213.226257
 20
-365.693909
 11
223.226257
 21
-365.693909
  0
LINE
  8
0
 10
5.000000
 20
400.500000
 11
5.000000
 21
-400.500000
  0
LINE
  8
0
 10
-373.607117
 20
-365.693909
 11
-363.607117
 21
-365.693909
  0
LINE
  8
0
 10
-288.750000
 20
-295.074524
 11
-291.050049
 21
-295.074524
  0
LINE
  8
0
 10
-288.750000
 20
-315.074524
 11
-291.050049
 21
-315.074524
  0
LINE
  8
0
 10
-291.750000
 20
-295.774536
 11
-291.750000
 21
-314.374512
  0
LINE
  8
0
 10
-291.049500
 20
-315.073975
 11
-291.749481
 21
-314.373962
  0
LINE
  8
0
 10
-291.049988
 20
-295.074493
 11
-291.749969
 21
-295.774506
  0
LINE
  8
0
 10
-291.050049
 20
-315.074524
 11
-291.050049
 21
-295.074524
  0
LINE
  8
0
 10
-288.750000
 20
-289.607483
 11
-288.750000
 21
-320.541565
  0
LINE
  8
0
 10
315.583374
 20
-281.267456
 11
315.583374
 21
-329.321106
  0
LINE
  8
0
 10
307.583374
 20
-283.074158
 11
307.583374
 21
-327.074158
  0
LINE
  8
0
 10
315.583374
 20
-283.074158
 11
307.583374
 21
-283.074158
  0
LINE
  8
0
  6
CENTER
 62
     2
 10
316.583374
 20
-320.074158
 11
306.583374
 21
-320.074158
  0
LINE
  8
0
  6
CENTER
 62
     2
 10
316.583374
 20
-290.074158
 11
306.583374
 21
-290.074158
  0
LINE
  8
0
 10
315.583374
 20
-327.074158
 11
307.583374
 21
-327.074158
  0
LINE
  8
0
 10
307.583374
 20
-288.074188
 11
315.583374
 21
-288.074188
  0
LINE
  8
0
 10
307.583374
 20
-322.074158
 11
315.583374
 21
-322.074158
  0
LINE
  8
0
 10
-333.750000
 20
102.000000
 11
-333.750000
 21
26.000000
  0
LINE
  8
0
 10
-377.750000
 20
102.000000
 11
-377.750000
 21
26.000000
  0
LINE
  8
0
 10
-333.750000
 20
102.000000
 11
-377.750000
 21
102.000000
  0
LINE
  8
0
 10
-333.750000
 20
26.000000
 11
-377.750000
 21
26.000000
  0
LINE
  8
0
  6
CENTER
 62
     2
 10
-240.032471
 20
64.000000
 11
-412.912231
 21
64.000000
  0
LINE
  8
0
 10
-334.049988
 20
103.199997
 11
-377.450012
 21
103.199997
  0
LINE
  8
0
 10
-335.015625
 20
109.000000
 11
-376.484375
 21
109.000000
  0
LINE
  8
0
 10
-377.450012
 20
103.199997
 11
-377.450012
 21
102.000000
  0
LINE
  8
0
 10
-334.049988
 20
103.199997
 11
-334.049988
 21
102.000000
  0
LINE
  8
0
 10
-334.050140
 20
103.199966
 11
-334.517609
 21
108.543541
  0
LINE
  8
0
 10
-377.450195
 20
103.200020
 11
-376.982727
 21
108.543579
  0
LINE
  8
0
 10
-344.451416
 20
105.056419
 11
-344.756531
 21
108.543579
  0
LINE
  8
0
 10
-367.048462
 20
105.056412
 11
-366.743408
 21
108.543564
  0
LINE
  8
0
 10
-334.172485
 20
104.600006
 11
-343.953247
 21
104.600006
  0
LINE
  8
0
 10
-367.546753
 20
104.600006
 11
-377.327515
 21
104.600006
  0
LINE
  8
0
 10
-367.950012
 20
105.600006
 11
-375.549988
 21
105.600006
  0
LINE
  8
0
 10
-367.950012
 20
105.600006
 11
-367.950012
 21
104.600006
  0
LINE
  8
0
 10
-375.549988
 20
105.600006
 11
-375.549988
 21
104.600006
  0
LINE
  8
0
 10
-335.950012
 20
105.600006
 11
-343.549988
 21
105.600006
  0
LINE
  8
0
 10
-335.950012
 20
105.600006
 11
-335.950012
 21
104.600006
  0
LINE
  8
0
 10
-343.549988
 20
105.600006
 11
-343.549988
 21
104.600006
  0
LINE
  8
0
 10
-334.049988
 20
24.799999
 11
-377.450012
 21
24.799999
  0
LINE
  8
0
 10
-335.015625
 20
19.000000
 11
-376.484375
 21
19.000000
  0
LINE
  8
0
 10
-377.450012
 20
24.799999
 11
-377.450012
 21
26.000000
  0
LINE
  8
0
 10
-334.049988
 20
24.799999
 11
-334.049988
 21
26.000000
  0
LINE
  8
0
 10
-334.050079
 20
24.799995
 11
-334.517548
 21
19.456421
  0
LINE
  8
0
 10
-377.450348
 20
24.799982
 11
-376.982819
 21
19.456396
  0
LINE
  8
0
 10
-344.451355
 20
22.943573
 11
-344.756470
 21
19.456423
  0
LINE
  8
0
 10
-367.048584
 20
22.943584
 11
-366.743469
 21
19.456427
  0
LINE
  8
0
 10
-334.172485
 20
23.400002
 11
-343.953247
 21
23.400002
  0
LINE
  8
0
 10
-367.546753
 20
23.400002
 11
-377.327515
 21
23.400002
  0
LINE
  8
0
 10
-367.950012
 20
22.400002
 11
-375.549988
 21
22.400002
  0
LINE
  8
0
 10
-367.950012
 20
22.400002
 11
-367.950012
 21
23.400002
  0
LINE
  8
0
 10
-375.549988
 20
22.400002
 11
-375.549988
 21
23.400002
  0
LINE
  8
0
 10
-335.950012
 20
22.400002
 11
-343.549988
 21
22.400002
  0
LINE
  8
0
 10
-335.950012
 20
22.400002
 11
-335.950012
 21
23.400002
  0
LINE
  8
0
 10
-343.549988
 20
22.400002
 11
-343.549988
 21
23.400002
  0
LINE
  8
0
  6
CENTER
 62
     2
 10
-355.750000
 20
124.000015
 11
-355.750000
 21
4.000000
  0
LINE
  8
0
 10
-349.250000
 20
111.000008
 11
-362.250000
 21
111.000008
  0
LINE
  8
0
 10
-349.250000
 20
116.000000
 11
-362.250000
 21
116.000000
  0
LINE
  8
0
 10
-352.250000
 20
119.000000
 11
-359.250000
 21
119.000000
  0
LINE
  8
0
 10
-351.750000
 20
118.500015
 11
-351.750000
 21
116.000015
  0
LINE
  8
0
 10
-359.750000
 20
118.500015
 11
-359.750000
 21
116.000015
  0
LINE
  8
0
 10
-352.250000
 20
119.000061
 11
-351.749969
 21
118.500031
  0
LINE
  8
0
 10
-359.250000
 20
118.999908
 11
-359.750031
 21
118.499901
  0
LINE
  8
0
 10
-351.750000
 20
118.500000
 11
-359.750000
 21
118.500000
  0
LINE
  8
0
 62
     2
 10
-352.375000
 20
119.000015
 11
-352.375000
 21
116.000015
  0
LINE
  8
0
 62
     2
 10
-359.125000
 20
119.000015
 11
-359.125000
 21
116.000015
  0
LINE
  8
0
  6
CENTER
 62
     2
 10
-362.750000
 20
43.000000
 11
-376.750000
 21
43.000000
  0
LINE
  8
0
  6
CENTER
 62
     2
 10
-362.750000
 20
85.000000
 11
-376.750000
 21
85.000000
  0
LINE
  8
0
  6
CENTER
 62
     2
 10
-369.750000
 20
49.999996
 11
-369.750000
 21
36.000000
  0
LINE
  8
0
  6
CENTER
 62
     2
 10
-369.750000
 20
92.000000
 11
-369.750000
 21
78.000000
  0
LINE
  8
0
 10
-351.997192
 20
115.419449
 11
-351.997192
 21
111.580566
  0
LINE
  8
0
 10
-348.244446
 20
115.419449
 11
-348.244446
 21
111.580566
  0
LINE
  8
0
 10
-349.250061
 20
111.000076
 11
-348.244568
 21
111.580643
  0
LINE
  8
0
 10
-349.250000
 20
116.000084
 11
-348.244476
 21
115.419556
  0
LINE
  8
0
 10
-359.502808
 20
115.419449
 11
-359.502808
 21
111.580566
  0
LINE
  8
0
 10
-362.249939
 20
111.000053
 11
-363.255432
 21
111.580627
  0
LINE
  8
0
 10
-362.250275
 20
116.000565
 11
-363.255859
 21
115.420006
  0
LINE
  8
0
 10
-363.255554
 20
115.419449
 11
-363.255554
 21
111.580566
  0
LINE
  8
0
 10
-349.250000
 20
17.000000
 11
-362.250000
 21
17.000000
  0
LINE
  8
0
 10
-349.250000
 20
12.000000
 11
-362.250000
 21
12.000000
  0
LINE
  8
0
 10
-352.250000
 20
9.000000
 11
-359.250000
 21
9.000000
  0
LINE
  8
0
 10
-351.750000
 20
9.500000
 11
-351.750000
 21
12.000000
  0
LINE
  8
0
 10
-359.750000
 20
9.500000
 11
-359.750000
 21
12.000000
  0
LINE
  8
0
 10
-352.249908
 20
8.999889
 11
-351.749878
 21
9.499920
  0
LINE
  8
0
 10
-359.249939
 20
9.000007
 11
-359.749969
 21
9.500037
  0
LINE
  8
0
 10
-351.750000
 20
9.500000
 11
-359.750000
 21
9.500000
  0
LINE
  8
0
 62
     2
 10
-352.375000
 20
9.000000
 11
-352.375000
 21
12.000000
  0
LINE
  8
0
 62
     2
 10
-359.125000
 20
9.000000
 11
-359.125000
 21
12.000000
  0
LINE
  8
0
 10
-351.997192
 20
12.580559
 11
-351.997192
 21
16.419441
  0
LINE
  8
0
 10
-348.244446
 20
12.580574
 11
-348.244446
 21
16.419441
  0
LINE
  8
0
 10
-349.250092
 20
16.999886
 11
-348.244537
 21
16.419319
  0
LINE
  8
0
 10
-349.250153
 20
12.000247
 11
-348.244629
 21
12.580784
  0
LINE
  8
0
 10
-359.502808
 20
12.580559
 11
-359.502808
 21
16.419441
  0
LINE
  8
0
 10
-362.250214
 20
17.000235
 11
-363.255798
 21
16.419668
  0
LINE
  8
0
 10
-362.250122
 20
11.999799
 11
-363.255707
 21
12.580367
  0
LINE
  8
0
 10
-363.255554
 20
12.580574
 11
-363.255554
 21
16.419441
  0
LINE
  8
0
 10
-320.750000
 20
86.500000
 11
-320.750000
 21
41.500000
  0
LINE
  8
0
 10
-320.750000
 20
86.500000
 11
-333.750000
 21
86.500000
  0
LINE
  8
0
 10
-320.750000
 20
41.500000
 11
-333.750000
 21
41.500000
  0
LINE
  8
0
 10
-320.750000
 20
51.948029
 11
-333.750000
 21
51.948029
  0
LINE
  8
0
 10
-320.750000
 20
76.051971
 11
-333.750000
 21
76.051971
  0
LINE
  8
0
  6
CENTER
 62
     2
 10
-327.250000
 20
70.500000
 11
-327.250000
 21
57.500000
  0
LINE
  8
0
 10
-248.750000
 20
73.500000
 11
-248.750000
 21
54.500000
  0
LINE
  8
0
 10
-257.750000
 20
77.199997
 11
-257.750000
 21
50.799999
  0
LINE
  8
0
 10
-253.750000
 20
77.199997
 11
-267.750000
 21
77.199997
  0
LINE
  8
0
 10
-253.750000
 20
50.800003
 11
-267.750000
 21
50.800003
  0
LINE
  8
0
 10
-248.750000
 20
73.500000
 11
-253.750000
 21
73.500000
  0
LINE
  8
0
 10
-248.750000
 20
54.500000
 11
-253.750000
 21
54.500000
  0
LINE
  8
0
 10
-253.750000
 20
77.199997
 11
-253.750000
 21
73.500000
  0
LINE
  8
0
 10
-253.750000
 20
54.500000
 11
-253.750000
 21
50.799999
  0
LINE
  8
0
 10
-249.750000
 20
73.500000
 11
-249.750000
 21
54.500000
  0
LINE
  8
0
 10
-377.750000
 20
74.000000
 11
-380.049988
 21
74.000000
  0
LINE
  8
0
 10
-377.750000
 20
54.000000
 11
-380.049988
 21
54.000000
  0
LINE
  8
0
 10
-380.750000
 20
73.299988
 11
-380.750000
 21
54.699997
  0
LINE
  8
0
 10
-380.050049
 20
53.999989
 11
-380.750061
 21
54.699966
  0
LINE
  8
0
 10
-380.049957
 20
73.999893
 11
-380.749939
 21
73.299911
  0
LINE
  8
0
 10
-380.049988
 20
54.000000
 11
-380.049988
 21
74.000000
  0
LINE
  8
0
 62
     4
 10
-400.104614
 20
70.500000
 11
-400.104614
 21
57.500000
  0
LINE
  8
0
 62
     4
 10
-395.104614
 20
70.500000
 11
-395.104614
 21
57.500000
  0
LINE
  8
0
 62
     4
 10
-395.104614
 20
70.500000
 11
-400.104614
 21
70.500000
  0
LINE
  8
0
 62
     4
 10
-395.104614
 20
57.500000
 11
-400.104614
 21
57.500000
  0
LINE
  8
0
 62
     1
 10
-388.749817
 20
67.199814
 11
-387.883789
 21
67.699806
  0
LINE
  8
0
 62
     1
 10
-400.104614
 20
60.800003
 11
-406.750000
 21
60.800003
  0
LINE
  8
0
 62
     4
 10
-386.750031
 20
62.480080
 11
-385.491364
 21
60.299965
  0
LINE
  8
0
 62
     1
 10
-388.750000
 20
60.800003
 11
-395.104614
 21
60.800003
  0
LINE
  8
0
 62
     1
 10
-388.749969
 20
60.800041
 11
-387.883942
 21
60.300041
  0
LINE
  8
0
 62
     1
 10
-388.750000
 20
67.199997
 11
-395.104614
 21
67.199997
  0
LINE
  8
0
 62
     4
 10
-400.104614
 20
62.480125
 11
-406.250000
 21
62.480125
  0
LINE
  8
0
 62
     1
 10
-400.104614
 20
67.199997
 11
-406.750000
 21
67.199997
  0
LINE
  8
0
 62
     4
 10
-400.104614
 20
60.300003
 11
-406.250000
 21
60.300003
  0
LINE
  8
0
 62
     4
 10
-400.104614
 20
65.519875
 11
-406.250000
 21
65.519875
  0
LINE
  8
0
 62
     4
 10
-400.104614
 20
67.699997
 11
-406.250000
 21
67.699997
  0
LINE
  8
0
 62
     4
 10
-406.750000
 20
67.199997
 11
-406.750000
 21
60.800003
  0
LINE
  8
0
 62
     4
 10
-380.750000
 20
67.699997
 11
-395.104614
 21
67.699997
  0
LINE
  8
0
 62
     4
 10
-380.750000
 20
60.300003
 11
-395.104614
 21
60.300003
  0
LINE
  8
0
 62
     4
 10
-406.749908
 20
60.800091
 11
-406.249939
 21
60.300102
  0
LINE
  8
0
 62
     4
 10
-406.749908
 20
67.199982
 11
-406.249908
 21
67.699974
  0
LINE
  8
0
 62
     4
 10
-406.250000
 20
60.300003
 11
-406.250000
 21
62.480118
  0
LINE
  8
0
 62
     4
 10
-388.750000
 20
67.699997
 11
-388.750000
 21
65.519867
  0
LINE
  8
0
 62
     4
 10
-386.750000
 20
67.699997
 11
-386.750000
 21
65.519867
  0
LINE
  8
0
 62
     4
 10
-386.750000
 20
65.519875
 11
-395.104614
 21
65.519875
  0
LINE
  8
0
 62
     4
 10
-386.750000
 20
62.480125
 11
-395.104614
 21
62.480125
  0
LINE
  8
0
 62
     4
 10
-406.250000
 20
65.519867
 11
-406.250000
 21
67.699997
  0
LINE
  8
0
 62
     4
 10
-406.249817
 20
65.519783
 11
-406.749847
 21
65.019753
  0
LINE
  8
0
 62
     4
 10
-406.249908
 20
62.480213
 11
-406.749908
 21
62.980202
  0
LINE
  8
0
 62
     4
 10
-386.750000
 20
62.480118
 11
-386.750000
 21
60.300003
  0
LINE
  8
0
 62
     4
 10
-388.750000
 20
62.480118
 11
-388.750000
 21
60.300003
  0
LINE
  8
0
 62
     4
 10
-386.750000
 20
65.519989
 11
-385.491333
 21
67.700089
  0
LINE
  8
0
 62
     4
 10
-395.685181
 20
64.000000
 11
-399.524048
 21
64.000000
  0
LINE
  8
0
 62
     4
 10
-358.549988
 20
87.000000
 11
-358.549988
 21
95.000000
  0
LINE
  8
0
 62
     4
 10
-342.750000
 20
92.500000
 11
-343.250000
 21
92.500000
  0
LINE
  8
0
 62
     4
 10
-342.750000
 20
89.500000
 11
-343.250000
 21
89.500000
  0
LINE
  8
0
 62
     4
 10
-343.250000
 20
94.000000
 11
-357.750000
 21
94.000000
  0
LINE
  8
0
 62
     4
 10
-343.250000
 20
88.000000
 11
-357.750000
 21
88.000000
  0
LINE
  8
0
 62
     4
 10
-333.750000
 20
95.000000
 11
-358.549988
 21
95.000000
  0
LINE
  8
0
 62
     4
 10
-333.750000
 20
87.000000
 11
-358.549988
 21
87.000000
  0
LINE
  8
0
 62
     4
 10
-333.750000
 20
87.000000
 11
-333.750000
 21
95.000000
  0
LINE
  8
0
 62
     4
 10
-341.750000
 20
87.000000
 11
-341.750000
 21
95.000000
  0
LINE
  8
0
 62
     4
 10
-343.250000
 20
88.000000
 11
-343.250000
 21
94.000000
  0
LINE
  8
0
 62
     4
 10
-342.750000
 20
89.500000
 11
-342.750000
 21
92.500000
  0
LINE
  8
0
 62
     4
 10
-357.750000
 20
88.000000
 11
-357.750000
 21
94.000000
  0
LINE
  8
0
 62
     4
 10
-347.810638
 20
89.939339
 11
-345.689331
 21
92.060661
  0
LINE
  8
0
 62
     4
 10
-345.689392
 20
89.939362
 11
-347.810699
 21
92.060684
  0
LINE
  8
0
 62
     4
 10
-357.750000
 20
99.500000
 11
-357.750000
 21
95.000000
  0
LINE
  8
0
 62
     4
 10
-354.616028
 20
101.000000
 11
-356.883972
 21
101.000000
  0
LINE
  8
0
 62
     4
 10
-353.750000
 20
79.000000
 11
-357.750000
 21
79.000000
  0
LINE
  8
0
 62
     4
 10
-357.750061
 20
99.500038
 11
-356.884033
 21
101.000046
  0
LINE
  8
0
 62
     4
 10
-353.749939
 20
99.500023
 11
-354.615967
 21
101.000031
  0
LINE
  8
0
 62
     4
 10
-353.750000
 20
99.500000
 11
-353.750000
 21
95.000000
  0
LINE
  8
0
 62
     4
 10
-354.250000
 20
78.000000
 11
-357.250000
 21
78.000000
  0
LINE
  8
0
 62
     4
 10
-353.750000
 20
99.500000
 11
-357.750000
 21
99.500000
  0
LINE
  8
0
 62
     4
 10
-357.250000
 20
78.000000
 11
-357.250000
 21
73.000000
  0
LINE
  8
0
 62
     4
 10
-354.250000
 20
78.000000
 11
-354.250000
 21
73.000000
  0
LINE
  8
0
 62
     4
 10
-353.750031
 20
79.000015
 11
-354.250031
 21
78.000008
  0
LINE
  8
0
 62
     4
 10
-357.749969
 20
78.999985
 11
-357.249969
 21
77.999992
  0
LINE
  8
0
 62
     4
 10
-353.750000
 20
87.000000
 11
-353.750000
 21
79.000000
  0
LINE
  8
0
 62
     4
 10
-357.750000
 20
87.000000
 11
-357.750000
 21
79.000000
  0
LINE
  8
0
 62
     4
 10
-358.549988
 20
41.000000
 11
-358.549988
 21
33.000000
  0
LINE
  8
0
 62
     4
 10
-342.750000
 20
35.500000
 11
-343.250000
 21
35.500000
  0
LINE
  8
0
 62
     4
 10
-342.750000
 20
38.500000
 11
-343.250000
 21
38.500000
  0
LINE
  8
0
 62
     4
 10
-343.250000
 20
34.000000
 11
-357.750000
 21
34.000000
  0
LINE
  8
0
 62
     4
 10
-343.250000
 20
40.000000
 11
-357.750000
 21
40.000000
  0
LINE
  8
0
 62
     4
 10
-333.750000
 20
33.000000
 11
-358.549988
 21
33.000000
  0
LINE
  8
0
 62
     4
 10
-333.750000
 20
41.000000
 11
-358.549988
 21
41.000000
  0
LINE
  8
0
 62
     4
 10
-333.750000
 20
41.000000
 11
-333.750000
 21
33.000000
  0
LINE
  8
0
 62
     4
 10
-341.750000
 20
41.000000
 11
-341.750000
 21
33.000000
  0
LINE
  8
0
 62
     4
 10
-343.250000
 20
40.000000
 11
-343.250000
 21
34.000000
  0
LINE
  8
0
 62
     4
 10
-342.750000
 20
38.500000
 11
-342.750000
 21
35.500000
  0
LINE
  8
0
 62
     4
 10
-357.750000
 20
40.000000
 11
-357.750000
 21
34.000000
  0
LINE
  8
0
 62
     4
 10
-347.810669
 20
38.060669
 11
-345.689331
 21
35.939346
  0
LINE
  8
0
 62
     4
 10
-345.689362
 20
38.060658
 11
-347.810669
 21
35.939323
  0
LINE
  8
0
 62
     4
 10
-357.750000
 20
28.500000
 11
-357.750000
 21
33.000000
  0
LINE
  8
0
 62
     4
 10
-354.616028
 20
27.000000
 11
-356.883972
 21
27.000000
  0
LINE
  8
0
 62
     4
 10
-353.750000
 20
49.000000
 11
-357.750000
 21
49.000000
  0
LINE
  8
0
 62
     4
 10
-357.750092
 20
28.499966
 11
-356.884064
 21
26.999962
  0
LINE
  8
0
 62
     4
 10
-353.749939
 20
28.499952
 11
-354.615967
 21
26.999949
  0
LINE
  8
0
 62
     4
 10
-353.750000
 20
28.500000
 11
-353.750000
 21
33.000000
  0
LINE
  8
0
 62
     4
 10
-354.250000
 20
50.000000
 11
-357.250000
 21
50.000000
  0
LINE
  8
0
 62
     4
 10
-353.750000
 20
28.500000
 11
-357.750000
 21
28.500000
  0
LINE
  8
0
 62
     4
 10
-357.250000
 20
50.000000
 11
-357.250000
 21
55.000000
  0
LINE
  8
0
 62
     4
 10
-354.250000
 20
50.000000
 11
-354.250000
 21
55.000000
  0
LINE
  8
0
 62
     4
 10
-353.750031
 20
48.999992
 11
-354.250031
 21
50.000000
  0
LINE
  8
0
 62
     4
 10
-357.749939
 20
49.000004
 11
-357.249939
 21
49.999996
  0
LINE
  8
0
 62
     4
 10
-353.750000
 20
41.000000
 11
-353.750000
 21
49.000000
  0
LINE
  8
0
 62
     4
 10
-357.750000
 20
41.000000
 11
-357.750000
 21
49.000000
  0
LINE
  8
0
 10
-299.750000
 20
50.800003
 11
-320.750000
 21
50.800003
  0
LINE
  8
0
 10
-275.750000
 20
77.199997
 11
-291.750000
 21
77.199997
  0
LINE
  8
0
 62
     4
 10
-298.350006
 20
89.319046
 11
-293.149994
 21
89.319046
  0
LINE
  8
0
 62
     4
 10
-297.549988
 20
91.319046
 11
-296.049988
 21
91.319046
  0
LINE
  8
0
 62
     4
 10
-293.149994
 20
90.519043
 11
-293.149994
 21
89.319046
  0
LINE
  8
0
 62
     4
 10
-298.350006
 20
90.519043
 11
-298.350006
 21
89.319046
  0
LINE
  8
0
 62
     4
 10
-296.049988
 20
90.319046
 11
-296.049988
 21
91.319046
  0
LINE
  8
0
 62
     4
 10
-295.450012
 20
90.319046
 11
-295.450012
 21
91.319046
  0
LINE
  8
0
 62
     4
 10
-296.049988
 20
90.319046
 11
-295.450012
 21
90.319046
  0
LINE
  8
0
 62
     4
 10
-295.450012
 20
91.319046
 11
-293.950012
 21
91.319046
  0
LINE
  8
0
 62
     4
 10
-306.750000
 20
84.019043
 11
-300.750000
 21
84.019043
  0
LINE
  8
0
 62
     4
 10
-284.750000
 20
84.019043
 11
-284.750000
 21
77.199997
  0
LINE
  8
0
 62
     4
 10
-306.750000
 20
84.019043
 11
-306.750000
 21
77.199997
  0
LINE
  8
0
 62
     4
 10
-306.750000
 20
77.519043
 11
-299.750000
 21
77.519043
  0
LINE
  8
0
 62
     4
 10
-305.250000
 20
84.019043
 11
-305.250000
 21
84.519043
  0
LINE
  8
0
 62
     4
 10
-301.250000
 20
84.019043
 11
-301.250000
 21
84.519043
  0
LINE
  8
0
 62
     4
 10
-305.250000
 20
84.519043
 11
-301.250000
 21
84.519043
  0
LINE
  8
0
 62
     4
 10
-301.292236
 20
84.592140
 11
-301.250031
 21
84.519012
  0
LINE
  8
0
 62
     4
 10
-305.207703
 20
84.592125
 11
-305.249908
 21
84.519005
  0
LINE
  8
0
 62
     4
 10
-284.750000
 20
83.019043
 11
-282.750000
 21
83.019043
  0
LINE
  8
0
 62
     4
 10
-284.750000
 20
78.019043
 11
-282.750000
 21
78.019043
  0
LINE
  8
0
 62
     4
 10
-282.750000
 20
83.019043
 11
-282.750000
 21
78.019043
  0
LINE
  8
0
 62
     4
 10
-294.250000
 20
89.319046
 11
-294.250000
 21
87.333542
  0
LINE
  8
0
 62
     4
 10
-297.250000
 20
89.319046
 11
-297.250000
 21
87.333542
  0
LINE
  8
0
 62
     1
 10
-297.000000
 20
89.319046
 11
-297.000000
 21
87.333542
  0
LINE
  8
0
 62
     1
 10
-294.500000
 20
89.319046
 11
-294.500000
 21
87.333542
  0
LINE
  8
0
 62
     4
 10
-300.250000
 20
81.333542
 11
-291.250000
 21
81.333542
  0
LINE
  8
0
 62
     4
 10
-297.750000
 20
84.833542
 11
-293.750000
 21
84.833542
  0
LINE
  8
0
 62
     4
 10
-298.000000
 20
87.333542
 11
-293.500000
 21
87.333542
  0
LINE
  8
0
 62
     4
 10
-300.750000
 20
88.333542
 11
-298.000000
 21
88.333542
  0
LINE
  8
0
 62
     4
 10
-300.750000
 20
81.833542
 11
-300.750000
 21
88.333542
  0
LINE
  8
0
 62
     4
 10
-290.750000
 20
81.833542
 11
-290.750000
 21
88.333542
  0
LINE
  8
0
 62
     4
 10
-297.750000
 20
87.333542
 11
-297.750000
 21
84.833542
  0
LINE
  8
0
 62
     4
 10
-293.750000
 20
87.333542
 11
-293.750000
 21
84.833542
  0
LINE
  8
0
 62
     4
 10
-298.000000
 20
88.333542
 11
-298.000000
 21
86.719040
  0
LINE
  8
0
 62
     4
 10
-293.500000
 20
88.333542
 11
-293.500000
 21
86.719040
  0
LINE
  8
0
 62
     4
 10
-293.500000
 20
88.333542
 11
-290.750000
 21
88.333542
  0
LINE
  8
0
 62
     4
 10
-298.176727
 20
86.333542
 11
-297.750000
 21
86.333542
  0
LINE
  8
0
 62
     4
 10
-293.750000
 20
86.333542
 11
-293.323273
 21
86.333542
  0
LINE
  8
0
 62
     4
 10
-290.750000
 20
84.019043
 11
-284.750000
 21
84.019043
  0
LINE
  8
0
 62
     4
 10
-299.750000
 20
50.650208
 11
-291.750000
 21
50.650208
  0
LINE
  8
0
 62
     4
 10
-299.750000
 20
81.333542
 11
-299.750000
 21
50.650208
  0
LINE
  8
0
 62
     4
 10
-291.750000
 20
81.333542
 11
-291.750000
 21
50.650208
  0
LINE
  8
0
 62
     4
 10
-291.750000
 20
77.519043
 11
-284.750000
 21
77.519043
  0
LINE
  8
0
 62
     4
 10
-282.750000
 20
82.219040
 11
-277.750000
 21
82.219040
  0
LINE
  8
0
 62
     4
 10
-282.750000
 20
78.819046
 11
-277.750000
 21
78.819046
  0
LINE
  8
0
 62
     4
 10
-269.149994
 20
38.680954
 11
-274.350006
 21
38.680954
  0
LINE
  8
0
 62
     4
 10
-269.950012
 20
36.680954
 11
-271.450012
 21
36.680954
  0
LINE
  8
0
 62
     4
 10
-274.350006
 20
37.480957
 11
-274.350006
 21
38.680954
  0
LINE
  8
0
 62
     4
 10
-269.149994
 20
37.480957
 11
-269.149994
 21
38.680954
  0
LINE
  8
0
 62
     4
 10
-271.450012
 20
37.680954
 11
-271.450012
 21
36.680954
  0
LINE
  8
0
 62
     4
 10
-272.049988
 20
37.680954
 11
-272.049988
 21
36.680954
  0
LINE
  8
0
 62
     4
 10
-271.450012
 20
37.680954
 11
-272.049988
 21
37.680954
  0
LINE
  8
0
 62
     4
 10
-272.049988
 20
36.680954
 11
-273.549988
 21
36.680954
  0
LINE
  8
0
 62
     4
 10
-260.750000
 20
43.980957
 11
-266.750000
 21
43.980957
  0
LINE
  8
0
 62
     4
 10
-282.750000
 20
43.980957
 11
-282.750000
 21
50.800003
  0
LINE
  8
0
 62
     4
 10
-260.750000
 20
43.980957
 11
-260.750000
 21
50.800003
  0
LINE
  8
0
 62
     4
 10
-260.750000
 20
50.480957
 11
-267.750000
 21
50.480957
  0
LINE
  8
0
 62
     4
 10
-262.250000
 20
43.980957
 11
-262.250000
 21
43.480957
  0
LINE
  8
0
 62
     4
 10
-266.250000
 20
43.980957
 11
-266.250000
 21
43.480957
  0
LINE
  8
0
 62
     4
 10
-262.250000
 20
43.480957
 11
-266.250000
 21
43.480957
  0
LINE
  8
0
 62
     4
 10
-266.207794
 20
43.407852
 11
-266.250000
 21
43.480968
  0
LINE
  8
0
 62
     4
 10
-262.292206
 20
43.407829
 11
-262.250000
 21
43.480953
  0
LINE
  8
0
 62
     4
 10
-282.750000
 20
44.980957
 11
-284.750000
 21
44.980957
  0
LINE
  8
0
 62
     4
 10
-282.750000
 20
49.980957
 11
-284.750000
 21
49.980957
  0
LINE
  8
0
 62
     4
 10
-284.750000
 20
44.980957
 11
-284.750000
 21
49.980957
  0
LINE
  8
0
 62
     4
 10
-273.250000
 20
38.680954
 11
-273.250000
 21
39.666458
  0
LINE
  8
0
 62
     4
 10
-270.250000
 20
38.680954
 11
-270.250000
 21
39.666458
  0
LINE
  8
0
 62
     1
 10
-270.500000
 20
38.680954
 11
-270.500000
 21
39.666458
  0
LINE
  8
0
 62
     1
 10
-273.000000
 20
38.680954
 11
-273.000000
 21
39.666458
  0
LINE
  8
0
 62
     4
 10
-267.250000
 20
46.666458
 11
-276.250000
 21
46.666458
  0
LINE
  8
0
 62
     4
 10
-266.750000
 20
46.166458
 11
-266.750000
 21
39.666458
  0
LINE
  8
0
 62
     4
 10
-276.750000
 20
46.166458
 11
-276.750000
 21
39.666458
  0
LINE
  8
0
 62
     4
 10
-266.750000
 20
39.666458
 11
-276.750000
 21
39.666458
  0
LINE
  8
0
 62
     4
 10
-276.750000
 20
43.980957
 11
-282.750000
 21
43.980957
  0
LINE
  8
0
 62
     4
 10
-267.750000
 20
77.349792
 11
-275.750000
 21
77.349792
  0
LINE
  8
0
 62
     4
 10
-267.750000
 20
46.666458
 11
-267.750000
 21
77.349792
  0
LINE
  8
0
 62
     4
 10
-275.750000
 20
46.666458
 11
-275.750000
 21
77.349792
  0
LINE
  8
0
 62
     4
 10
-275.750000
 20
50.480957
 11
-282.750000
 21
50.480957
  0
LINE
  8
0
 62
     4
 10
-284.750000
 20
45.780960
 11
-289.750000
 21
45.780960
  0
LINE
  8
0
 62
     4
 10
-284.750000
 20
49.180954
 11
-289.750000
 21
49.180954
  0
LINE
  8
0
 10
-299.750000
 20
77.199997
 11
-320.750000
 21
77.199997
  0
LINE
  8
0
 10
-275.750000
 20
50.800003
 11
-291.750000
 21
50.800003
  0
LINE
  8
0
  6
CENTER
 62
     2
 10
-484.916626
 20
51.500000
 11
-492.916626
 21
51.500000
  0
LINE
  8
0
  6
CENTER
 62
     2
 10
-509.916626
 20
51.500000
 11
-517.916626
 21
51.500000
  0
LINE
  8
0
  6
CENTER
 62
     2
 10
-509.916626
 20
76.500000
 11
-517.916626
 21
76.500000
  0
LINE
  8
0
  6
CENTER
 62
     2
 10
-484.916626
 20
76.500000
 11
-492.916626
 21
76.500000
  0
LINE
  8
0
  6
CENTER
 62
     2
 10
-488.916626
 20
55.500000
 11
-488.916626
 21
47.499996
  0
LINE
  8
0
  6
CENTER
 62
     2
 10
-488.916626
 20
80.500000
 11
-488.916626
 21
72.500000
  0
LINE
  8
0
  6
CENTER
 62
     2
 10
-513.916626
 20
80.500000
 11
-513.916626
 21
72.500000
  0
LINE
  8
0
  6
CENTER
 62
     2
 10
-513.916626
 20
55.500000
 11
-513.916626
 21
47.499996
  0
LINE
  8
0
 10
-482.916626
 20
111.000008
 11
-495.916626
 21
111.000008
  0
LINE
  8
0
 10
-482.916626
 20
116.000000
 11
-495.916626
 21
116.000000
  0
LINE
  8
0
 10
-482.916626
 20
116.000015
 11
-482.916626
 21
111.000000
  0
LINE
  8
0
 10
-495.916626
 20
116.000015
 11
-495.916626
 21
111.000000
  0
LINE
  8
0
 10
-485.416626
 20
118.500015
 11
-485.416626
 21
116.000015
  0
LINE
  8
0
 10
-493.416626
 20
118.500015
 11
-493.416626
 21
116.000015
  0
LINE
  8
0
 62
     2
 10
-486.041626
 20
119.000015
 11
-486.041626
 21
116.000015
  0
LINE
  8
0
 62
     2
 10
-492.791626
 20
119.000015
 11
-492.791626
 21
116.000015
  0
LINE
  8
0
 10
-482.916626
 20
17.000000
 11
-495.916626
 21
17.000000
  0
LINE
  8
0
 10
-482.916626
 20
12.000000
 11
-495.916626
 21
12.000000
  0
LINE
  8
0
 10
-482.916626
 20
12.000000
 11
-482.916626
 21
17.000000
  0
LINE
  8
0
 10
-495.916626
 20
12.000000
 11
-495.916626
 21
17.000000
  0
LINE
  8
0
 10
-485.916626
 20
9.000000
 11
-492.916626
 21
9.000000
  0
LINE
  8
0
 10
-485.416626
 20
9.500004
 11
-485.416626
 21
12.000000
  0
LINE
  8
0
 10
-493.416626
 20
9.500000
 11
-493.416626
 21
12.000000
  0
LINE
  8
0
 10
-485.916565
 20
8.999920
 11
-485.416534
 21
9.499959
  0
LINE
  8
0
 10
-493.416504
 20
9.500089
 11
-492.916473
 21
9.000050
  0
LINE
  8
0
 62
     2
 10
-486.041626
 20
9.000000
 11
-486.041626
 21
12.000000
  0
LINE
  8
0
 62
     2
 10
-492.791626
 20
9.000000
 11
-492.791626
 21
12.000000
  0
LINE
  8
0
 10
-485.416626
 20
9.500008
 11
-493.416626
 21
9.500008
  0
LINE
  8
0
 62
     4
 10
-497.716614
 20
65.519867
 11
-497.716614
 21
62.480118
  0
LINE
  8
0
 62
     4
 10
-505.116638
 20
65.519867
 11
-505.116638
 21
62.480118
  0
LINE
  8
0
 62
     4
 10
-499.896729
 20
67.699997
 11
-502.936523
 21
67.699997
  0
LINE
  8
0
 62
     4
 10
-499.896729
 20
60.300003
 11
-502.936523
 21
60.300003
  0
LINE
  8
0
 10
-479.416626
 20
102.000000
 11
-479.416626
 21
26.000000
  0
LINE
  8
0
 10
-523.416626
 20
102.000000
 11
-523.416626
 21
26.000000
  0
LINE
  8
0
 10
-479.416626
 20
102.000000
 11
-523.416626
 21
102.000000
  0
LINE
  8
0
 10
-479.416626
 20
26.000000
 11
-523.416626
 21
26.000000
  0
LINE
  8
0
  6
CENTER
 62
     2
 10
-474.416626
 20
64.000000
 11
-528.416626
 21
64.000000
  0
LINE
  8
0
 10
-489.216614
 20
22.400002
 11
-489.216614
 21
23.400002
  0
LINE
  8
0
  6
CENTER
 62
     2
 10
-501.416626
 20
114.000000
 11
-501.416626
 21
14.000000
  0
LINE
  8
0
 10
-479.716614
 20
103.199997
 11
-523.116638
 21
103.199997
  0
LINE
  8
0
 10
-480.682251
 20
109.000000
 11
-522.151001
 21
109.000000
  0
LINE
  8
0
 10
-523.116638
 20
103.199997
 11
-523.116638
 21
102.000000
  0
LINE
  8
0
 10
-479.716614
 20
103.199997
 11
-479.716614
 21
102.000000
  0
LINE
  8
0
 10
-479.716980
 20
103.199951
 11
-480.184509
 21
108.543549
  0
LINE
  8
0
 10
-523.116943
 20
103.200050
 11
-522.649414
 21
108.543633
  0
LINE
  8
0
 10
-490.118134
 20
105.056419
 11
-490.423248
 21
108.543587
  0
LINE
  8
0
 10
-512.715454
 20
105.056458
 11
-512.410400
 21
108.543617
  0
LINE
  8
0
 10
-479.839111
 20
104.600006
 11
-489.619873
 21
104.600006
  0
LINE
  8
0
 10
-513.213379
 20
104.600006
 11
-522.994141
 21
104.600006
  0
LINE
  8
0
 10
-513.616638
 20
105.600006
 11
-521.216614
 21
105.600006
  0
LINE
  8
0
 10
-513.616638
 20
105.600006
 11
-513.616638
 21
104.600006
  0
LINE
  8
0
 10
-521.216614
 20
105.600006
 11
-521.216614
 21
104.600006
  0
LINE
  8
0
 10
-481.616638
 20
105.600006
 11
-489.216614
 21
105.600006
  0
LINE
  8
0
 10
-481.616638
 20
105.600006
 11
-481.616638
 21
104.600006
  0
LINE
  8
0
 10
-489.216614
 20
105.600006
 11
-489.216614
 21
104.600006
  0
LINE
  8
0
 10
-479.716614
 20
24.799999
 11
-523.116638
 21
24.799999
  0
LINE
  8
0
 10
-480.682251
 20
19.000000
 11
-522.151001
 21
19.000000
  0
LINE
  8
0
 10
-523.116638
 20
24.799999
 11
-523.116638
 21
26.000000
  0
LINE
  8
0
 10
-479.716614
 20
24.799999
 11
-479.716614
 21
26.000000
  0
LINE
  8
0
 10
-479.716949
 20
24.800035
 11
-480.184479
 21
19.456455
  0
LINE
  8
0
 10
-523.116394
 20
24.799984
 11
-522.648865
 21
19.456430
  0
LINE
  8
0
 10
-490.117859
 20
22.943577
 11
-490.422974
 21
19.456415
  0
LINE
  8
0
 10
-512.715332
 20
22.943569
 11
-512.410217
 21
19.456411
  0
LINE
  8
0
 10
-479.839111
 20
23.400002
 11
-489.619873
 21
23.400002
  0
LINE
  8
0
 10
-513.213379
 20
23.400002
 11
-522.994141
 21
23.400002
  0
LINE
  8
0
 10
-513.616638
 20
22.400002
 11
-521.216614
 21
22.400002
  0
LINE
  8
0
 10
-513.616638
 20
22.400002
 11
-513.616638
 21
23.400002
  0
LINE
  8
0
 10
-521.216614
 20
22.400002
 11
-521.216614
 21
23.400002
  0
LINE
  8
0
 10
-481.616638
 20
22.400002
 11
-489.216614
 21
22.400002
  0
LINE
  8
0
 10
-481.616638
 20
22.400002
 11
-481.616638
 21
23.400002
  0
LINE
  8
0
 10
-489.416626
 20
16.419441
 11
-489.416626
 21
12.580559
  0
LINE
  8
0
 10
-489.416626
 20
111.580566
 11
-489.416626
 21
115.419449
  0
LINE
  8
0
 62
     4
 10
-505.169617
 20
57.499889
 11
-508.922363
 21
63.999844
  0
LINE
  8
0
 62
     4
 10
-508.922150
 20
63.999908
 11
-505.169342
 21
70.499893
  0
LINE
  8
0
 62
     4
 10
-505.169434
 20
70.500061
 11
-497.663879
 21
70.500061
  0
LINE
  8
0
 62
     4
 10
-497.664062
 20
70.499855
 11
-493.911316
 21
63.999901
  0
LINE
  8
0
 62
     4
 10
-493.911377
 20
64.000160
 11
-497.664124
 21
57.500179
  0
LINE
  8
0
 62
     4
 10
-497.663818
 20
57.500053
 11
-505.169373
 21
57.500053
  0
LINE
  8
0
 10
-485.916626
 20
119.000000
 11
-492.916626
 21
119.000000
  0
LINE
  8
0
 10
-492.916595
 20
118.999886
 11
-493.416626
 21
118.499878
  0
LINE
  8
0
 10
-485.916626
 20
119.000084
 11
-485.416595
 21
118.500053
  0
LINE
  8
0
 10
-485.416626
 20
118.500000
 11
-493.416626
 21
118.500000
  0
LINE
  8
0
 62
     4
 10
-478.916626
 20
95.000000
 11
-473.416626
 21
95.000000
  0
LINE
  8
0
 62
     4
 10
-478.916626
 20
87.000000
 11
-473.416626
 21
87.000000
  0
LINE
  8
0
 62
     4
 10
-478.916626
 20
95.000000
 11
-478.916626
 21
87.000000
  0
LINE
  8
0
 62
     4
 10
-473.416626
 20
95.000000
 11
-473.416626
 21
87.000000
  0
LINE
  8
0
 62
     4
 10
-472.444794
 20
93.799995
 11
-473.416626
 21
93.799995
  0
LINE
  8
0
 62
     4
 10
-472.444794
 20
88.199997
 11
-473.416626
 21
88.199997
  0
LINE
  8
0
 62
     4
 10
-476.282654
 20
101.000000
 11
-478.550598
 21
101.000000
  0
LINE
  8
0
 62
     4
 10
-479.416718
 20
99.500015
 11
-478.550690
 21
101.000023
  0
LINE
  8
0
 62
     4
 10
-475.416565
 20
99.500076
 11
-476.282593
 21
101.000076
  0
LINE
  8
0
 62
     4
 10
-475.416626
 20
99.500000
 11
-475.416626
 21
95.000000
  0
LINE
  8
0
 62
     4
 10
-475.416626
 20
99.500000
 11
-479.416626
 21
99.500000
  0
LINE
  8
0
 62
     4
 10
-475.416626
 20
79.000000
 11
-479.416626
 21
79.000000
  0
LINE
  8
0
 62
     4
 10
-475.916626
 20
78.000000
 11
-478.916626
 21
78.000000
  0
LINE
  8
0
 62
     4
 10
-478.916626
 20
78.000000
 11
-478.916626
 21
73.000000
  0
LINE
  8
0
 62
     4
 10
-475.916626
 20
78.000000
 11
-475.916626
 21
73.000000
  0
LINE
  8
0
 62
     4
 10
-475.416687
 20
79.000023
 11
-475.916687
 21
78.000015
  0
LINE
  8
0
 62
     4
 10
-479.416534
 20
79.000023
 11
-478.916534
 21
78.000015
  0
LINE
  8
0
 62
     4
 10
-475.416626
 20
87.000000
 11
-475.416626
 21
79.000000
  0
LINE
  8
0
 62
     4
 10
-478.916626
 20
33.000000
 11
-473.416626
 21
33.000000
  0
LINE
  8
0
 62
     4
 10
-478.916626
 20
41.000000
 11
-473.416626
 21
41.000000
  0
LINE
  8
0
 62
     4
 10
-478.916626
 20
33.000000
 11
-478.916626
 21
41.000000
  0
LINE
  8
0
 62
     4
 10
-473.416626
 20
33.000000
 11
-473.416626
 21
41.000000
  0
LINE
  8
0
 62
     4
 10
-472.444794
 20
34.200001
 11
-473.416626
 21
34.200001
  0
LINE
  8
0
 62
     4
 10
-472.444794
 20
39.799999
 11
-473.416626
 21
39.799999
  0
LINE
  8
0
 62
     4
 10
-476.282654
 20
27.000000
 11
-478.550598
 21
27.000000
  0
LINE
  8
0
 62
     4
 10
-479.416718
 20
28.499960
 11
-478.550690
 21
26.999956
  0
LINE
  8
0
 62
     4
 10
-475.416565
 20
28.499960
 11
-476.282593
 21
26.999954
  0
LINE
  8
0
 62
     4
 10
-475.416626
 20
28.500000
 11
-475.416626
 21
33.000000
  0
LINE
  8
0
 62
     4
 10
-475.416626
 20
28.500000
 11
-479.416626
 21
28.500000
  0
LINE
  8
0
 62
     4
 10
-475.416626
 20
49.000000
 11
-479.416626
 21
49.000000
  0
LINE
  8
0
 62
     4
 10
-475.916626
 20
50.000000
 11
-478.916626
 21
50.000000
  0
LINE
  8
0
 62
     4
 10
-478.916626
 20
50.000000
 11
-478.916626
 21
55.000000
  0
LINE
  8
0
 62
     4
 10
-475.916626
 20
50.000000
 11
-475.916626
 21
55.000000
  0
LINE
  8
0
 62
     4
 10
-475.416656
 20
48.999981
 11
-475.916656
 21
49.999989
  0
LINE
  8
0
 62
     4
 10
-479.416504
 20
48.999992
 11
-478.916504
 21
49.999985
  0
LINE
  8
0
 62
     4
 10
-475.416626
 20
41.000000
 11
-475.416626
 21
49.000000
  0
LINE
  8
0
 10
-93.083374
 20
102.000000
 11
-93.083374
 21
26.000000
  0
LINE
  8
0
 10
-137.083374
 20
102.000000
 11
-137.083374
 21
95.000000
  0
LINE
  8
0
 10
-93.083374
 20
102.000000
 11
-137.083374
 21
102.000000
  0
LINE
  8
0
 10
-93.083374
 20
26.000000
 11
-137.083374
 21
26.000000
  0
LINE
  8
0
  6
CENTER
 62
     2
 10
-88.083374
 20
64.000000
 11
-142.083374
 21
64.000000
  0
LINE
  8
0
  6
CENTER
 62
     2
 10
-116.083374
 20
32.500000
 11
-130.083374
 21
32.500000
  0
LINE
  8
0
  6
CENTER
 62
     2
 10
-116.083374
 20
95.500000
 11
-130.083374
 21
95.500000
  0
LINE
  8
0
  6
CENTER
 62
     2
 10
-123.083374
 20
39.500000
 11
-123.083374
 21
25.500000
  0
LINE
  8
0
  6
CENTER
 62
     2
 10
-123.083374
 20
102.500000
 11
-123.083374
 21
88.500000
  0
LINE
  8
0
 10
-136.783386
 20
24.799999
 11
-93.383362
 21
24.799999
  0
LINE
  8
0
 10
-135.817749
 20
19.000000
 11
-94.348969
 21
19.000000
  0
LINE
  8
0
 10
-93.383362
 20
24.799999
 11
-93.383362
 21
26.000000
  0
LINE
  8
0
 10
-136.783386
 20
24.799999
 11
-136.783386
 21
26.000000
  0
LINE
  8
0
 10
-136.783401
 20
24.799994
 11
-136.315872
 21
19.456415
  0
LINE
  8
0
 10
-93.383499
 20
24.799995
 11
-93.850998
 21
19.456417
  0
LINE
  8
0
 10
-126.382057
 20
22.943562
 11
-126.077003
 21
19.456402
  0
LINE
  8
0
 10
-103.784622
 20
22.943583
 11
-104.089737
 21
19.456409
  0
LINE
  8
0
 10
-136.660889
 20
23.400002
 11
-126.880127
 21
23.400002
  0
LINE
  8
0
 10
-103.286652
 20
23.400002
 11
-93.505859
 21
23.400002
  0
LINE
  8
0
 10
-102.883362
 20
22.400002
 11
-95.283386
 21
22.400002
  0
LINE
  8
0
 10
-102.883362
 20
22.400002
 11
-102.883362
 21
23.400002
  0
LINE
  8
0
 10
-95.283386
 20
22.400002
 11
-95.283386
 21
23.400002
  0
LINE
  8
0
 10
-134.883362
 20
22.400002
 11
-127.283386
 21
22.400002
  0
LINE
  8
0
 10
-134.883362
 20
22.400002
 11
-134.883362
 21
23.400002
  0
LINE
  8
0
 10
-127.283386
 20
22.400002
 11
-127.283386
 21
23.400002
  0
LINE
  8
0
 10
-133.583374
 20
17.000000
 11
-120.583374
 21
17.000000
  0
LINE
  8
0
 10
-133.583374
 20
12.000000
 11
-120.583374
 21
12.000000
  0
LINE
  8
0
 10
-133.583374
 20
12.000000
 11
-133.583374
 21
17.000000
  0
LINE
  8
0
 10
-120.583374
 20
12.000000
 11
-120.583374
 21
17.000000
  0
LINE
  8
0
 10
-130.583374
 20
9.000000
 11
-123.583374
 21
9.000000
  0
LINE
  8
0
 10
-131.083374
 20
9.500004
 11
-131.083374
 21
12.000000
  0
LINE
  8
0
 10
-123.083374
 20
9.500000
 11
-123.083374
 21
12.000000
  0
LINE
  8
0
 10
-130.583374
 20
8.999998
 11
-131.083389
 21
9.500011
  0
LINE
  8
0
 10
-123.083458
 20
9.500028
 11
-123.583397
 21
9.000035
  0
LINE
  8
0
 62
     2
 10
-130.458374
 20
9.000000
 11
-130.458374
 21
12.000000
  0
LINE
  8
0
 62
     2
 10
-123.708374
 20
9.000000
 11
-123.708374
 21
12.000000
  0
LINE
  8
0
 10
-131.083374
 20
9.500008
 11
-123.083374
 21
9.500008
  0
LINE
  8
0
  6
CENTER
 62
     2
 10
-127.083374
 20
5.893806
 11
-127.083374
 21
30.156342
  0
LINE
  8
0
 10
-136.783386
 20
103.199997
 11
-93.383362
 21
103.199997
  0
LINE
  8
0
 10
-135.817749
 20
109.000000
 11
-94.348969
 21
109.000000
  0
LINE
  8
0
 10
-93.383362
 20
103.199997
 11
-93.383362
 21
102.000000
  0
LINE
  8
0
 10
-136.783386
 20
103.199997
 11
-136.783386
 21
102.000000
  0
LINE
  8
0
 10
-136.783478
 20
103.200005
 11
-136.315948
 21
108.543587
  0
LINE
  8
0
 10
-93.383560
 20
103.199936
 11
-93.851059
 21
108.543526
  0
LINE
  8
0
 10
-126.382080
 20
105.056396
 11
-126.076965
 21
108.543549
  0
LINE
  8
0
 10
-103.784630
 20
105.056450
 11
-104.089745
 21
108.543602
  0
LINE
  8
0
 10
-136.660889
 20
104.600006
 11
-126.880127
 21
104.600006
  0
LINE
  8
0
 10
-103.286652
 20
104.600006
 11
-93.505859
 21
104.600006
  0
LINE
  8
0
 10
-102.883362
 20
105.600006
 11
-95.283386
 21
105.600006
  0
LINE
  8
0
 10
-102.883362
 20
105.600006
 11
-102.883362
 21
104.600006
  0
LINE
  8
0
 10
-95.283386
 20
105.600006
 11
-95.283386
 21
104.600006
  0
LINE
  8
0
 10
-134.883362
 20
105.600006
 11
-127.283386
 21
105.600006
  0
LINE
  8
0
 10
-134.883362
 20
105.600006
 11
-134.883362
 21
104.600006
  0
LINE
  8
0
 10
-127.283386
 20
105.600006
 11
-127.283386
 21
104.600006
  0
LINE
  8
0
 10
-133.583374
 20
111.000008
 11
-120.583374
 21
111.000008
  0
LINE
  8
0
 10
-133.583374
 20
116.000000
 11
-120.583374
 21
116.000000
  0
LINE
  8
0
 10
-133.583374
 20
116.000015
 11
-133.583374
 21
111.000000
  0
LINE
  8
0
 10
-120.583374
 20
116.000015
 11
-120.583374
 21
111.000000
  0
LINE
  8
0
 10
-130.583374
 20
119.000000
 11
-123.583374
 21
119.000000
  0
LINE
  8
0
 10
-131.083374
 20
118.500015
 11
-131.083374
 21
116.000015
  0
LINE
  8
0
 10
-123.083374
 20
118.500015
 11
-123.083374
 21
116.000015
  0
LINE
  8
0
 10
-130.583328
 20
118.999939
 11
-131.083328
 21
118.499924
  0
LINE
  8
0
 10
-123.083366
 20
118.499931
 11
-123.583405
 21
118.999969
  0
LINE
  8
0
 62
     2
 10
-130.458374
 20
119.000015
 11
-130.458374
 21
116.000015
  0
LINE
  8
0
 62
     2
 10
-123.708374
 20
119.000015
 11
-123.708374
 21
116.000015
  0
LINE
  8
0
 10
-131.083374
 20
118.500000
 11
-123.083374
 21
118.500000
  0
LINE
  8
0
  6
CENTER
 62
     2
 10
-127.083374
 20
122.106216
 11
-127.083374
 21
97.843658
  0
LINE
  8
0
 10
-134.083374
 20
76.051971
 11
-134.083374
 21
51.948029
  0
LINE
  8
0
 10
-96.083374
 20
76.051971
 11
-96.083374
 21
51.948029
  0
LINE
  8
0
 10
-101.083412
 20
75.634109
 11
-102.583420
 21
74.768082
  0
LINE
  8
0
 10
-102.583252
 20
74.768181
 11
-104.083244
 21
75.634209
  0
LINE
  8
0
 10
-104.083374
 20
75.633972
 11
-104.083374
 21
77.366028
  0
LINE
  8
0
 10
-104.083488
 20
77.366112
 11
-102.583488
 21
78.232147
  0
LINE
  8
0
 10
-102.583260
 20
78.232361
 11
-101.083260
 21
77.366333
  0
LINE
  8
0
 10
-101.083344
 20
77.366028
 11
-101.083344
 21
75.633972
  0
LINE
  8
0
 10
-101.083374
 20
52.366028
 11
-101.083374
 21
50.633976
  0
LINE
  8
0
 10
-102.583191
 20
53.232250
 11
-101.083214
 21
52.366234
  0
LINE
  8
0
 10
-104.083420
 20
52.366112
 11
-102.583420
 21
53.232143
  0
LINE
  8
0
 10
-104.083374
 20
50.633976
 11
-104.083374
 21
52.366028
  0
LINE
  8
0
 10
-102.583260
 20
49.768120
 11
-104.083267
 21
50.634148
  0
LINE
  8
0
 10
-101.083420
 20
50.634075
 11
-102.583420
 21
49.768044
  0
LINE
  8
0
 10
-126.083374
 20
52.366028
 11
-126.083374
 21
50.633968
  0
LINE
  8
0
 10
-127.583351
 20
53.232075
 11
-126.083282
 21
52.366039
  0
LINE
  8
0
 10
-129.083481
 20
52.366104
 11
-127.583473
 21
53.232132
  0
LINE
  8
0
 10
-129.083374
 20
50.633976
 11
-129.083374
 21
52.366028
  0
LINE
  8
0
 10
-127.583275
 20
49.768074
 11
-129.083267
 21
50.634106
  0
LINE
  8
0
 10
-126.083397
 20
50.634109
 11
-127.583405
 21
49.768082
  0
LINE
  8
0
 10
-126.083374
 20
77.366028
 11
-126.083374
 21
75.633972
  0
LINE
  8
0
 10
-127.583206
 20
78.232300
 11
-126.083206
 21
77.366264
  0
LINE
  8
0
 10
-129.083466
 20
77.366158
 11
-127.583466
 21
78.232193
  0
LINE
  8
0
 10
-129.083374
 20
75.633972
 11
-129.083374
 21
77.366028
  0
LINE
  8
0
 10
-127.583313
 20
74.768158
 11
-129.083313
 21
75.634193
  0
LINE
  8
0
 10
-126.083450
 20
75.634094
 11
-127.583450
 21
74.768059
  0
LINE
  8
0
  6
CENTER
 62
     2
 10
-115.083374
 20
114.000000
 11
-115.083374
 21
14.000000
  0
LINE
  8
0
 10
-127.083374
 20
16.419441
 11
-127.083374
 21
12.580559
  0
LINE
  8
0
 10
-127.083374
 20
111.580566
 11
-127.083374
 21
115.419449
  0
LINE
  8
0
 10
-105.918762
 20
73.500000
 11
-124.247986
 21
73.500000
  0
LINE
  8
0
 10
-105.918762
 20
54.500000
 11
-124.247986
 21
54.500000
  0
LINE
  8
0
 10
-137.083374
 20
87.000000
 11
-137.083374
 21
41.000000
  0
LINE
  8
0
 10
-137.083374
 20
33.000000
 11
-137.083374
 21
26.000000
  0
LINE
  8
0
 62
     4
 10
-144.055206
 20
88.199997
 11
-143.083389
 21
88.199997
  0
LINE
  8
0
 62
     4
 10
-144.055206
 20
93.799995
 11
-143.083389
 21
93.799995
  0
LINE
  8
0
 62
     4
 10
-136.083389
 20
95.000000
 11
-136.083389
 21
87.000000
  0
LINE
  8
0
 62
     4
 10
-143.083389
 20
95.000000
 11
-136.083389
 21
95.000000
  0
LINE
  8
0
 62
     4
 10
-143.083389
 20
87.000000
 11
-136.083389
 21
87.000000
  0
LINE
  8
0
 62
     4
 10
-139.083389
 20
95.000000
 11
-139.083389
 21
87.000000
  0
LINE
  8
0
 62
     4
 10
-143.083389
 20
95.000000
 11
-143.083389
 21
87.000000
  0
LINE
  8
0
 62
     4
 10
-141.083389
 20
99.500000
 11
-141.083389
 21
95.000000
  0
LINE
  8
0
 62
     4
 10
-137.949417
 20
101.000000
 11
-140.217361
 21
101.000000
  0
LINE
  8
0
 62
     4
 10
-141.083466
 20
99.500046
 11
-140.217438
 21
101.000046
  0
LINE
  8
0
 62
     4
 10
-137.083344
 20
99.500046
 11
-137.949371
 21
101.000046
  0
LINE
  8
0
 62
     4
 10
-137.083389
 20
99.500000
 11
-141.083389
 21
99.500000
  0
LINE
  8
0
 62
     4
 10
-137.083374
 20
79.000000
 11
-141.083389
 21
79.000000
  0
LINE
  8
0
 62
     4
 10
-137.583389
 20
78.000000
 11
-140.583389
 21
78.000000
  0
LINE
  8
0
 62
     4
 10
-140.583389
 20
78.000000
 11
-140.583389
 21
73.000000
  0
LINE
  8
0
 62
     4
 10
-137.583389
 20
78.000000
 11
-137.583389
 21
73.000000
  0
LINE
  8
0
 62
     4
 10
-137.083405
 20
79.000015
 11
-137.583405
 21
78.000008
  0
LINE
  8
0
 62
     4
 10
-141.083389
 20
78.999985
 11
-140.583389
 21
77.999985
  0
LINE
  8
0
 62
     4
 10
-141.083389
 20
87.000000
 11
-141.083389
 21
79.000000
  0
LINE
  8
0
 62
     4
 10
-144.055206
 20
39.800007
 11
-143.083389
 21
39.800007
  0
LINE
  8
0
 62
     4
 10
-144.055206
 20
34.200008
 11
-143.083389
 21
34.200008
  0
LINE
  8
0
 62
     4
 10
-136.083389
 20
33.000000
 11
-136.083389
 21
41.000000
  0
LINE
  8
0
 62
     4
 10
-143.083389
 20
33.000000
 11
-136.083389
 21
33.000000
  0
LINE
  8
0
 62
     4
 10
-143.083389
 20
41.000000
 11
-136.083389
 21
41.000000
  0
LINE
  8
0
 62
     4
 10
-139.083389
 20
33.000000
 11
-139.083389
 21
41.000000
  0
LINE
  8
0
 62
     4
 10
-143.083389
 20
33.000000
 11
-143.083389
 21
41.000000
  0
LINE
  8
0
 62
     4
 10
-141.083389
 20
28.500000
 11
-141.083389
 21
33.000000
  0
LINE
  8
0
 62
     4
 10
-137.949417
 20
27.000000
 11
-140.217361
 21
27.000000
  0
LINE
  8
0
 62
     4
 10
-141.083481
 20
28.499947
 11
-140.217453
 21
26.999943
  0
LINE
  8
0
 62
     4
 10
-137.083328
 20
28.499954
 11
-137.949356
 21
26.999950
  0
LINE
  8
0
 62
     4
 10
-137.083389
 20
28.500000
 11
-141.083389
 21
28.500000
  0
LINE
  8
0
 62
     4
 10
-137.083374
 20
49.000000
 11
-141.083389
 21
49.000000
  0
LINE
  8
0
 62
     4
 10
-137.583389
 20
50.000000
 11
-140.583389
 21
50.000000
  0
LINE
  8
0
 62
     4
 10
-140.583389
 20
50.000000
 11
-140.583389
 21
55.000000
  0
LINE
  8
0
 62
     4
 10
-137.583389
 20
50.000000
 11
-137.583389
 21
55.000000
  0
LINE
  8
0
 62
     4
 10
-137.083389
 20
48.999989
 11
-137.583389
 21
50.000000
  0
LINE
  8
0
 62
     4
 10
-141.083389
 20
49.000015
 11
-140.583389
 21
50.000008
  0
LINE
  8
0
 62
     4
 10
-141.083389
 20
41.000000
 11
-141.083389
 21
49.000000
  0
LINE
  8
0
 62
     4
 10
-111.204193
 20
81.244011
 11
-104.354233
 21
71.688919
  0
LINE
  8
0
 62
     4
 10
-111.082390
 20
81.331345
 11
-104.232422
 21
71.776237
  0
LINE
  8
0
 62
     4
 10
-118.960487
 20
81.243904
 11
-125.810432
 21
71.688805
  0
LINE
  8
0
 62
     4
 10
-119.082458
 20
81.331383
 11
-125.932419
 21
71.776276
  0
LINE
  8
0
 62
     4
 10
-112.480484
 20
89.316628
 11
-117.680496
 21
89.317017
  0
LINE
  8
0
 62
     4
 10
-111.580849
 20
84.316566
 11
-118.580849
 21
84.317093
  0
LINE
  8
0
 62
     4
 10
-113.280327
 20
91.316681
 11
-116.880333
 21
91.316956
  0
LINE
  8
0
 62
     4
 10
-117.680389
 20
90.517021
 11
-117.680481
 21
89.317024
  0
LINE
  8
0
 62
     4
 10
-112.480385
 20
90.516632
 11
-112.480476
 21
89.316635
  0
LINE
  8
0
 62
     4
 10
-116.330482
 20
89.316902
 11
-116.330597
 21
87.816902
  0
LINE
  8
0
 62
     4
 10
-113.830482
 20
89.316727
 11
-113.830597
 21
87.816727
  0
LINE
  8
0
 62
     4
 10
-111.580872
 20
84.016563
 11
-118.580887
 21
84.017090
  0
LINE
  8
0
 62
     4
 10
-112.081398
 20
77.016602
 11
-112.901955
 21
77.016663
  0
LINE
  8
0
 62
     4
 10
-111.580856
 20
84.316559
 11
-111.581367
 21
77.516556
  0
LINE
  8
0
 62
     4
 10
-111.581360
 20
77.516533
 11
-112.081398
 21
77.016563
  0
LINE
  8
0
 62
     4
 10
-111.581367
 20
77.516571
 11
-118.581375
 21
77.517097
  0
LINE
  8
0
 62
     4
 10
-113.080879
 20
84.016670
 11
-113.080856
 21
84.316666
  0
LINE
  8
0
 62
     4
 10
-117.080879
 20
84.016975
 11
-117.080856
 21
84.316971
  0
LINE
  8
0
 62
     4
 10
-118.580856
 20
84.317078
 11
-118.581367
 21
77.517075
  0
LINE
  8
0
 62
     4
 10
-118.581383
 20
77.517090
 11
-118.081429
 21
77.017059
  0
LINE
  8
0
 62
     4
 10
-117.260841
 20
77.016983
 11
-118.081398
 21
77.017044
  0
LINE
  8
0
 62
     4
 10
-110.081078
 20
81.330933
 11
-110.080719
 21
86.130936
  0
LINE
  8
0
 62
     4
 10
-121.080818
 20
84.831772
 11
-121.080719
 21
86.131775
  0
LINE
  8
0
 62
     4
 10
-120.080742
 20
85.831696
 11
-120.080818
 21
84.831696
  0
LINE
  8
0
 62
     4
 10
-111.080742
 20
85.831039
 11
-111.081085
 21
81.331039
  0
LINE
  8
0
 62
     4
 10
-111.280632
 20
87.331039
 11
-118.580635
 21
87.331589
  0
LINE
  8
0
 62
     4
 10
-117.680717
 20
86.331512
 11
-119.080711
 21
86.331619
  0
LINE
  8
0
 62
     4
 10
-110.081085
 20
81.330940
 11
-111.081085
 21
81.331017
  0
LINE
  8
0
 62
     4
 10
-120.080826
 20
84.831688
 11
-121.080826
 21
84.831764
  0
LINE
  8
0
 62
     4
 10
-113.280769
 20
85.331177
 11
-116.880775
 21
85.331451
  0
LINE
  8
0
 62
     4
 10
-113.280777
 20
85.331184
 11
-113.280762
 21
85.531181
  0
LINE
  8
0
 62
     4
 10
-116.880783
 20
85.331459
 11
-116.880768
 21
85.531456
  0
LINE
  8
0
 62
     4
 10
-111.580711
 20
86.331055
 11
-112.480705
 21
86.331123
  0
LINE
  8
0
 62
     4
 10
-117.580559
 20
88.331505
 11
-118.880562
 21
88.331604
  0
LINE
  8
0
 62
     4
 10
-120.081085
 20
81.331688
 11
-119.081085
 21
81.331619
  0
LINE
  8
0
 62
     4
 10
-117.580551
 20
88.331505
 11
-117.580620
 21
87.331505
  0
LINE
  8
0
 62
     4
 10
-120.080635
 20
87.131706
 11
-120.081078
 21
81.331703
  0
LINE
  8
0
 62
     4
 10
-119.081078
 20
81.331627
 11
-119.080666
 21
86.831627
  0
LINE
  8
0
 62
     4
 10
-113.580780
 20
85.331207
 11
-113.580856
 21
84.316711
  0
LINE
  8
0
 62
     1
 10
-113.830780
 20
85.331223
 11
-113.830856
 21
84.316727
  0
LINE
  8
0
 62
     1
 10
-116.330780
 20
85.331413
 11
-116.330856
 21
84.316917
  0
LINE
  8
0
 62
     4
 10
-116.580780
 20
85.331436
 11
-116.580856
 21
84.316933
  0
LINE
  8
0
 62
     4
 10
-111.080757
 20
85.581024
 11
-111.230751
 21
85.581032
  0
LINE
  8
0
 62
     4
 10
-118.930763
 20
85.581612
 11
-119.080757
 21
85.581627
  0
LINE
  8
0
 62
     4
 10
-111.230751
 20
85.581032
 11
-111.231071
 21
81.331032
  0
LINE
  8
0
 62
     4
 10
-118.930756
 20
85.581612
 11
-118.931076
 21
81.331612
  0
LINE
  8
0
 62
     4
 10
-113.580589
 20
87.816711
 11
-113.580627
 21
87.331207
  0
LINE
  8
0
 62
     4
 10
-113.580597
 20
87.816704
 11
-116.580597
 21
87.816933
  0
LINE
  8
0
 62
     1
 10
-113.830589
 20
87.816734
 11
-113.830627
 21
87.331230
  0
LINE
  8
0
 62
     1
 10
-116.330589
 20
87.816910
 11
-116.330627
 21
87.331406
  0
LINE
  8
0
 62
     4
 10
-116.580589
 20
87.816948
 11
-116.580627
 21
87.331444
  0
LINE
  8
0
 62
     4
 10
-118.960556
 20
46.754025
 11
-125.810509
 21
56.309120
  0
LINE
  8
0
 62
     4
 10
-119.082359
 20
46.666664
 11
-125.932327
 21
56.221779
  0
LINE
  8
0
 62
     4
 10
-111.204254
 20
46.754082
 11
-104.354301
 21
56.309177
  0
LINE
  8
0
 62
     4
 10
-111.082283
 20
46.666603
 11
-104.232330
 21
56.221703
  0
LINE
  8
0
 62
     4
 10
-117.684280
 20
38.681366
 11
-112.484268
 21
38.680973
  0
LINE
  8
0
 62
     4
 10
-118.583893
 20
43.681427
 11
-117.083893
 21
43.681316
  0
LINE
  8
0
 62
     4
 10
-116.884422
 20
36.681301
 11
-113.284416
 21
36.681030
  0
LINE
  8
0
 62
     4
 10
-112.484360
 20
37.480999
 11
-112.484268
 21
38.680996
  0
LINE
  8
0
 62
     4
 10
-117.684364
 20
37.481384
 11
-117.684273
 21
38.681381
  0
LINE
  8
0
 62
     4
 10
-113.834274
 20
38.681080
 11
-113.834160
 21
40.181080
  0
LINE
  8
0
 62
     4
 10
-116.334274
 20
38.681271
 11
-116.334160
 21
40.181271
  0
LINE
  8
0
 62
     4
 10
-118.583878
 20
43.981434
 11
-111.583878
 21
43.980907
  0
LINE
  8
0
 62
     4
 10
-118.083351
 20
50.981407
 11
-117.262794
 21
50.981346
  0
LINE
  8
0
 62
     4
 10
-118.583900
 20
43.681427
 11
-118.583389
 21
50.481426
  0
LINE
  8
0
 62
     4
 10
-118.583397
 20
50.481468
 11
-118.083359
 21
50.981434
  0
LINE
  8
0
 62
     4
 10
-118.583374
 20
50.481441
 11
-111.583374
 21
50.480915
  0
LINE
  8
0
 62
     4
 10
-117.083870
 20
43.981339
 11
-117.083908
 21
43.481339
  0
LINE
  8
0
 62
     4
 10
-113.083870
 20
43.981045
 11
-113.083908
 21
43.481045
  0
LINE
  8
0
 62
     4
 10
-117.083916
 20
43.481319
 11
-113.083916
 21
43.481018
  0
LINE
  8
0
 62
     4
 10
-113.126144
 20
43.407932
 11
-113.083923
 21
43.481045
  0
LINE
  8
0
 62
     4
 10
-117.041656
 20
43.408249
 11
-117.083862
 21
43.481369
  0
LINE
  8
0
 62
     4
 10
-111.583900
 20
43.680904
 11
-111.583389
 21
50.480904
  0
LINE
  8
0
 62
     4
 10
-111.583382
 20
50.480911
 11
-112.083344
 21
50.980949
  0
LINE
  8
0
 62
     4
 10
-112.903908
 20
50.981018
 11
-112.083351
 21
50.980957
  0
LINE
  8
0
 62
     4
 10
-120.083672
 20
46.667065
 11
-120.084030
 21
41.867062
  0
LINE
  8
0
 62
     4
 10
-109.083939
 20
43.166233
 11
-109.084038
 21
41.866230
  0
LINE
  8
0
 62
     4
 10
-110.084007
 20
42.166302
 11
-110.083939
 21
43.166302
  0
LINE
  8
0
 62
     4
 10
-119.084015
 20
42.166985
 11
-119.083679
 21
46.666985
  0
LINE
  8
0
 62
     4
 10
-118.884125
 20
40.666958
 11
-111.584122
 21
40.666409
  0
LINE
  8
0
 62
     4
 10
-112.484032
 20
41.666481
 11
-111.084038
 21
41.666374
  0
LINE
  8
0
 62
     4
 10
-120.083664
 20
46.667053
 11
-119.083664
 21
46.666977
  0
LINE
  8
0
 62
     4
 10
-110.083939
 20
43.166298
 11
-109.083939
 21
43.166222
  0
LINE
  8
0
 62
     4
 10
-116.883972
 20
42.666805
 11
-113.283966
 21
42.666534
  0
LINE
  8
0
 62
     4
 10
-116.883972
 20
42.666832
 11
-116.883987
 21
42.466835
  0
LINE
  8
0
 62
     4
 10
-113.283966
 20
42.666553
 11
-113.283981
 21
42.466557
  0
LINE
  8
0
 62
     4
 10
-118.584053
 20
41.666931
 11
-117.684059
 21
41.666866
  0
LINE
  8
0
 62
     4
 10
-112.584198
 20
39.666489
 11
-111.284195
 21
39.666389
  0
LINE
  8
0
 62
     4
 10
-110.083672
 20
46.666298
 11
-111.083672
 21
46.666370
  0
LINE
  8
0
 62
     4
 10
-112.584198
 20
39.666508
 11
-112.584122
 21
40.666508
  0
LINE
  8
0
 62
     4
 10
-110.084106
 20
40.866299
 11
-110.083672
 21
46.666302
  0
LINE
  8
0
 62
     4
 10
-111.083672
 20
46.666367
 11
-111.084084
 21
41.166367
  0
LINE
  8
0
 62
     4
 10
-116.583977
 20
42.666798
 11
-116.583946
 21
43.083225
  0
LINE
  8
0
 62
     1
 10
-116.333977
 20
42.666786
 11
-116.333954
 21
42.954109
  0
LINE
  8
0
 62
     1
 10
-113.833977
 20
42.666588
 11
-113.833954
 21
42.953911
  0
LINE
  8
0
 62
     4
 10
-113.583977
 20
42.666565
 11
-113.583946
 21
43.082993
  0
LINE
  8
0
 62
     4
 10
-113.083900
 20
43.681023
 11
-111.583900
 21
43.680908
  0
LINE
  8
0
 62
     4
 10
-119.083992
 20
42.416977
 11
-118.933998
 21
42.416965
  0
LINE
  8
0
 62
     4
 10
-111.233986
 20
42.416386
 11
-111.083992
 21
42.416374
  0
LINE
  8
0
 62
     4
 10
-118.933998
 20
42.416981
 11
-118.933678
 21
46.666981
  0
LINE
  8
0
 62
     4
 10
-111.233986
 20
42.416397
 11
-111.233665
 21
46.666397
  0
LINE
  8
0
 62
     4
 10
-116.584160
 20
40.181293
 11
-116.584122
 21
40.666798
  0
LINE
  8
0
 62
     4
 10
-116.584160
 20
40.181286
 11
-113.584160
 21
40.181061
  0
LINE
  8
0
 62
     1
 10
-116.334160
 20
40.181271
 11
-116.334122
 21
40.666775
  0
LINE
  8
0
 62
     1
 10
-113.834160
 20
40.181084
 11
-113.834122
 21
40.666588
  0
LINE
  8
0
 62
     4
 10
-113.584160
 20
40.181065
 11
-113.584122
 21
40.666569
  0
LINE
  8
0
  6
CENTER
 62
     2
 10
-355.250000
 20
-119.836761
 11
-355.250000
 21
-188.666672
  0
LINE
  8
0
  6
CENTER
 62
     2
 10
-238.707458
 20
-161.666672
 11
-409.446411
 21
-161.666672
  0
LINE
  8
0
 10
-333.250000
 20
-142.666672
 11
-333.250000
 21
-180.666672
  0
LINE
  8
0
 10
-377.250000
 20
-142.666672
 11
-377.250000
 21
-180.666672
  0
LINE
  8
0
 10
-336.250000
 20
-139.666672
 11
-374.250000
 21
-139.666672
  0
LINE
  8
0
 10
-336.250000
 20
-183.666656
 11
-374.250000
 21
-183.666656
  0
LINE
  8
0
 10
-359.002777
 20
-156.166656
 11
-362.755524
 21
-149.666672
  0
LINE
  8
0
  6
CENTER
 62
     2
 10
-346.750000
 20
-149.666672
 11
-363.750000
 21
-149.666672
  0
LINE
  8
0
 10
-362.755432
 20
-149.666702
 11
-359.002686
 21
-143.166687
  0
LINE
  8
0
 10
-359.002808
 20
-143.166656
 11
-351.497192
 21
-143.166656
  0
LINE
  8
0
 10
-351.497009
 20
-143.166580
 11
-347.744263
 21
-149.666580
  0
LINE
  8
0
 10
-347.744324
 20
-149.666718
 11
-351.497101
 21
-156.166733
  0
LINE
  8
0
 10
-351.497192
 20
-156.166672
 11
-359.002808
 21
-156.166672
  0
LINE
  8
0
 10
-333.549988
 20
-142.466675
 11
-333.549988
 21
-180.866684
  0
LINE
  8
0
 10
-376.950012
 20
-142.466675
 11
-376.950012
 21
-180.866684
  0
LINE
  8
0
 10
-336.049988
 20
-139.966675
 11
-374.450012
 21
-139.966675
  0
LINE
  8
0
 10
-336.049988
 20
-183.366669
 11
-374.450012
 21
-183.366669
  0
LINE
  8
0
 10
-343.750000
 20
-177.666672
 11
-343.750000
 21
-183.366684
  0
LINE
  8
0
 10
-366.750000
 20
-177.666672
 11
-366.750000
 21
-183.366684
  0
LINE
  8
0
 10
-371.250000
 20
-173.166672
 11
-376.950012
 21
-173.166672
  0
LINE
  8
0
 10
-333.549988
 20
-173.166672
 11
-339.250000
 21
-173.166672
  0
LINE
  8
0
 10
-343.750000
 20
-139.966675
 11
-343.750000
 21
-145.666672
  0
LINE
  8
0
 10
-333.549988
 20
-150.166672
 11
-339.250000
 21
-150.166672
  0
LINE
  8
0
 10
-366.750000
 20
-139.966675
 11
-366.750000
 21
-145.666672
  0
LINE
  8
0
 10
-371.250000
 20
-150.166672
 11
-376.950012
 21
-150.166672
  0
LINE
  8
0
 62
     4
 10
-406.250000
 20
-158.466660
 11
-406.250000
 21
-164.866653
  0
LINE
  8
0
 62
     4
 10
-380.250000
 20
-157.966660
 11
-394.604614
 21
-157.966660
  0
LINE
  8
0
 62
     4
 10
-380.250000
 20
-165.366653
 11
-394.604614
 21
-165.366653
  0
LINE
  8
0
 62
     4
 10
-406.249878
 20
-164.866486
 11
-405.749847
 21
-165.366531
  0
LINE
  8
0
 62
     4
 10
-406.249756
 20
-158.466812
 11
-405.749725
 21
-157.966782
  0
LINE
  8
0
 62
     4
 10
-405.750000
 20
-165.366653
 11
-405.750000
 21
-163.186539
  0
LINE
  8
0
 62
     4
 10
-388.250000
 20
-157.966660
 11
-388.250000
 21
-160.146790
  0
LINE
  8
0
 62
     4
 10
-386.250000
 20
-157.966660
 11
-386.250000
 21
-160.146790
  0
LINE
  8
0
 62
     4
 10
-386.250000
 20
-160.146790
 11
-394.604614
 21
-160.146790
  0
LINE
  8
0
 62
     4
 10
-386.250000
 20
-163.186539
 11
-394.604614
 21
-163.186539
  0
LINE
  8
0
 62
     4
 10
-405.750000
 20
-160.146790
 11
-405.750000
 21
-157.966660
  0
LINE
  8
0
 62
     4
 10
-405.749908
 20
-160.146851
 11
-406.249908
 21
-160.646835
  0
LINE
  8
0
 62
     4
 10
-405.749847
 20
-163.186386
 11
-406.249847
 21
-162.686386
  0
LINE
  8
0
 62
     4
 10
-386.250000
 20
-163.186539
 11
-386.250000
 21
-165.366653
  0
LINE
  8
0
 62
     4
 10
-388.250000
 20
-163.186539
 11
-388.250000
 21
-165.366653
  0
LINE
  8
0
 62
     4
 10
-386.249969
 20
-160.146774
 11
-384.991302
 21
-157.966644
  0
LINE
  8
0
 62
     4
 10
-386.250244
 20
-163.186646
 11
-384.991577
 21
-165.366791
  0
LINE
  8
0
 62
     1
 10
-388.250000
 20
-164.866653
 11
-394.604614
 21
-164.866653
  0
LINE
  8
0
 62
     1
 10
-388.250000
 20
-158.466660
 11
-394.604614
 21
-158.466660
  0
LINE
  8
0
 62
     1
 10
-388.250183
 20
-164.866776
 11
-387.384094
 21
-165.366776
  0
LINE
  8
0
 62
     1
 10
-388.250061
 20
-158.466675
 11
-387.384094
 21
-157.966675
  0
LINE
  8
0
 62
     1
 10
-399.604614
 20
-164.866653
 11
-406.250000
 21
-164.866653
  0
LINE
  8
0
 62
     4
 10
-399.604614
 20
-165.366653
 11
-405.750000
 21
-165.366653
  0
LINE
  8
0
 62
     4
 10
-399.604614
 20
-163.186539
 11
-405.750000
 21
-163.186539
  0
LINE
  8
0
 62
     4
 10
-399.604614
 20
-160.146790
 11
-405.750000
 21
-160.146790
  0
LINE
  8
0
 62
     1
 10
-399.604614
 20
-158.466660
 11
-406.250000
 21
-158.466660
  0
LINE
  8
0
 62
     4
 10
-399.604614
 20
-157.966660
 11
-405.750000
 21
-157.966660
  0
LINE
  8
0
 62
     4
 10
-394.604614
 20
-155.166672
 11
-394.604614
 21
-161.666672
  0
LINE
  8
0
 10
-380.250000
 20
-152.366669
 11
-380.250000
 21
-170.966675
  0
LINE
  8
0
 10
-377.250000
 20
-151.666672
 11
-379.549988
 21
-151.666672
  0
LINE
  8
0
 10
-377.250000
 20
-171.666672
 11
-379.549988
 21
-171.666672
  0
LINE
  8
0
 10
-380.249603
 20
-170.966339
 11
-379.549652
 21
-171.666351
  0
LINE
  8
0
 10
-380.249908
 20
-152.366684
 11
-379.549957
 21
-151.666672
  0
LINE
  8
0
 10
-379.549988
 20
-151.666672
 11
-379.549988
 21
-171.666672
  0
LINE
  8
0
 62
     4
 10
-395.185181
 20
-154.161087
 11
-397.104614
 21
-154.161087
  0
LINE
  8
0
 62
     4
 10
-394.604950
 20
-155.166824
 11
-395.185486
 21
-154.161255
  0
LINE
  8
0
 62
     4
 10
-399.604614
 20
-155.166672
 11
-399.604614
 21
-161.666672
  0
LINE
  8
0
 62
     4
 10
-399.024048
 20
-154.161087
 11
-397.104614
 21
-154.161087
  0
LINE
  8
0
 62
     4
 10
-399.604492
 20
-155.166733
 11
-399.023926
 21
-154.161148
  0
LINE
  8
0
 62
     4
 10
-394.604614
 20
-168.166672
 11
-394.604614
 21
-161.666672
  0
LINE
  8
0
 62
     4
 10
-395.185181
 20
-169.172256
 11
-397.104614
 21
-169.172256
  0
LINE
  8
0
 62
     4
 10
-394.604614
 20
-168.166718
 11
-395.185181
 21
-169.172287
  0
LINE
  8
0
 62
     4
 10
-399.604614
 20
-168.166672
 11
-399.604614
 21
-161.666672
  0
LINE
  8
0
 62
     4
 10
-399.024048
 20
-169.172256
 11
-397.104614
 21
-169.172256
  0
LINE
  8
0
 62
     4
 10
-399.604889
 20
-168.166809
 11
-399.024323
 21
-169.172379
  0
LINE
  8
0
 62
     4
 10
-395.185181
 20
-157.913895
 11
-399.024048
 21
-157.913895
  0
LINE
  8
0
 62
     4
 10
-395.185181
 20
-165.419449
 11
-399.024048
 21
-165.419449
  0
LINE
  8
0
 10
-248.250000
 20
-149.466675
 11
-248.250000
 21
-173.866684
  0
LINE
  8
0
 10
-257.250000
 20
-148.466675
 11
-257.250000
 21
-174.866669
  0
LINE
  8
0
 10
-320.250000
 20
-142.666672
 11
-320.250000
 21
-180.666672
  0
LINE
  8
0
 10
-320.250000
 20
-142.666672
 11
-333.250000
 21
-142.666672
  0
LINE
  8
0
 10
-320.250000
 20
-180.666672
 11
-333.250000
 21
-180.666672
  0
LINE
  8
0
  6
CENTER
 62
     2
 10
-326.750000
 20
-137.666672
 11
-326.750000
 21
-151.987625
  0
LINE
  8
0
 10
-249.250000
 20
-148.466675
 11
-267.250000
 21
-148.466675
  0
LINE
  8
0
 10
-249.250000
 20
-174.866669
 11
-267.250000
 21
-174.866669
  0
LINE
  8
0
 10
-249.250000
 20
-148.466644
 11
-248.250031
 21
-149.466629
  0
LINE
  8
0
 10
-249.250031
 20
-174.866653
 11
-248.250015
 21
-173.866638
  0
LINE
  8
0
 10
-249.250000
 20
-148.466675
 11
-249.250000
 21
-152.502060
  0
LINE
  8
0
 10
-249.250000
 20
-170.831284
 11
-253.250000
 21
-170.831284
  0
LINE
  8
0
 10
-249.250000
 20
-152.502060
 11
-253.250000
 21
-152.502060
  0
LINE
  8
0
 10
-248.249985
 20
-169.321152
 11
-249.249969
 21
-170.831345
  0
LINE
  8
0
 10
-248.249802
 20
-154.012131
 11
-249.249802
 21
-152.501923
  0
LINE
  8
0
 10
-249.250000
 20
-170.831284
 11
-249.250000
 21
-174.866669
  0
LINE
  8
0
 10
-253.250000
 20
-152.502060
 11
-253.250000
 21
-170.831284
  0
LINE
  8
0
 10
-337.835724
 20
-147.080795
 11
-340.664093
 21
-144.252365
  0
LINE
  8
0
 10
-369.835663
 20
-147.080841
 11
-372.664032
 21
-144.252411
  0
LINE
  8
0
 10
-369.835632
 20
-179.080795
 11
-372.663971
 21
-176.252380
  0
LINE
  8
0
 10
-337.835754
 20
-179.080811
 11
-340.664093
 21
-176.252396
  0
LINE
  8
0
 10
-337.835754
 20
-144.252426
 11
-340.664093
 21
-147.080841
  0
LINE
  8
0
 10
-369.836029
 20
-144.252289
 11
-372.664368
 21
-147.080688
  0
LINE
  8
0
 10
-369.835724
 20
-176.252441
 11
-372.664124
 21
-179.080887
  0
LINE
  8
0
 10
-337.835968
 20
-176.252426
 11
-340.664307
 21
-179.080841
  0
LINE
  8
0
 62
     4
 10
-358.049988
 20
-139.166672
 11
-358.049988
 21
-133.666672
  0
LINE
  8
0
 62
     4
 10
-333.250000
 20
-140.666672
 11
-333.250000
 21
-137.666672
  0
LINE
  8
0
 62
     4
 10
-341.250000
 20
-133.666672
 11
-358.049988
 21
-133.666672
  0
LINE
  8
0
 62
     4
 10
-333.250000
 20
-140.666672
 11
-334.013916
 21
-140.666672
  0
LINE
  8
0
 62
     4
 10
-333.250000
 20
-137.666672
 11
-341.250000
 21
-133.666672
  0
LINE
  8
0
 62
     4
 10
-346.250000
 20
-139.166672
 11
-353.250000
 21
-139.166672
  0
LINE
  8
0
 62
     4
 10
-346.250000
 20
-139.666672
 11
-346.250000
 21
-139.166672
  0
LINE
  8
0
 62
     4
 10
-349.049988
 20
-132.694855
 11
-349.049988
 21
-133.666672
  0
LINE
  8
0
 62
     4
 10
-343.450012
 20
-132.694855
 11
-343.450012
 21
-133.666672
  0
LINE
  8
0
 62
     4
 10
-353.250000
 20
-139.166672
 11
-353.250000
 21
-135.666672
  0
LINE
  8
0
 62
     4
 10
-357.250000
 20
-139.166672
 11
-357.250000
 21
-135.666672
  0
LINE
  8
0
 62
     4
 10
-353.250000
 20
-135.666672
 11
-357.250000
 21
-135.666672
  0
LINE
  8
0
 62
     4
 10
-357.250000
 20
-139.166672
 11
-358.049988
 21
-139.166672
  0
LINE
  8
0
 62
     4
 10
-357.250000
 20
-135.666672
 11
-353.250000
 21
-135.666672
  0
LINE
  8
0
 62
     4
 10
-357.250000
 20
-135.666672
 11
-357.250000
 21
-139.666687
  0
LINE
  8
0
 62
     4
 10
-353.250000
 20
-135.666672
 11
-353.250000
 21
-139.666687
  0
LINE
  8
0
 62
     1
 10
-347.479492
 20
-139.666672
 11
-347.479492
 21
-139.166672
  0
LINE
  8
0
 62
     4
 10
-347.750000
 20
-139.666672
 11
-347.750000
 21
-139.166672
  0
LINE
  8
0
 10
-299.250000
 20
-148.466675
 11
-320.250000
 21
-148.466675
  0
LINE
  8
0
 10
-299.250000
 20
-174.866669
 11
-320.250000
 21
-174.866669
  0
LINE
  8
0
 10
-275.250000
 20
-148.466675
 11
-291.250000
 21
-148.466675
  0
LINE
  8
0
 10
-275.250000
 20
-174.866669
 11
-291.250000
 21
-174.866669
  0
LINE
  8
0
 62
     4
 10
-299.250000
 20
-148.316879
 11
-299.250000
 21
-175.016479
  0
LINE
  8
0
 62
     4
 10
-291.250000
 20
-148.316879
 11
-291.250000
 21
-175.016479
  0
LINE
  8
0
 62
     4
 10
-291.250000
 20
-148.316879
 11
-299.250000
 21
-148.316879
  0
LINE
  8
0
 62
     4
 10
-291.250000
 20
-175.016479
 11
-299.250000
 21
-175.016479
  0
LINE
  8
0
 62
     4
 10
-284.250000
 20
-159.966675
 11
-289.250000
 21
-159.966675
  0
LINE
  8
0
 62
     4
 10
-284.250000
 20
-163.366669
 11
-289.250000
 21
-163.366669
  0
LINE
  8
0
 62
     4
 10
-282.250000
 20
-159.166687
 11
-284.250031
 21
-159.166687
  0
LINE
  8
0
 62
     4
 10
-282.250000
 20
-164.166687
 11
-284.250031
 21
-164.166687
  0
LINE
  8
0
 62
     4
 10
-284.250000
 20
-159.166656
 11
-284.250000
 21
-164.166656
  0
LINE
  8
0
 62
     4
 10
-266.750000
 20
-156.666687
 11
-275.750000
 21
-156.666687
  0
LINE
  8
0
 62
     4
 10
-266.250000
 20
-166.666687
 11
-269.000000
 21
-166.666687
  0
LINE
  8
0
 62
     4
 10
-260.250000
 20
-158.166687
 11
-266.250000
 21
-158.166687
  0
LINE
  8
0
 62
     4
 10
-260.250000
 20
-165.166687
 11
-266.250000
 21
-165.166687
  0
LINE
  8
0
 62
     4
 10
-266.250000
 20
-157.166656
 11
-266.250000
 21
-165.166656
  0
LINE
  8
0
 62
     4
 10
-260.250000
 20
-158.166656
 11
-260.250000
 21
-165.166656
  0
LINE
  8
0
 62
     4
 10
-276.250000
 20
-157.166656
 11
-276.250000
 21
-165.166656
  0
LINE
  8
0
 62
     4
 10
-282.250000
 20
-158.166656
 11
-282.250000
 21
-165.166656
  0
LINE
  8
0
 62
     4
 10
-269.250000
 20
-167.032684
 11
-269.250000
 21
-167.966675
  0
LINE
  8
0
 62
     4
 10
-273.250000
 20
-167.032684
 11
-273.250000
 21
-167.966675
  0
LINE
  8
0
 62
     4
 10
-266.750000
 20
-165.666687
 11
-267.883972
 21
-165.666687
  0
LINE
  8
0
 62
     4
 10
-269.250000
 20
-167.966675
 11
-273.250000
 21
-167.966675
  0
LINE
  8
0
 62
     4
 10
-274.616028
 20
-165.666687
 11
-275.750000
 21
-165.666687
  0
LINE
  8
0
 62
     4
 10
-266.250000
 20
-165.166656
 11
-266.250000
 21
-166.666656
  0
LINE
  8
0
 62
     4
 10
-276.250000
 20
-165.166656
 11
-276.250000
 21
-166.666656
  0
LINE
  8
0
 62
     4
 10
-273.500000
 20
-166.666687
 11
-276.250000
 21
-166.666687
  0
LINE
  8
0
 62
     4
 10
-276.250000
 20
-158.166687
 11
-282.250000
 21
-158.166687
  0
LINE
  8
0
 62
     4
 10
-276.250000
 20
-165.166687
 11
-282.250000
 21
-165.166687
  0
LINE
  8
0
 62
     4
 10
-273.500000
 20
-166.666656
 11
-273.500000
 21
-165.198425
  0
LINE
  8
0
 62
     4
 10
-269.000000
 20
-166.666656
 11
-269.000000
 21
-165.198425
  0
LINE
  8
0
 62
     4
 10
-267.250000
 20
-148.316681
 11
-275.250000
 21
-148.316681
  0
LINE
  8
0
 62
     4
 10
-267.250000
 20
-148.316681
 11
-267.250000
 21
-156.666656
  0
LINE
  8
0
 62
     4
 10
-275.250000
 20
-148.316681
 11
-275.250000
 21
-156.666656
  0
LINE
  8
0
 62
     4
 10
-267.250000
 20
-175.016663
 11
-275.250000
 21
-175.016663
  0
LINE
  8
0
 62
     4
 10
-267.250000
 20
-166.666656
 11
-267.250000
 21
-175.016663
  0
LINE
  8
0
 62
     4
 10
-275.250000
 20
-166.666656
 11
-275.250000
 21
-175.016663
  0
LINE
  8
0
 62
     4
 10
-270.330780
 20
-162.585892
 11
-272.169250
 21
-160.747421
  0
LINE
  8
0
 62
     4
 10
-270.330841
 20
-160.747406
 11
-272.169281
 21
-162.585876
  0
LINE
  8
0
 62
     4
 10
-438.716827
 20
-301.374756
 11
-446.116791
 21
-301.374756
  0
LINE
  8
0
 62
     4
 10
-438.716827
 20
-308.774719
 11
-446.116791
 21
-308.774719
  0
LINE
  8
0
 62
     4
 10
-438.716827
 20
-301.374756
 11
-438.716827
 21
-308.774719
  0
LINE
  8
0
 62
     4
 10
-446.116791
 20
-301.374756
 11
-446.116791
 21
-308.774719
  0
LINE
  8
0
  6
CENTER
 62
     1
 10
-442.416779
 20
-299.074738
 11
-442.416779
 21
-311.074738
  0
LINE
  8
0
  6
CENTER
 62
     1
 10
-436.416779
 20
-305.074738
 11
-448.416779
 21
-305.074738
  0
LINE
  8
0
 62
     4
 10
-299.750000
 20
-306.594421
 11
-317.250000
 21
-306.594421
  0
LINE
  8
0
 62
     4
 10
-291.750000
 20
-308.774536
 11
-317.250000
 21
-308.774536
  0
LINE
  8
0
 62
     4
 10
-299.750000
 20
-303.554657
 11
-317.250000
 21
-303.554657
  0
LINE
  8
0
 62
     4
 10
-291.750000
 20
-301.374512
 11
-317.250000
 21
-301.374512
  0
LINE
  8
0
 62
     4
 10
-317.750000
 20
-301.874512
 11
-317.750000
 21
-308.274536
  0
LINE
  8
0
 62
     4
 10
-317.749756
 20
-308.274384
 11
-317.249756
 21
-308.774384
  0
LINE
  8
0
 62
     4
 10
-317.750092
 20
-301.874451
 11
-317.250061
 21
-301.374420
  0
LINE
  8
0
 62
     4
 10
-317.250000
 20
-308.774536
 11
-317.250000
 21
-306.594421
  0
LINE
  8
0
 62
     4
 10
-317.250000
 20
-303.554657
 11
-317.250000
 21
-301.374512
  0
LINE
  8
0
 62
     4
 10
-317.249969
 20
-303.554657
 11
-317.749939
 21
-304.054626
  0
LINE
  8
0
 62
     4
 10
-317.249847
 20
-306.594208
 11
-317.749817
 21
-306.094208
  0
LINE
  8
0
  6
CENTER
 62
     1
 10
-281.598572
 20
-305.074524
 11
-324.906372
 21
-305.074524
  0
LINE
  8
0
 62
     4
 10
-299.750000
 20
-301.374512
 11
-299.750000
 21
-303.554657
  0
LINE
  8
0
 62
     4
 10
-299.750000
 20
-306.594421
 11
-299.750000
 21
-308.774536
  0
LINE
  8
0
 62
     4
 10
-298.550140
 20
-308.774567
 11
-299.750122
 21
-306.594452
  0
LINE
  8
0
 62
     4
 10
-298.550110
 20
-301.374451
 11
-299.750122
 21
-303.554565
  0
LINE
  8
0
 10
255.750000
 20
101.999985
 11
255.750000
 21
25.999985
  0
LINE
  8
0
 10
211.750000
 20
101.999985
 11
211.750000
 21
25.999985
  0
LINE
  8
0
 10
255.750000
 20
102.000000
 11
211.750000
 21
102.000000
  0
LINE
  8
0
 10
255.750000
 20
26.000000
 11
211.750000
 21
26.000000
  0
LINE
  8
0
  6
CENTER
 62
     2
 10
349.467529
 20
64.000000
 11
176.587769
 21
64.000000
  0
LINE
  8
0
 10
255.450012
 20
103.199982
 11
212.049988
 21
103.199982
  0
LINE
  8
0
 10
254.484375
 20
109.000000
 11
213.015625
 21
109.000000
  0
LINE
  8
0
 10
212.049988
 20
103.199982
 11
212.049988
 21
101.999985
  0
LINE
  8
0
 10
255.450012
 20
103.199982
 11
255.450012
 21
101.999985
  0
LINE
  8
0
 10
255.449936
 20
103.199959
 11
254.982468
 21
108.543533
  0
LINE
  8
0
 10
212.049911
 20
103.199997
 11
212.517380
 21
108.543556
  0
LINE
  8
0
 10
245.048630
 20
105.056381
 11
244.743515
 21
108.543549
  0
LINE
  8
0
 10
222.451538
 20
105.056412
 11
222.756592
 21
108.543571
  0
LINE
  8
0
 10
255.327515
 20
104.599976
 11
245.546753
 21
104.599976
  0
LINE
  8
0
 10
221.953247
 20
104.599976
 11
212.172485
 21
104.599976
  0
LINE
  8
0
 10
221.549988
 20
105.599976
 11
213.950012
 21
105.599976
  0
LINE
  8
0
 10
221.549988
 20
105.599991
 11
221.549988
 21
104.599991
  0
LINE
  8
0
 10
213.950012
 20
105.599991
 11
213.950012
 21
104.599991
  0
LINE
  8
0
 10
253.549988
 20
105.599976
 11
245.950012
 21
105.599976
  0
LINE
  8
0
 10
253.549988
 20
105.599991
 11
253.549988
 21
104.599991
  0
LINE
  8
0
 10
245.950012
 20
105.599991
 11
245.950012
 21
104.599991
  0
LINE
  8
0
 10
255.450012
 20
24.799988
 11
212.049988
 21
24.799988
  0
LINE
  8
0
 10
254.484375
 20
19.000000
 11
213.015625
 21
19.000000
  0
LINE
  8
0
 10
212.049988
 20
24.799984
 11
212.049988
 21
25.999985
  0
LINE
  8
0
 10
255.450012
 20
24.799984
 11
255.450012
 21
25.999985
  0
LINE
  8
0
 10
255.449966
 20
24.799965
 11
254.982498
 21
19.456390
  0
LINE
  8
0
 10
212.049774
 20
24.799990
 11
212.517303
 21
19.456406
  0
LINE
  8
0
 10
245.048630
 20
22.943569
 11
244.743515
 21
19.456419
  0
LINE
  8
0
 10
222.451416
 20
22.943571
 11
222.756531
 21
19.456413
  0
LINE
  8
0
 10
255.327515
 20
23.399994
 11
245.546753
 21
23.399994
  0
LINE
  8
0
 10
221.953247
 20
23.399994
 11
212.172485
 21
23.399994
  0
LINE
  8
0
 10
221.549988
 20
22.399994
 11
213.950012
 21
22.399994
  0
LINE
  8
0
 10
221.549988
 20
22.399986
 11
221.549988
 21
23.399986
  0
LINE
  8
0
 10
213.950012
 20
22.399986
 11
213.950012
 21
23.399986
  0
LINE
  8
0
 10
253.549988
 20
22.399994
 11
245.950012
 21
22.399994
  0
LINE
  8
0
 10
253.549988
 20
22.399986
 11
253.549988
 21
23.399986
  0
LINE
  8
0
 10
245.950012
 20
22.399986
 11
245.950012
 21
23.399986
  0
LINE
  8
0
  6
CENTER
 62
     2
 10
233.750000
 20
124.000000
 11
233.750000
 21
3.999985
  0
LINE
  8
0
 10
240.250000
 20
111.000000
 11
227.250000
 21
111.000000
  0
LINE
  8
0
 10
240.250000
 20
116.000000
 11
227.250000
 21
116.000000
  0
LINE
  8
0
 10
237.750000
 20
118.500000
 11
237.750000
 21
116.000000
  0
LINE
  8
0
 10
229.750000
 20
118.500000
 11
229.750000
 21
116.000000
  0
LINE
  8
0
 62
     2
 10
237.125000
 20
119.000000
 11
237.125000
 21
116.000000
  0
LINE
  8
0
 62
     2
 10
230.375000
 20
119.000000
 11
230.375000
 21
116.000000
  0
LINE
  8
0
  6
CENTER
 62
     2
 10
226.750000
 20
43.000000
 11
212.750000
 21
43.000000
  0
LINE
  8
0
  6
CENTER
 62
     2
 10
226.750000
 20
85.000000
 11
212.750000
 21
85.000000
  0
LINE
  8
0
  6
CENTER
 62
     2
 10
219.750000
 20
49.999981
 11
219.750000
 21
35.999985
  0
LINE
  8
0
  6
CENTER
 62
     2
 10
219.750000
 20
91.999985
 11
219.750000
 21
77.999985
  0
LINE
  8
0
 10
237.502808
 20
115.419434
 11
237.502808
 21
111.580551
  0
LINE
  8
0
 10
241.255554
 20
115.419434
 11
241.255554
 21
111.580551
  0
LINE
  8
0
 10
240.249924
 20
111.000053
 11
241.255432
 21
111.580620
  0
LINE
  8
0
 10
240.250107
 20
116.000160
 11
241.255630
 21
115.419632
  0
LINE
  8
0
 10
229.997192
 20
115.419434
 11
229.997192
 21
111.580551
  0
LINE
  8
0
 10
227.250061
 20
111.000038
 11
226.244568
 21
111.580612
  0
LINE
  8
0
 10
227.249863
 20
116.000488
 11
226.244293
 21
115.419922
  0
LINE
  8
0
 10
226.244446
 20
115.419434
 11
226.244446
 21
111.580551
  0
LINE
  8
0
 10
240.250000
 20
17.000000
 11
227.250000
 21
17.000000
  0
LINE
  8
0
 10
240.250000
 20
12.000000
 11
227.250000
 21
12.000000
  0
LINE
  8
0
 10
237.250000
 20
9.000000
 11
230.250000
 21
9.000000
  0
LINE
  8
0
 10
237.750000
 20
9.499985
 11
237.750000
 21
11.999985
  0
LINE
  8
0
 10
229.750000
 20
9.499985
 11
229.750000
 21
11.999985
  0
LINE
  8
0
 10
237.250061
 20
8.999887
 11
237.750107
 21
9.499917
  0
LINE
  8
0
 10
230.250015
 20
8.999998
 11
229.749969
 21
9.500030
  0
LINE
  8
0
 10
237.750000
 20
9.500000
 11
229.750000
 21
9.500000
  0
LINE
  8
0
 62
     2
 10
237.125000
 20
8.999985
 11
237.125000
 21
11.999985
  0
LINE
  8
0
 62
     2
 10
230.375000
 20
8.999985
 11
230.375000
 21
11.999985
  0
LINE
  8
0
 10
237.502808
 20
12.580544
 11
237.502808
 21
16.419426
  0
LINE
  8
0
 10
241.255554
 20
12.580559
 11
241.255554
 21
16.419426
  0
LINE
  8
0
 10
240.249985
 20
16.999916
 11
241.255554
 21
16.419348
  0
LINE
  8
0
 10
240.249969
 20
12.000177
 11
241.255478
 21
12.580714
  0
LINE
  8
0
 10
229.997192
 20
12.580544
 11
229.997192
 21
16.419426
  0
LINE
  8
0
 10
227.249847
 20
17.000170
 11
226.244278
 21
16.419603
  0
LINE
  8
0
 10
227.250000
 20
11.999846
 11
226.244431
 21
12.580415
  0
LINE
  8
0
 10
226.244446
 20
12.580559
 11
226.244446
 21
16.419426
  0
LINE
  8
0
 10
268.750000
 20
86.499985
 11
268.750000
 21
41.499985
  0
LINE
  8
0
 10
268.750000
 20
86.500000
 11
255.750000
 21
86.500000
  0
LINE
  8
0
 10
268.750000
 20
41.500000
 11
255.750000
 21
41.500000
  0
LINE
  8
0
 10
268.750000
 20
51.947998
 11
255.750000
 21
51.947998
  0
LINE
  8
0
 10
268.750000
 20
76.051941
 11
255.750000
 21
76.051941
  0
LINE
  8
0
  6
CENTER
 62
     2
 10
262.250000
 20
70.499985
 11
262.250000
 21
57.499985
  0
LINE
  8
0
 10
340.750000
 20
73.499985
 11
340.750000
 21
54.499985
  0
LINE
  8
0
 10
331.750000
 20
77.199982
 11
331.750000
 21
50.799984
  0
LINE
  8
0
 10
340.750000
 20
73.500000
 11
335.750000
 21
73.500000
  0
LINE
  8
0
 10
340.750000
 20
54.500000
 11
335.750000
 21
54.500000
  0
LINE
  8
0
 10
335.750000
 20
77.199982
 11
335.750000
 21
73.499985
  0
LINE
  8
0
 10
335.750000
 20
54.499985
 11
335.750000
 21
50.799984
  0
LINE
  8
0
 10
339.750000
 20
73.499985
 11
339.750000
 21
54.499985
  0
LINE
  8
0
 10
335.750000
 20
50.799988
 11
321.750000
 21
50.799988
  0
LINE
  8
0
 10
335.750000
 20
77.199982
 11
321.750000
 21
77.199982
  0
LINE
  8
0
 62
     4
 10
189.395386
 20
70.499985
 11
189.395386
 21
57.499985
  0
LINE
  8
0
 62
     4
 10
194.395386
 20
70.499985
 11
194.395386
 21
57.499985
  0
LINE
  8
0
 62
     4
 10
194.395386
 20
70.500000
 11
189.395386
 21
70.500000
  0
LINE
  8
0
 62
     4
 10
194.395386
 20
57.500000
 11
189.395386
 21
57.500000
  0
LINE
  8
0
 62
     1
 10
200.750107
 20
67.199821
 11
201.616135
 21
67.699821
  0
LINE
  8
0
 62
     1
 10
189.395386
 20
60.799988
 11
182.750000
 21
60.799988
  0
LINE
  8
0
 62
     4
 10
202.749985
 20
62.480072
 11
204.008652
 21
60.299961
  0
LINE
  8
0
 62
     1
 10
200.750000
 20
60.799988
 11
194.395386
 21
60.799988
  0
LINE
  8
0
 62
     1
 10
200.750000
 20
60.799969
 11
201.616028
 21
60.299969
  0
LINE
  8
0
 62
     1
 10
200.750000
 20
67.199982
 11
194.395386
 21
67.199982
  0
LINE
  8
0
 62
     4
 10
189.395386
 20
62.480103
 11
183.250000
 21
62.480103
  0
LINE
  8
0
 62
     1
 10
189.395386
 20
67.199982
 11
182.750000
 21
67.199982
  0
LINE
  8
0
 62
     4
 10
189.395386
 20
60.299988
 11
183.250000
 21
60.299988
  0
LINE
  8
0
 62
     4
 10
189.395386
 20
65.519867
 11
183.250000
 21
65.519867
  0
LINE
  8
0
 62
     4
 10
189.395386
 20
67.699982
 11
183.250000
 21
67.699982
  0
LINE
  8
0
 62
     4
 10
182.750000
 20
67.199982
 11
182.750000
 21
60.799988
  0
LINE
  8
0
 62
     4
 10
203.750000
 20
67.699982
 11
194.395386
 21
67.699982
  0
LINE
  8
0
 62
     4
 10
203.750000
 20
60.299988
 11
194.395386
 21
60.299988
  0
LINE
  8
0
 62
     4
 10
182.750000
 20
60.800068
 11
183.250000
 21
60.300079
  0
LINE
  8
0
 62
     4
 10
182.750076
 20
67.199974
 11
183.250061
 21
67.699966
  0
LINE
  8
0
 62
     4
 10
183.250000
 20
60.299988
 11
183.250000
 21
62.480103
  0
LINE
  8
0
 62
     4
 10
200.750000
 20
67.699982
 11
200.750000
 21
65.519852
  0
LINE
  8
0
 62
     4
 10
202.750000
 20
67.699982
 11
202.750000
 21
65.519852
  0
LINE
  8
0
 62
     4
 10
202.750000
 20
65.519867
 11
194.395386
 21
65.519867
  0
LINE
  8
0
 62
     4
 10
202.750000
 20
62.480103
 11
194.395386
 21
62.480103
  0
LINE
  8
0
 62
     4
 10
183.250000
 20
65.519852
 11
183.250000
 21
67.699982
  0
LINE
  8
0
 62
     4
 10
183.250168
 20
65.519768
 11
182.750122
 21
65.019730
  0
LINE
  8
0
 62
     4
 10
183.250046
 20
62.480190
 11
182.750061
 21
62.980183
  0
LINE
  8
0
 62
     4
 10
202.750000
 20
62.480103
 11
202.750000
 21
60.299988
  0
LINE
  8
0
 62
     4
 10
200.750000
 20
62.480103
 11
200.750000
 21
60.299988
  0
LINE
  8
0
 62
     4
 10
202.749985
 20
65.519958
 11
204.008652
 21
67.700073
  0
LINE
  8
0
 62
     4
 10
193.814819
 20
64.000000
 11
189.975952
 21
64.000000
  0
LINE
  8
0
 10
237.250000
 20
119.000000
 11
230.250000
 21
119.000000
  0
LINE
  8
0
 10
237.750000
 20
118.500000
 11
229.750000
 21
118.500000
  0
LINE
  8
0
 10
230.249985
 20
118.999901
 11
229.749985
 21
118.499886
  0
LINE
  8
0
 10
237.249954
 20
119.000031
 11
237.749985
 21
118.500000
  0
LINE
  8
0
 10
211.750000
 20
86.000000
 11
203.750000
 21
86.000000
  0
LINE
  8
0
  6
CENTER
 62
     2
 10
212.750000
 20
49.000000
 11
202.750000
 21
49.000000
  0
LINE
  8
0
  6
CENTER
 62
     2
 10
212.750000
 20
79.000000
 11
202.750000
 21
79.000000
  0
LINE
  8
0
 10
203.750000
 20
86.000000
 11
203.750000
 21
42.000000
  0
LINE
  8
0
 10
211.750000
 20
42.000000
 11
203.750000
 21
42.000000
  0
LINE
  8
0
 10
203.750000
 20
80.999992
 11
211.750000
 21
80.999992
  0
LINE
  8
0
 10
203.750000
 20
47.000000
 11
211.750000
 21
47.000000
  0
LINE
  8
0
 62
     4
 10
230.949997
 20
86.999985
 11
230.949997
 21
94.999985
  0
LINE
  8
0
 62
     4
 10
246.750000
 20
92.499985
 11
246.250000
 21
92.499985
  0
LINE
  8
0
 62
     4
 10
246.750000
 20
89.499985
 11
246.250000
 21
89.499985
  0
LINE
  8
0
 62
     4
 10
246.250000
 20
93.999985
 11
231.750000
 21
93.999985
  0
LINE
  8
0
 62
     4
 10
246.250000
 20
87.999985
 11
231.750000
 21
87.999985
  0
LINE
  8
0
 62
     4
 10
255.750000
 20
94.999985
 11
230.949997
 21
94.999985
  0
LINE
  8
0
 62
     4
 10
255.750000
 20
86.999985
 11
230.949997
 21
86.999985
  0
LINE
  8
0
 62
     4
 10
255.750000
 20
86.999985
 11
255.750000
 21
94.999985
  0
LINE
  8
0
 62
     4
 10
247.750000
 20
86.999985
 11
247.750000
 21
94.999985
  0
LINE
  8
0
 62
     4
 10
246.250000
 20
87.999985
 11
246.250000
 21
93.999985
  0
LINE
  8
0
 62
     4
 10
246.750000
 20
89.499985
 11
246.750000
 21
92.499985
  0
LINE
  8
0
 62
     4
 10
231.750000
 20
87.999985
 11
231.750000
 21
93.999985
  0
LINE
  8
0
 62
     4
 10
241.689331
 20
89.939331
 11
243.810654
 21
92.060646
  0
LINE
  8
0
 62
     4
 10
243.810669
 20
89.939331
 11
241.689362
 21
92.060654
  0
LINE
  8
0
 62
     4
 10
231.750000
 20
99.499985
 11
231.750000
 21
94.999985
  0
LINE
  8
0
 62
     4
 10
234.883972
 20
100.999985
 11
232.616028
 21
100.999985
  0
LINE
  8
0
 62
     4
 10
235.750000
 20
78.999985
 11
231.750000
 21
78.999985
  0
LINE
  8
0
 62
     4
 10
231.749878
 20
99.500053
 11
232.615906
 21
101.000053
  0
LINE
  8
0
 62
     4
 10
235.750031
 20
99.500015
 11
234.884003
 21
101.000023
  0
LINE
  8
0
 62
     4
 10
235.750000
 20
99.499985
 11
235.750000
 21
94.999985
  0
LINE
  8
0
 62
     4
 10
235.250000
 20
77.999985
 11
232.250000
 21
77.999985
  0
LINE
  8
0
 62
     4
 10
235.750000
 20
99.499985
 11
231.750000
 21
99.499985
  0
LINE
  8
0
 62
     4
 10
232.250000
 20
77.999985
 11
232.250000
 21
72.999985
  0
LINE
  8
0
 62
     4
 10
235.250000
 20
77.999985
 11
235.250000
 21
72.999985
  0
LINE
  8
0
 62
     4
 10
235.750000
 20
78.999992
 11
235.250000
 21
77.999985
  0
LINE
  8
0
 62
     4
 10
231.749939
 20
78.999954
 11
232.249939
 21
77.999962
  0
LINE
  8
0
 62
     4
 10
235.750000
 20
86.999985
 11
235.750000
 21
78.999985
  0
LINE
  8
0
 62
     4
 10
231.750000
 20
86.999985
 11
231.750000
 21
78.999985
  0
LINE
  8
0
 62
     4
 10
230.949997
 20
40.999985
 11
230.949997
 21
32.999985
  0
LINE
  8
0
 62
     4
 10
246.750000
 20
35.499985
 11
246.250000
 21
35.499985
  0
LINE
  8
0
 62
     4
 10
246.750000
 20
38.499985
 11
246.250000
 21
38.499985
  0
LINE
  8
0
 62
     4
 10
246.250000
 20
33.999985
 11
231.750000
 21
33.999985
  0
LINE
  8
0
 62
     4
 10
246.250000
 20
39.999985
 11
231.750000
 21
39.999985
  0
LINE
  8
0
 62
     4
 10
255.750000
 20
32.999985
 11
230.949997
 21
32.999985
  0
LINE
  8
0
 62
     4
 10
255.750000
 20
40.999985
 11
230.949997
 21
40.999985
  0
LINE
  8
0
 62
     4
 10
255.750000
 20
40.999985
 11
255.750000
 21
32.999985
  0
LINE
  8
0
 62
     4
 10
247.750000
 20
40.999985
 11
247.750000
 21
32.999985
  0
LINE
  8
0
 62
     4
 10
246.250000
 20
39.999985
 11
246.250000
 21
33.999985
  0
LINE
  8
0
 62
     4
 10
246.750000
 20
38.499985
 11
246.750000
 21
35.499985
  0
LINE
  8
0
 62
     4
 10
231.750000
 20
39.999985
 11
231.750000
 21
33.999985
  0
LINE
  8
0
 62
     4
 10
241.689331
 20
38.060646
 11
243.810654
 21
35.939323
  0
LINE
  8
0
 62
     4
 10
243.810684
 20
38.060635
 11
241.689362
 21
35.939320
  0
LINE
  8
0
 62
     4
 10
231.750000
 20
28.499985
 11
231.750000
 21
32.999985
  0
LINE
  8
0
 62
     4
 10
234.883972
 20
26.999985
 11
232.616028
 21
26.999985
  0
LINE
  8
0
 62
     4
 10
235.750000
 20
48.999985
 11
231.750000
 21
48.999985
  0
LINE
  8
0
 62
     4
 10
231.749878
 20
28.499935
 11
232.615906
 21
26.999931
  0
LINE
  8
0
 62
     4
 10
235.750015
 20
28.499935
 11
234.883987
 21
26.999931
  0
LINE
  8
0
 62
     4
 10
235.750000
 20
28.499985
 11
235.750000
 21
32.999985
  0
LINE
  8
0
 62
     4
 10
235.250000
 20
49.999985
 11
232.250000
 21
49.999985
  0
LINE
  8
0
 62
     4
 10
235.750000
 20
28.499985
 11
231.750000
 21
28.499985
  0
LINE
  8
0
 62
     4
 10
232.250000
 20
49.999985
 11
232.250000
 21
54.999985
  0
LINE
  8
0
 62
     4
 10
235.250000
 20
49.999985
 11
235.250000
 21
54.999985
  0
LINE
  8
0
 62
     4
 10
235.749985
 20
48.999969
 11
235.249985
 21
49.999977
  0
LINE
  8
0
 62
     4
 10
231.749969
 20
49.000000
 11
232.249969
 21
49.999977
  0
LINE
  8
0
 62
     4
 10
235.750000
 20
40.999985
 11
235.750000
 21
48.999985
  0
LINE
  8
0
 62
     4
 10
231.750000
 20
40.999985
 11
231.750000
 21
48.999985
  0
LINE
  8
0
 62
     4
 10
291.149994
 20
89.319046
 11
296.350006
 21
89.319046
  0
LINE
  8
0
 62
     4
 10
291.950012
 20
91.319046
 11
293.450012
 21
91.319046
  0
LINE
  8
0
 62
     4
 10
296.350006
 20
90.519043
 11
296.350006
 21
89.319046
  0
LINE
  8
0
 62
     4
 10
291.149994
 20
90.519043
 11
291.149994
 21
89.319046
  0
LINE
  8
0
 62
     4
 10
293.450012
 20
90.319046
 11
293.450012
 21
91.319046
  0
LINE
  8
0
 62
     4
 10
294.049988
 20
90.319046
 11
294.049988
 21
91.319046
  0
LINE
  8
0
 62
     4
 10
293.450012
 20
90.319046
 11
294.049988
 21
90.319046
  0
LINE
  8
0
 62
     4
 10
294.049988
 20
91.319046
 11
295.549988
 21
91.319046
  0
LINE
  8
0
 62
     4
 10
282.750000
 20
84.019043
 11
288.750000
 21
84.019043
  0
LINE
  8
0
 62
     4
 10
304.750000
 20
84.019043
 11
304.750000
 21
77.199997
  0
LINE
  8
0
 62
     4
 10
282.750000
 20
84.019043
 11
282.750000
 21
77.199997
  0
LINE
  8
0
 62
     4
 10
282.750000
 20
77.519043
 11
289.750000
 21
77.519043
  0
LINE
  8
0
 62
     4
 10
284.250000
 20
84.019043
 11
284.250000
 21
84.519043
  0
LINE
  8
0
 62
     4
 10
288.250000
 20
84.019043
 11
288.250000
 21
84.519043
  0
LINE
  8
0
 62
     4
 10
284.250000
 20
84.519043
 11
288.250000
 21
84.519043
  0
LINE
  8
0
 62
     4
 10
288.207794
 20
84.592163
 11
288.250031
 21
84.519035
  0
LINE
  8
0
 62
     4
 10
284.292206
 20
84.592178
 11
284.249969
 21
84.519043
  0
LINE
  8
0
 62
     4
 10
304.750000
 20
83.019043
 11
306.750000
 21
83.019043
  0
LINE
  8
0
 62
     4
 10
304.750000
 20
78.019043
 11
306.750000
 21
78.019043
  0
LINE
  8
0
 62
     4
 10
306.750000
 20
83.019043
 11
306.750000
 21
78.019043
  0
LINE
  8
0
 62
     4
 10
295.250000
 20
89.319046
 11
295.250000
 21
87.333542
  0
LINE
  8
0
 62
     4
 10
292.250000
 20
89.319046
 11
292.250000
 21
87.333542
  0
LINE
  8
0
 62
     1
 10
292.500000
 20
89.319046
 11
292.500000
 21
87.333542
  0
LINE
  8
0
 62
     1
 10
295.000000
 20
89.319046
 11
295.000000
 21
87.333542
  0
LINE
  8
0
 62
     4
 10
289.250000
 20
81.333542
 11
298.250000
 21
81.333542
  0
LINE
  8
0
 62
     4
 10
291.750000
 20
84.833542
 11
295.750000
 21
84.833542
  0
LINE
  8
0
 62
     4
 10
291.500000
 20
87.333542
 11
296.000000
 21
87.333542
  0
LINE
  8
0
 62
     4
 10
288.750000
 20
88.333542
 11
291.500000
 21
88.333542
  0
LINE
  8
0
 62
     4
 10
288.750000
 20
81.833542
 11
288.750000
 21
88.333542
  0
LINE
  8
0
 62
     4
 10
298.750000
 20
81.833542
 11
298.750000
 21
88.333542
  0
LINE
  8
0
 62
     4
 10
291.750000
 20
87.333542
 11
291.750000
 21
84.833542
  0
LINE
  8
0
 62
     4
 10
295.750000
 20
87.333542
 11
295.750000
 21
84.833542
  0
LINE
  8
0
 62
     4
 10
291.500000
 20
88.333542
 11
291.500000
 21
86.719040
  0
LINE
  8
0
 62
     4
 10
296.000000
 20
88.333542
 11
296.000000
 21
86.719040
  0
LINE
  8
0
 62
     4
 10
296.000000
 20
88.333542
 11
298.750000
 21
88.333542
  0
LINE
  8
0
 62
     4
 10
291.323273
 20
86.333542
 11
291.750000
 21
86.333542
  0
LINE
  8
0
 62
     4
 10
295.750000
 20
86.333542
 11
296.176727
 21
86.333542
  0
LINE
  8
0
 62
     4
 10
298.750000
 20
84.019043
 11
304.750000
 21
84.019043
  0
LINE
  8
0
 62
     4
 10
289.750000
 20
50.650208
 11
297.750000
 21
50.650208
  0
LINE
  8
0
 62
     4
 10
289.750000
 20
81.333542
 11
289.750000
 21
50.650208
  0
LINE
  8
0
 62
     4
 10
297.750000
 20
81.333542
 11
297.750000
 21
50.650208
  0
LINE
  8
0
 62
     4
 10
297.750000
 20
77.519043
 11
304.750000
 21
77.519043
  0
LINE
  8
0
 62
     4
 10
306.750000
 20
82.219040
 11
311.750000
 21
82.219040
  0
LINE
  8
0
 62
     4
 10
306.750000
 20
78.819046
 11
311.750000
 21
78.819046
  0
LINE
  8
0
 62
     4
 10
320.350006
 20
38.680954
 11
315.149994
 21
38.680954
  0
LINE
  8
0
 62
     4
 10
319.549988
 20
36.680954
 11
318.049988
 21
36.680954
  0
LINE
  8
0
 62
     4
 10
315.149994
 20
37.480957
 11
315.149994
 21
38.680954
  0
LINE
  8
0
 62
     4
 10
320.350006
 20
37.480957
 11
320.350006
 21
38.680954
  0
LINE
  8
0
 62
     4
 10
318.049988
 20
37.680954
 11
318.049988
 21
36.680954
  0
LINE
  8
0
 62
     4
 10
317.450012
 20
37.680954
 11
317.450012
 21
36.680954
  0
LINE
  8
0
 62
     4
 10
318.049988
 20
37.680954
 11
317.450012
 21
37.680954
  0
LINE
  8
0
 62
     4
 10
317.450012
 20
36.680954
 11
315.950012
 21
36.680954
  0
LINE
  8
0
 62
     4
 10
328.750000
 20
43.980957
 11
322.750000
 21
43.980957
  0
LINE
  8
0
 62
     4
 10
306.750000
 20
43.980957
 11
306.750000
 21
50.800003
  0
LINE
  8
0
 62
     4
 10
328.750000
 20
43.980957
 11
328.750000
 21
50.800003
  0
LINE
  8
0
 62
     4
 10
328.750000
 20
50.480957
 11
321.750000
 21
50.480957
  0
LINE
  8
0
 62
     4
 10
327.250000
 20
43.980957
 11
327.250000
 21
43.480957
  0
LINE
  8
0
 62
     4
 10
323.250000
 20
43.980957
 11
323.250000
 21
43.480957
  0
LINE
  8
0
 62
     4
 10
327.250000
 20
43.480957
 11
323.250000
 21
43.480957
  0
LINE
  8
0
 62
     4
 10
323.292236
 20
43.407860
 11
323.250000
 21
43.480976
  0
LINE
  8
0
 62
     4
 10
327.207672
 20
43.407848
 11
327.249908
 21
43.480980
  0
LINE
  8
0
 62
     4
 10
306.750000
 20
44.980957
 11
304.750000
 21
44.980957
  0
LINE
  8
0
 62
     4
 10
306.750000
 20
49.980957
 11
304.750000
 21
49.980957
  0
LINE
  8
0
 62
     4
 10
304.750000
 20
44.980957
 11
304.750000
 21
49.980957
  0
LINE
  8
0
 62
     4
 10
316.250000
 20
38.680954
 11
316.250000
 21
39.666458
  0
LINE
  8
0
 62
     4
 10
319.250000
 20
38.680954
 11
319.250000
 21
39.666458
  0
LINE
  8
0
 62
     1
 10
319.000000
 20
38.680954
 11
319.000000
 21
39.666458
  0
LINE
  8
0
 62
     1
 10
316.500000
 20
38.680954
 11
316.500000
 21
39.666458
  0
LINE
  8
0
 62
     4
 10
322.250000
 20
46.666458
 11
313.250000
 21
46.666458
  0
LINE
  8
0
 62
     4
 10
322.750000
 20
46.166458
 11
322.750000
 21
39.666458
  0
LINE
  8
0
 62
     4
 10
312.750000
 20
46.166458
 11
312.750000
 21
39.666458
  0
LINE
  8
0
 62
     4
 10
322.750000
 20
39.666458
 11
312.750000
 21
39.666458
  0
LINE
  8
0
 62
     4
 10
312.750000
 20
43.980957
 11
306.750000
 21
43.980957
  0
LINE
  8
0
 62
     4
 10
321.750000
 20
77.349792
 11
313.750000
 21
77.349792
  0
LINE
  8
0
 62
     4
 10
321.750000
 20
46.666458
 11
321.750000
 21
77.349792
  0
LINE
  8
0
 62
     4
 10
313.750000
 20
46.666458
 11
313.750000
 21
77.349792
  0
LINE
  8
0
 62
     4
 10
313.750000
 20
50.480957
 11
306.750000
 21
50.480957
  0
LINE
  8
0
 62
     4
 10
304.750000
 20
45.780960
 11
299.750000
 21
45.780960
  0
LINE
  8
0
 62
     4
 10
304.750000
 20
49.180954
 11
299.750000
 21
49.180954
  0
LINE
  8
0
 10
289.750000
 20
50.799988
 11
268.750000
 21
50.799988
  0
LINE
  8
0
 10
313.750000
 20
50.799988
 11
297.750000
 21
50.799988
  0
LINE
  8
0
 10
289.750000
 20
77.199982
 11
268.750000
 21
77.199982
  0
LINE
  8
0
 10
313.750000
 20
77.199982
 11
297.750000
 21
77.199982
  0
LINE
  8
0
 10
86.583374
 20
111.000000
 11
73.583374
 21
111.000000
  0
LINE
  8
0
 10
86.583374
 20
116.000000
 11
73.583374
 21
116.000000
  0
LINE
  8
0
 10
86.583374
 20
116.000000
 11
86.583374
 21
110.999985
  0
LINE
  8
0
 10
73.583374
 20
116.000000
 11
73.583374
 21
110.999985
  0
LINE
  8
0
 10
84.083374
 20
118.500000
 11
84.083374
 21
116.000000
  0
LINE
  8
0
 10
76.083374
 20
118.500000
 11
76.083374
 21
116.000000
  0
LINE
  8
0
 62
     2
 10
83.458374
 20
119.000000
 11
83.458374
 21
116.000000
  0
LINE
  8
0
 62
     2
 10
76.708374
 20
119.000000
 11
76.708374
 21
116.000000
  0
LINE
  8
0
 10
86.583374
 20
17.000000
 11
73.583374
 21
17.000000
  0
LINE
  8
0
 10
86.583374
 20
12.000000
 11
73.583374
 21
12.000000
  0
LINE
  8
0
 10
86.583374
 20
11.999985
 11
86.583374
 21
16.999985
  0
LINE
  8
0
 10
73.583374
 20
11.999985
 11
73.583374
 21
16.999985
  0
LINE
  8
0
 10
83.583374
 20
9.000000
 11
76.583374
 21
9.000000
  0
LINE
  8
0
 10
84.083374
 20
9.499989
 11
84.083374
 21
11.999985
  0
LINE
  8
0
 10
76.083374
 20
9.499985
 11
76.083374
 21
11.999985
  0
LINE
  8
0
 10
83.583374
 20
8.999870
 11
84.083405
 21
9.499908
  0
LINE
  8
0
 10
76.083504
 20
9.500028
 11
76.583534
 21
8.999990
  0
LINE
  8
0
 62
     2
 10
83.458374
 20
8.999985
 11
83.458374
 21
11.999985
  0
LINE
  8
0
 62
     2
 10
76.708374
 20
8.999985
 11
76.708374
 21
11.999985
  0
LINE
  8
0
 10
84.083374
 20
9.500000
 11
76.083374
 21
9.500000
  0
LINE
  8
0
 10
90.083374
 20
101.999985
 11
90.083374
 21
85.000000
  0
LINE
  8
0
 10
46.083374
 20
101.999985
 11
46.083374
 21
85.000000
  0
LINE
  8
0
 10
90.083374
 20
102.000000
 11
46.083374
 21
102.000000
  0
LINE
  8
0
 10
90.083374
 20
26.000000
 11
46.083374
 21
26.000000
  0
LINE
  8
0
 10
80.283386
 20
22.399986
 11
80.283386
 21
23.399986
  0
LINE
  8
0
 10
89.783386
 20
103.199982
 11
46.383362
 21
103.199982
  0
LINE
  8
0
 10
88.817749
 20
109.000000
 11
47.348999
 21
109.000000
  0
LINE
  8
0
 10
46.383362
 20
103.199982
 11
46.383362
 21
101.999985
  0
LINE
  8
0
 10
89.783386
 20
103.199982
 11
89.783386
 21
101.999985
  0
LINE
  8
0
 10
89.783142
 20
103.199951
 11
89.315613
 21
108.543556
  0
LINE
  8
0
 10
46.383121
 20
103.200035
 11
46.850651
 21
108.543617
  0
LINE
  8
0
 10
79.381882
 20
105.056396
 11
79.076767
 21
108.543556
  0
LINE
  8
0
 10
56.784615
 20
105.056419
 11
57.089668
 21
108.543587
  0
LINE
  8
0
 10
89.660889
 20
104.599976
 11
79.880127
 21
104.599976
  0
LINE
  8
0
 10
56.286621
 20
104.599976
 11
46.505859
 21
104.599976
  0
LINE
  8
0
 10
55.883362
 20
105.599976
 11
48.283386
 21
105.599976
  0
LINE
  8
0
 10
55.883362
 20
105.599991
 11
55.883362
 21
104.599991
  0
LINE
  8
0
 10
48.283386
 20
105.599991
 11
48.283386
 21
104.599991
  0
LINE
  8
0
 10
87.883362
 20
105.599976
 11
80.283386
 21
105.599976
  0
LINE
  8
0
 10
87.883362
 20
105.599991
 11
87.883362
 21
104.599991
  0
LINE
  8
0
 10
80.283386
 20
105.599991
 11
80.283386
 21
104.599991
  0
LINE
  8
0
 10
89.783386
 20
24.799988
 11
46.383362
 21
24.799988
  0
LINE
  8
0
 10
88.817749
 20
19.000000
 11
47.348999
 21
19.000000
  0
LINE
  8
0
 10
46.383362
 20
24.799984
 11
46.383362
 21
25.999985
  0
LINE
  8
0
 10
89.783386
 20
24.799984
 11
89.783386
 21
25.999985
  0
LINE
  8
0
 10
89.783142
 20
24.800011
 11
89.315613
 21
19.456434
  0
LINE
  8
0
 10
46.383541
 20
24.799974
 11
46.851070
 21
19.456413
  0
LINE
  8
0
 10
79.382133
 20
22.943548
 11
79.077019
 21
19.456387
  0
LINE
  8
0
 10
56.784721
 20
22.943554
 11
57.089836
 21
19.456396
  0
LINE
  8
0
 10
89.660889
 20
23.399994
 11
79.880127
 21
23.399994
  0
LINE
  8
0
 10
56.286621
 20
23.399994
 11
46.505859
 21
23.399994
  0
LINE
  8
0
 10
55.883362
 20
22.399994
 11
48.283386
 21
22.399994
  0
LINE
  8
0
 10
55.883362
 20
22.399986
 11
55.883362
 21
23.399986
  0
LINE
  8
0
 10
48.283386
 20
22.399986
 11
48.283386
 21
23.399986
  0
LINE
  8
0
 10
87.883362
 20
22.399994
 11
80.283386
 21
22.399994
  0
LINE
  8
0
 10
87.883362
 20
22.399986
 11
87.883362
 21
23.399986
  0
LINE
  8
0
 10
83.583374
 20
119.000000
 11
76.583374
 21
119.000000
  0
LINE
  8
0
 10
83.583328
 20
119.000023
 11
84.083359
 21
118.499992
  0
LINE
  8
0
 10
76.583351
 20
118.999886
 11
76.083336
 21
118.499870
  0
LINE
  8
0
 10
84.083374
 20
118.500000
 11
76.083374
 21
118.500000
  0
LINE
  8
0
 10
80.083374
 20
16.419426
 11
80.083374
 21
12.580544
  0
LINE
  8
0
 10
80.083374
 20
111.580551
 11
80.083374
 21
115.419434
  0
LINE
  8
0
 10
90.083374
 20
43.000000
 11
90.083374
 21
25.999985
  0
LINE
  8
0
 10
46.083374
 20
43.000000
 11
46.083374
 21
25.999985
  0
LINE
  8
0
 62
     4
 10
71.783386
 20
65.519852
 11
71.783386
 21
62.480103
  0
LINE
  8
0
 62
     4
 10
64.383362
 20
65.519852
 11
64.383362
 21
62.480103
  0
LINE
  8
0
 62
     4
 10
69.603271
 20
67.699982
 11
66.563477
 21
67.699982
  0
LINE
  8
0
 62
     4
 10
69.603271
 20
60.299988
 11
66.563477
 21
60.299988
  0
LINE
  8
0
  6
CENTER
 62
     2
 10
110.968948
 20
64.000000
 11
26.218010
 21
64.000000
  0
LINE
  8
0
  6
CENTER
 62
     2
 10
68.083374
 20
113.999985
 11
68.083374
 21
13.999985
  0
LINE
  8
0
 62
     4
 10
64.330467
 20
57.499870
 11
60.577732
 21
63.999828
  0
LINE
  8
0
 62
     4
 10
60.577827
 20
63.999912
 11
64.330627
 21
70.499893
  0
LINE
  8
0
 62
     4
 10
64.330566
 20
70.500061
 11
71.836121
 21
70.500061
  0
LINE
  8
0
 62
     4
 10
71.836044
 20
70.499870
 11
75.588776
 21
63.999916
  0
LINE
  8
0
 62
     4
 10
75.588707
 20
64.000130
 11
71.835953
 21
57.500149
  0
LINE
  8
0
 62
     4
 10
71.836182
 20
57.500031
 11
64.330627
 21
57.500031
  0
LINE
  8
0
 10
101.583374
 20
85.000000
 11
34.583374
 21
85.000000
  0
LINE
  8
0
 10
101.583321
 20
84.999947
 11
105.583321
 21
80.999939
  0
LINE
  8
0
 10
105.583374
 20
80.999992
 11
105.583374
 21
47.000000
  0
LINE
  8
0
 10
105.583366
 20
46.999996
 11
101.583366
 21
42.999996
  0
LINE
  8
0
 10
101.583374
 20
43.000000
 11
34.583374
 21
43.000000
  0
LINE
  8
0
 10
30.583382
 20
47.000004
 11
34.583378
 21
43.000004
  0
LINE
  8
0
 10
30.583374
 20
81.000000
 11
30.583374
 21
47.000000
  0
LINE
  8
0
 10
30.583368
 20
81.000008
 11
34.583366
 21
85.000008
  0
LINE
  8
0
  6
CENTER
 62
     2
 10
33.083374
 20
79.000000
 11
43.083374
 21
79.000000
  0
LINE
  8
0
  6
CENTER
 62
     2
 10
38.083374
 20
84.000000
 11
38.083374
 21
74.000000
  0
LINE
  8
0
  6
CENTER
 62
     2
 10
98.083374
 20
84.000000
 11
98.083374
 21
74.000000
  0
LINE
  8
0
  6
CENTER
 62
     2
 10
38.083374
 20
44.000000
 11
38.083374
 21
54.000000
  0
LINE
  8
0
  6
CENTER
 62
     2
 10
33.083374
 20
49.000000
 11
43.083374
 21
49.000000
  0
LINE
  8
0
  6
CENTER
 62
     2
 10
98.083374
 20
44.000000
 11
98.083374
 21
54.000000
  0
LINE
  8
0
  6
CENTER
 62
     2
 10
103.083374
 20
79.000000
 11
93.083374
 21
79.000000
  0
LINE
  8
0
  6
CENTER
 62
     2
 10
103.083374
 20
49.000000
 11
93.083374
 21
49.000000
  0
LINE
  8
0
 62
     4
 10
90.583374
 20
94.999985
 11
96.083374
 21
94.999985
  0
LINE
  8
0
 62
     4
 10
90.583374
 20
86.999985
 11
96.083374
 21
86.999985
  0
LINE
  8
0
 62
     4
 10
90.583374
 20
94.999985
 11
90.583374
 21
86.999985
  0
LINE
  8
0
 62
     4
 10
96.083374
 20
94.999985
 11
96.083374
 21
86.999985
  0
LINE
  8
0
 62
     4
 10
97.055199
 20
93.799980
 11
96.083374
 21
93.799980
  0
LINE
  8
0
 62
     4
 10
97.055199
 20
88.199982
 11
96.083374
 21
88.199982
  0
LINE
  8
0
 62
     4
 10
93.217346
 20
100.999985
 11
90.949402
 21
100.999985
  0
LINE
  8
0
 62
     4
 10
90.083252
 20
99.500023
 11
90.949287
 21
101.000031
  0
LINE
  8
0
 62
     4
 10
94.083420
 20
99.500031
 11
93.217392
 21
101.000031
  0
LINE
  8
0
 62
     4
 10
94.083382
 20
99.499985
 11
94.083382
 21
94.999985
  0
LINE
  8
0
 62
     4
 10
94.083374
 20
99.499985
 11
90.083374
 21
99.499985
  0
LINE
  8
0
 62
     4
 10
94.083382
 20
86.999985
 11
94.083382
 21
85.000000
  0
LINE
  8
0
 62
     4
 10
90.583374
 20
32.999985
 11
96.083374
 21
32.999985
  0
LINE
  8
0
 62
     4
 10
90.583374
 20
40.999985
 11
96.083374
 21
40.999985
  0
LINE
  8
0
 62
     4
 10
90.583374
 20
32.999985
 11
90.583374
 21
40.999985
  0
LINE
  8
0
 62
     4
 10
96.083374
 20
32.999985
 11
96.083374
 21
40.999985
  0
LINE
  8
0
 62
     4
 10
97.055199
 20
34.199986
 11
96.083374
 21
34.199986
  0
LINE
  8
0
 62
     4
 10
97.055199
 20
39.799984
 11
96.083374
 21
39.799984
  0
LINE
  8
0
 62
     4
 10
93.217346
 20
26.999985
 11
90.949402
 21
26.999985
  0
LINE
  8
0
 62
     4
 10
90.083267
 20
28.499937
 11
90.949295
 21
26.999933
  0
LINE
  8
0
 62
     4
 10
94.083420
 20
28.499943
 11
93.217392
 21
26.999939
  0
LINE
  8
0
 62
     4
 10
94.083382
 20
28.499985
 11
94.083382
 21
32.999985
  0
LINE
  8
0
 62
     4
 10
94.083374
 20
28.499985
 11
90.083374
 21
28.499985
  0
LINE
  8
0
 62
     4
 10
94.083382
 20
40.999985
 11
94.083382
 21
43.000000
  0
LINE
  8
0
 10
476.416626
 20
101.999985
 11
476.416626
 21
25.999985
  0
LINE
  8
0
 10
432.416626
 20
101.999985
 11
432.416626
 21
94.999985
  0
LINE
  8
0
 10
476.416626
 20
102.000000
 11
432.416626
 21
102.000000
  0
LINE
  8
0
 10
476.416626
 20
26.000000
 11
432.416626
 21
26.000000
  0
LINE
  8
0
  6
CENTER
 62
     2
 10
498.503479
 20
64.000000
 11
410.197296
 21
64.000000
  0
LINE
  8
0
  6
CENTER
 62
     2
 10
453.416626
 20
32.500000
 11
439.416626
 21
32.500000
  0
LINE
  8
0
  6
CENTER
 62
     2
 10
453.416626
 20
95.500000
 11
439.416626
 21
95.500000
  0
LINE
  8
0
  6
CENTER
 62
     2
 10
446.416626
 20
39.499985
 11
446.416626
 21
25.499985
  0
LINE
  8
0
  6
CENTER
 62
     2
 10
446.416626
 20
102.499985
 11
446.416626
 21
88.499985
  0
LINE
  8
0
 10
432.716614
 20
24.799988
 11
476.116638
 21
24.799988
  0
LINE
  8
0
 10
433.682251
 20
19.000000
 11
475.151031
 21
19.000000
  0
LINE
  8
0
 10
476.116638
 20
24.799984
 11
476.116638
 21
25.999985
  0
LINE
  8
0
 10
432.716614
 20
24.799984
 11
432.716614
 21
25.999985
  0
LINE
  8
0
 10
432.716736
 20
24.799980
 11
433.184265
 21
19.456400
  0
LINE
  8
0
 10
476.116364
 20
24.799994
 11
475.648865
 21
19.456417
  0
LINE
  8
0
 10
443.117889
 20
22.943537
 11
443.422943
 21
19.456373
  0
LINE
  8
0
 10
465.715271
 20
22.943567
 11
465.410156
 21
19.456398
  0
LINE
  8
0
 10
432.839111
 20
23.399994
 11
442.619873
 21
23.399994
  0
LINE
  8
0
 10
466.213348
 20
23.399994
 11
475.994141
 21
23.399994
  0
LINE
  8
0
 10
466.616638
 20
22.399994
 11
474.216614
 21
22.399994
  0
LINE
  8
0
 10
466.616638
 20
22.399986
 11
466.616638
 21
23.399986
  0
LINE
  8
0
 10
474.216614
 20
22.399986
 11
474.216614
 21
23.399986
  0
LINE
  8
0
 10
434.616638
 20
22.399994
 11
442.216614
 21
22.399994
  0
LINE
  8
0
 10
434.616638
 20
22.399986
 11
434.616638
 21
23.399986
  0
LINE
  8
0
 10
442.216614
 20
22.399986
 11
442.216614
 21
23.399986
  0
LINE
  8
0
 10
435.916626
 20
17.000000
 11
448.916626
 21
17.000000
  0
LINE
  8
0
 10
435.916626
 20
12.000000
 11
448.916626
 21
12.000000
  0
LINE
  8
0
 10
435.916626
 20
11.999985
 11
435.916626
 21
16.999985
  0
LINE
  8
0
 10
448.916626
 20
11.999985
 11
448.916626
 21
16.999985
  0
LINE
  8
0
 10
438.916626
 20
9.000000
 11
445.916626
 21
9.000000
  0
LINE
  8
0
 10
438.416626
 20
9.499989
 11
438.416626
 21
11.999985
  0
LINE
  8
0
 10
446.416626
 20
9.499985
 11
446.416626
 21
11.999985
  0
LINE
  8
0
 10
438.916687
 20
8.999989
 11
438.416656
 21
9.500023
  0
LINE
  8
0
 10
446.416595
 20
9.499962
 11
445.916656
 21
8.999969
  0
LINE
  8
0
 62
     2
 10
439.041626
 20
8.999985
 11
439.041626
 21
11.999985
  0
LINE
  8
0
 62
     2
 10
445.791626
 20
8.999985
 11
445.791626
 21
11.999985
  0
LINE
  8
0
 10
438.416626
 20
9.500000
 11
446.416626
 21
9.500000
  0
LINE
  8
0
 10
432.716614
 20
103.199982
 11
476.116638
 21
103.199982
  0
LINE
  8
0
 10
433.682159
 20
109.000000
 11
475.150848
 21
109.000000
  0
LINE
  8
0
 10
476.116638
 20
103.199982
 11
476.116638
 21
101.999985
  0
LINE
  8
0
 10
432.716614
 20
103.199982
 11
432.716614
 21
101.999985
  0
LINE
  8
0
 10
432.716614
 20
103.200005
 11
433.184143
 21
108.543587
  0
LINE
  8
0
 10
476.116333
 20
103.199921
 11
475.648834
 21
108.543571
  0
LINE
  8
0
 10
443.117981
 20
105.056389
 11
443.423096
 21
108.543587
  0
LINE
  8
0
 10
465.715393
 20
105.056396
 11
465.410278
 21
108.543587
  0
LINE
  8
0
 10
432.839111
 20
104.599976
 11
442.619812
 21
104.599976
  0
LINE
  8
0
 10
466.213501
 20
104.599976
 11
475.994141
 21
104.599976
  0
LINE
  8
0
 10
466.616638
 20
105.599976
 11
474.216614
 21
105.599976
  0
LINE
  8
0
 10
466.616638
 20
105.599991
 11
466.616638
 21
104.599991
  0
LINE
  8
0
 10
474.216614
 20
105.599991
 11
474.216614
 21
104.599991
  0
LINE
  8
0
 10
434.616638
 20
105.599976
 11
442.216614
 21
105.599976
  0
LINE
  8
0
 10
434.616638
 20
105.599991
 11
434.616638
 21
104.599991
  0
LINE
  8
0
 10
442.216614
 20
105.599991
 11
442.216614
 21
104.599991
  0
LINE
  8
0
 10
435.916626
 20
111.000000
 11
448.916626
 21
111.000000
  0
LINE
  8
0
 10
435.916626
 20
116.000000
 11
448.916626
 21
116.000000
  0
LINE
  8
0
 10
435.916626
 20
116.000000
 11
435.916626
 21
110.999985
  0
LINE
  8
0
 10
448.916626
 20
116.000000
 11
448.916626
 21
110.999985
  0
LINE
  8
0
 10
438.916626
 20
119.000000
 11
445.916626
 21
119.000000
  0
LINE
  8
0
 10
438.416626
 20
118.500000
 11
438.416626
 21
116.000000
  0
LINE
  8
0
 10
446.416626
 20
118.500000
 11
446.416626
 21
116.000000
  0
LINE
  8
0
 10
438.916626
 20
118.999969
 11
438.416626
 21
118.499954
  0
LINE
  8
0
 10
446.416626
 20
118.499886
 11
445.916595
 21
118.999924
  0
LINE
  8
0
 62
     2
 10
439.041626
 20
119.000000
 11
439.041626
 21
116.000000
  0
LINE
  8
0
 62
     2
 10
445.791626
 20
119.000000
 11
445.791626
 21
116.000000
  0
LINE
  8
0
 10
438.416626
 20
118.500000
 11
446.416626
 21
118.500000
  0
LINE
  8
0
 10
435.416626
 20
76.051956
 11
435.416626
 21
51.948013
  0
LINE
  8
0
 10
473.416626
 20
76.051956
 11
473.416626
 21
51.948013
  0
LINE
  8
0
 10
468.416687
 20
75.634048
 11
466.916687
 21
74.768021
  0
LINE
  8
0
 10
466.916870
 20
74.768204
 11
465.416870
 21
75.634232
  0
LINE
  8
0
 10
465.416626
 20
75.633957
 11
465.416626
 21
77.366013
  0
LINE
  8
0
 10
465.416565
 20
77.366066
 11
466.916565
 21
78.232101
  0
LINE
  8
0
 10
466.916809
 20
78.232407
 11
468.416809
 21
77.366379
  0
LINE
  8
0
 10
468.416656
 20
77.366013
 11
468.416656
 21
75.633957
  0
LINE
  8
0
 10
468.416626
 20
52.366013
 11
468.416626
 21
50.633961
  0
LINE
  8
0
 10
466.916931
 20
53.232330
 11
468.416901
 21
52.366314
  0
LINE
  8
0
 10
465.416687
 20
52.366039
 11
466.916687
 21
53.232067
  0
LINE
  8
0
 10
465.416626
 20
50.633961
 11
465.416626
 21
52.366013
  0
LINE
  8
0
 10
466.916809
 20
49.768177
 11
465.416809
 21
50.634205
  0
LINE
  8
0
 10
468.416687
 20
50.634022
 11
466.916687
 21
49.767990
  0
LINE
  8
0
 10
443.416626
 20
52.366013
 11
443.416626
 21
50.633953
  0
LINE
  8
0
 10
441.916687
 20
53.232048
 11
443.416748
 21
52.366013
  0
LINE
  8
0
 10
440.416626
 20
52.366032
 11
441.916626
 21
53.232059
  0
LINE
  8
0
 10
440.416626
 20
50.633961
 11
440.416626
 21
52.366013
  0
LINE
  8
0
 10
441.916809
 20
49.768139
 11
440.416809
 21
50.634167
  0
LINE
  8
0
 10
443.416718
 20
50.634060
 11
441.916718
 21
49.768032
  0
LINE
  8
0
 10
443.416626
 20
77.366013
 11
443.416626
 21
75.633957
  0
LINE
  8
0
 10
441.916931
 20
78.232330
 11
443.416931
 21
77.366302
  0
LINE
  8
0
 10
440.416626
 20
77.366119
 11
441.916656
 21
78.232147
  0
LINE
  8
0
 10
440.416626
 20
75.633957
 11
440.416626
 21
77.366013
  0
LINE
  8
0
 10
441.916779
 20
74.768211
 11
440.416779
 21
75.634239
  0
LINE
  8
0
 10
443.416626
 20
75.634064
 11
441.916626
 21
74.768028
  0
LINE
  8
0
  6
CENTER
 62
     2
 10
454.416626
 20
113.999985
 11
454.416626
 21
13.999985
  0
LINE
  8
0
 10
442.416626
 20
16.419426
 11
442.416626
 21
12.580544
  0
LINE
  8
0
 10
442.416626
 20
111.580551
 11
442.416626
 21
115.419434
  0
LINE
  8
0
 10
463.581238
 20
73.500000
 11
445.252014
 21
73.500000
  0
LINE
  8
0
 10
463.581238
 20
54.500000
 11
445.252014
 21
54.500000
  0
LINE
  8
0
 10
487.916626
 20
85.000000
 11
476.416626
 21
85.000000
  0
LINE
  8
0
 10
487.916626
 20
43.000000
 11
476.416626
 21
43.000000
  0
LINE
  8
0
 10
491.916626
 20
80.999992
 11
491.916626
 21
47.000000
  0
LINE
  8
0
 10
416.916626
 20
81.000000
 11
416.916626
 21
47.000000
  0
LINE
  8
0
 10
487.916473
 20
84.999870
 11
491.916473
 21
80.999863
  0
LINE
  8
0
 10
491.916565
 20
47.000008
 11
487.916565
 21
43.000004
  0
LINE
  8
0
 10
416.916626
 20
47.000031
 11
420.916626
 21
43.000023
  0
LINE
  8
0
 10
416.916687
 20
81.000008
 11
420.916656
 21
84.999985
  0
LINE
  8
0
 10
428.416626
 20
85.000000
 11
420.916626
 21
85.000000
  0
LINE
  8
0
 10
428.416626
 20
43.000000
 11
420.916626
 21
43.000000
  0
LINE
  8
0
  6
CENTER
 62
     2
 10
424.416626
 20
86.500000
 11
424.416626
 21
71.500000
  0
LINE
  8
0
  6
CENTER
 62
     2
 10
416.916626
 20
79.000000
 11
431.916626
 21
79.000000
  0
LINE
  8
0
  6
CENTER
 62
     2
 10
484.416626
 20
86.500000
 11
484.416626
 21
71.500000
  0
LINE
  8
0
  6
CENTER
 62
     2
 10
491.916626
 20
79.000000
 11
476.916626
 21
79.000000
  0
LINE
  8
0
  6
CENTER
 62
     2
 10
424.416626
 20
41.500000
 11
424.416626
 21
56.500000
  0
LINE
  8
0
  6
CENTER
 62
     2
 10
416.916626
 20
49.000000
 11
431.916626
 21
49.000000
  0
LINE
  8
0
  6
CENTER
 62
     2
 10
484.416626
 20
41.500000
 11
484.416626
 21
56.500000
  0
LINE
  8
0
  6
CENTER
 62
     2
 10
491.916626
 20
49.000000
 11
476.916626
 21
49.000000
  0
LINE
  8
0
 62
     4
 10
425.444794
 20
88.199982
 11
426.416626
 21
88.199982
  0
LINE
  8
0
 62
     4
 10
425.444794
 20
93.799980
 11
426.416626
 21
93.799980
  0
LINE
  8
0
 62
     4
 10
433.416626
 20
94.999985
 11
433.416626
 21
86.999985
  0
LINE
  8
0
 62
     4
 10
426.416626
 20
94.999985
 11
433.416626
 21
94.999985
  0
LINE
  8
0
 62
     4
 10
426.416626
 20
86.999985
 11
433.416626
 21
86.999985
  0
LINE
  8
0
 62
     4
 10
430.416626
 20
94.999985
 11
430.416626
 21
86.999985
  0
LINE
  8
0
 62
     4
 10
426.416626
 20
94.999985
 11
426.416626
 21
86.999985
  0
LINE
  8
0
 62
     4
 10
428.416626
 20
99.499985
 11
428.416626
 21
94.999985
  0
LINE
  8
0
 62
     4
 10
431.550598
 20
100.999985
 11
429.282654
 21
100.999985
  0
LINE
  8
0
 62
     4
 10
428.416443
 20
99.500046
 11
429.282471
 21
101.000053
  0
LINE
  8
0
 62
     4
 10
432.416656
 20
99.500015
 11
431.550629
 21
101.000015
  0
LINE
  8
0
 62
     4
 10
432.416626
 20
99.499985
 11
428.416626
 21
99.499985
  0
LINE
  8
0
 62
     4
 10
432.416626
 20
78.999985
 11
428.416626
 21
78.999985
  0
LINE
  8
0
 62
     4
 10
431.916626
 20
77.999985
 11
428.916626
 21
77.999985
  0
LINE
  8
0
 62
     4
 10
428.916626
 20
77.999985
 11
428.916626
 21
72.999985
  0
LINE
  8
0
 62
     4
 10
431.916626
 20
77.999985
 11
431.916626
 21
72.999985
  0
LINE
  8
0
 62
     4
 10
432.416626
 20
78.999985
 11
431.916626
 21
77.999977
  0
LINE
  8
0
 62
     4
 10
428.416595
 20
78.999962
 11
428.916565
 21
77.999969
  0
LINE
  8
0
 62
     4
 10
428.416626
 20
86.999985
 11
428.416626
 21
78.999985
  0
LINE
  8
0
 62
     4
 10
425.444794
 20
39.799992
 11
426.416626
 21
39.799992
  0
LINE
  8
0
 62
     4
 10
425.444794
 20
34.199993
 11
426.416626
 21
34.199993
  0
LINE
  8
0
 62
     4
 10
433.416626
 20
32.999985
 11
433.416626
 21
40.999985
  0
LINE
  8
0
 62
     4
 10
426.416626
 20
32.999985
 11
433.416626
 21
32.999985
  0
LINE
  8
0
 62
     4
 10
426.416626
 20
40.999985
 11
433.416626
 21
40.999985
  0
LINE
  8
0
 62
     4
 10
430.416626
 20
32.999985
 11
430.416626
 21
40.999985
  0
LINE
  8
0
 62
     4
 10
426.416626
 20
32.999985
 11
426.416626
 21
40.999985
  0
LINE
  8
0
 62
     4
 10
428.416626
 20
28.499985
 11
428.416626
 21
32.999985
  0
LINE
  8
0
 62
     4
 10
431.550598
 20
26.999985
 11
429.282654
 21
26.999985
  0
LINE
  8
0
 62
     4
 10
428.416443
 20
28.499922
 11
429.282471
 21
26.999918
  0
LINE
  8
0
 62
     4
 10
432.416626
 20
28.499968
 11
431.550598
 21
26.999964
  0
LINE
  8
0
 62
     4
 10
432.416626
 20
28.499985
 11
428.416626
 21
28.499985
  0
LINE
  8
0
 62
     4
 10
432.416626
 20
48.999985
 11
428.416626
 21
48.999985
  0
LINE
  8
0
 62
     4
 10
431.916626
 20
49.999985
 11
428.916626
 21
49.999985
  0
LINE
  8
0
 62
     4
 10
428.916626
 20
49.999985
 11
428.916626
 21
54.999985
  0
LINE
  8
0
 62
     4
 10
431.916626
 20
49.999985
 11
431.916626
 21
54.999985
  0
LINE
  8
0
 62
     4
 10
432.416626
 20
49.000008
 11
431.916626
 21
50.000015
  0
LINE
  8
0
 62
     4
 10
428.416565
 20
49.000015
 11
428.916565
 21
50.000008
  0
LINE
  8
0
 62
     4
 10
428.416626
 20
40.999985
 11
428.416626
 21
48.999985
  0
LINE
  8
0
 10
432.416626
 20
86.999985
 11
432.416626
 21
40.999985
  0
LINE
  8
0
 10
432.416626
 20
32.999985
 11
432.416626
 21
25.999985
  0
LINE
  8
0
 62
     4
 10
458.295837
 20
81.244011
 11
465.145813
 21
71.688911
  0
LINE
  8
0
 62
     4
 10
458.417725
 20
81.331360
 11
465.267670
 21
71.776253
  0
LINE
  8
0
 62
     4
 10
450.539490
 20
81.243912
 11
443.689545
 21
71.688820
  0
LINE
  8
0
 62
     4
 10
450.417511
 20
81.331398
 11
443.567566
 21
71.776299
  0
LINE
  8
0
 62
     4
 10
457.019531
 20
89.316635
 11
451.819519
 21
89.317024
  0
LINE
  8
0
 62
     4
 10
457.919159
 20
84.316551
 11
450.919159
 21
84.317078
  0
LINE
  8
0
 62
     4
 10
456.219696
 20
91.316681
 11
452.619690
 21
91.316956
  0
LINE
  8
0
 62
     4
 10
451.819580
 20
90.517021
 11
451.819489
 21
89.317024
  0
LINE
  8
0
 62
     4
 10
457.019592
 20
90.516632
 11
457.019501
 21
89.316635
  0
LINE
  8
0
 62
     4
 10
453.169495
 20
89.316910
 11
453.169403
 21
87.816910
  0
LINE
  8
0
 62
     4
 10
455.669495
 20
89.316727
 11
455.669403
 21
87.816727
  0
LINE
  8
0
 62
     4
 10
457.919128
 20
84.016548
 11
450.919128
 21
84.017075
  0
LINE
  8
0
 62
     4
 10
457.418579
 20
77.016594
 11
456.598022
 21
77.016655
  0
LINE
  8
0
 62
     4
 10
457.919159
 20
84.316559
 11
457.918640
 21
77.516556
  0
LINE
  8
0
 62
     4
 10
457.918549
 20
77.516533
 11
457.418518
 21
77.016579
  0
LINE
  8
0
 62
     4
 10
457.918640
 20
77.516563
 11
450.918640
 21
77.517090
  0
LINE
  8
0
 62
     4
 10
456.419128
 20
84.016670
 11
456.419159
 21
84.316666
  0
LINE
  8
0
 62
     4
 10
452.419128
 20
84.016975
 11
452.419159
 21
84.316971
  0
LINE
  8
0
 62
     4
 10
450.919159
 20
84.317085
 11
450.918640
 21
77.517082
  0
LINE
  8
0
 62
     4
 10
450.918640
 20
77.517105
 11
451.418610
 21
77.017052
  0
LINE
  8
0
 62
     4
 10
452.239136
 20
77.016983
 11
451.418579
 21
77.017044
  0
LINE
  8
0
 62
     4
 10
459.418945
 20
81.330940
 11
459.419312
 21
86.130943
  0
LINE
  8
0
 62
     4
 10
448.419189
 20
84.831772
 11
448.419281
 21
86.131775
  0
LINE
  8
0
 62
     4
 10
449.419281
 20
85.831696
 11
449.419189
 21
84.831696
  0
LINE
  8
0
 62
     4
 10
458.419250
 20
85.831039
 11
458.418915
 21
81.331039
  0
LINE
  8
0
 62
     4
 10
458.219391
 20
87.331047
 11
450.919403
 21
87.331596
  0
LINE
  8
0
 62
     4
 10
451.819305
 20
86.331512
 11
450.419312
 21
86.331619
  0
LINE
  8
0
 62
     4
 10
459.418915
 20
81.330933
 11
458.418915
 21
81.331009
  0
LINE
  8
0
 62
     4
 10
449.419189
 20
84.831680
 11
448.419189
 21
84.831757
  0
LINE
  8
0
 62
     4
 10
456.219238
 20
85.331177
 11
452.619202
 21
85.331451
  0
LINE
  8
0
 62
     4
 10
456.219208
 20
85.331184
 11
456.219238
 21
85.531181
  0
LINE
  8
0
 62
     4
 10
452.619202
 20
85.331459
 11
452.619232
 21
85.531456
  0
LINE
  8
0
 62
     4
 10
457.919312
 20
86.331047
 11
457.019318
 21
86.331116
  0
LINE
  8
0
 62
     4
 10
451.919464
 20
88.331505
 11
450.619446
 21
88.331604
  0
LINE
  8
0
 62
     4
 10
449.418915
 20
81.331696
 11
450.418915
 21
81.331627
  0
LINE
  8
0
 62
     4
 10
451.919464
 20
88.331505
 11
451.919373
 21
87.331505
  0
LINE
  8
0
 62
     4
 10
449.419373
 20
87.131699
 11
449.418945
 21
81.331696
  0
LINE
  8
0
 62
     4
 10
450.418945
 20
81.331627
 11
450.419342
 21
86.831627
  0
LINE
  8
0
 62
     4
 10
455.919220
 20
85.331207
 11
455.919159
 21
84.316704
  0
LINE
  8
0
 62
     1
 10
455.669220
 20
85.331230
 11
455.669159
 21
84.316727
  0
LINE
  8
0
 62
     1
 10
453.169220
 20
85.331413
 11
453.169159
 21
84.316910
  0
LINE
  8
0
 62
     4
 10
452.919220
 20
85.331436
 11
452.919159
 21
84.316933
  0
LINE
  8
0
 62
     4
 10
458.419250
 20
85.581024
 11
458.269257
 21
85.581032
  0
LINE
  8
0
 62
     4
 10
450.569214
 20
85.581596
 11
450.419220
 21
85.581612
  0
LINE
  8
0
 62
     4
 10
458.269257
 20
85.581032
 11
458.268921
 21
81.331032
  0
LINE
  8
0
 62
     4
 10
450.569244
 20
85.581612
 11
450.568909
 21
81.331612
  0
LINE
  8
0
 62
     4
 10
455.919434
 20
87.816711
 11
455.919373
 21
87.331207
  0
LINE
  8
0
 62
     4
 10
455.919403
 20
87.816704
 11
452.919403
 21
87.816933
  0
LINE
  8
0
 62
     1
 10
455.669434
 20
87.816742
 11
455.669373
 21
87.331238
  0
LINE
  8
0
 62
     1
 10
453.169434
 20
87.816917
 11
453.169373
 21
87.331413
  0
LINE
  8
0
 62
     4
 10
452.919434
 20
87.816940
 11
452.919373
 21
87.331436
  0
LINE
  8
0
 62
     4
 10
450.539490
 20
46.754036
 11
443.689545
 21
56.309132
  0
LINE
  8
0
 62
     4
 10
450.417694
 20
46.666672
 11
443.567719
 21
56.221790
  0
LINE
  8
0
 62
     4
 10
458.295715
 20
46.754089
 11
465.145660
 21
56.309185
  0
LINE
  8
0
 62
     4
 10
458.417664
 20
46.666634
 11
465.267609
 21
56.221733
  0
LINE
  8
0
 62
     4
 10
451.815735
 20
38.681370
 11
457.015747
 21
38.680977
  0
LINE
  8
0
 62
     4
 10
450.916107
 20
43.681423
 11
452.416107
 21
43.681313
  0
LINE
  8
0
 62
     4
 10
452.615601
 20
36.681305
 11
456.215607
 21
36.681034
  0
LINE
  8
0
 62
     4
 10
457.015656
 20
37.480995
 11
457.015747
 21
38.680992
  0
LINE
  8
0
 62
     4
 10
451.815643
 20
37.481380
 11
451.815735
 21
38.681377
  0
LINE
  8
0
 62
     4
 10
455.665741
 20
38.681080
 11
455.665863
 21
40.181080
  0
LINE
  8
0
 62
     4
 10
453.165741
 20
38.681274
 11
453.165863
 21
40.181274
  0
LINE
  8
0
 62
     4
 10
450.916138
 20
43.981434
 11
457.916138
 21
43.980907
  0
LINE
  8
0
 62
     4
 10
451.416656
 20
50.981403
 11
452.237213
 21
50.981342
  0
LINE
  8
0
 62
     4
 10
450.916107
 20
43.681423
 11
450.916595
 21
50.481422
  0
LINE
  8
0
 62
     4
 10
450.916626
 20
50.481422
 11
451.416687
 21
50.981400
  0
LINE
  8
0
 62
     4
 10
450.916656
 20
50.481441
 11
457.916656
 21
50.480915
  0
LINE
  8
0
 62
     4
 10
452.416138
 20
43.981335
 11
452.416107
 21
43.481335
  0
LINE
  8
0
 62
     4
 10
456.416138
 20
43.981041
 11
456.416107
 21
43.481041
  0
LINE
  8
0
 62
     4
 10
452.416107
 20
43.481323
 11
456.416107
 21
43.481022
  0
LINE
  8
0
 62
     4
 10
456.373962
 20
43.407906
 11
456.416168
 21
43.481007
  0
LINE
  8
0
 62
     4
 10
452.458374
 20
43.408222
 11
452.416168
 21
43.481339
  0
LINE
  8
0
 62
     4
 10
457.916107
 20
43.680897
 11
457.916595
 21
50.480896
  0
LINE
  8
0
 62
     4
 10
457.916718
 20
50.480961
 11
457.416748
 21
50.980988
  0
LINE
  8
0
 62
     4
 10
456.596100
 20
50.981014
 11
457.416656
 21
50.980953
  0
LINE
  8
0
 62
     4
 10
449.416321
 20
46.667065
 11
449.415985
 21
41.867062
  0
LINE
  8
0
 62
     4
 10
460.416077
 20
43.166233
 11
460.415985
 21
41.866230
  0
LINE
  8
0
 62
     4
 10
459.415985
 20
42.166302
 11
459.416077
 21
43.166302
  0
LINE
  8
0
 62
     4
 10
450.416016
 20
42.166981
 11
450.416351
 21
46.666981
  0
LINE
  8
0
 62
     4
 10
450.615845
 20
40.666958
 11
457.915833
 21
40.666409
  0
LINE
  8
0
 62
     4
 10
457.015961
 20
41.666481
 11
458.415955
 21
41.666374
  0
LINE
  8
0
 62
     4
 10
449.416351
 20
46.667053
 11
450.416351
 21
46.666977
  0
LINE
  8
0
 62
     4
 10
459.416077
 20
43.166302
 11
460.416077
 21
43.166225
  0
LINE
  8
0
 62
     4
 10
452.616028
 20
42.666809
 11
456.216034
 21
42.666538
  0
LINE
  8
0
 62
     4
 10
452.616028
 20
42.666828
 11
452.615997
 21
42.466831
  0
LINE
  8
0
 62
     4
 10
456.216034
 20
42.666550
 11
456.216003
 21
42.466553
  0
LINE
  8
0
 62
     4
 10
450.915955
 20
41.666935
 11
451.815948
 21
41.666870
  0
LINE
  8
0
 62
     4
 10
456.915802
 20
39.666489
 11
458.215790
 21
39.666389
  0
LINE
  8
0
 62
     4
 10
459.416351
 20
46.666298
 11
458.416351
 21
46.666370
  0
LINE
  8
0
 62
     4
 10
456.915802
 20
39.666504
 11
456.915894
 21
40.666504
  0
LINE
  8
0
 62
     4
 10
459.415863
 20
40.866302
 11
459.416321
 21
46.666306
  0
LINE
  8
0
 62
     4
 10
458.416351
 20
46.666363
 11
458.415924
 21
41.166363
  0
LINE
  8
0
 62
     4
 10
452.916046
 20
42.666801
 11
452.916077
 21
43.083229
  0
LINE
  8
0
 62
     1
 10
453.166046
 20
42.666782
 11
453.166077
 21
42.954105
  0
LINE
  8
0
 62
     1
 10
455.666046
 20
42.666595
 11
455.666077
 21
42.953918
  0
LINE
  8
0
 62
     4
 10
455.916046
 20
42.666565
 11
455.916077
 21
43.082993
  0
LINE
  8
0
 62
     4
 10
456.416107
 20
43.681023
 11
457.916107
 21
43.680908
  0
LINE
  8
0
 62
     4
 10
450.416016
 20
42.416977
 11
450.566010
 21
42.416965
  0
LINE
  8
0
 62
     4
 10
458.266022
 20
42.416386
 11
458.416016
 21
42.416374
  0
LINE
  8
0
 62
     4
 10
450.566010
 20
42.416981
 11
450.566315
 21
46.666981
  0
LINE
  8
0
 62
     4
 10
458.266022
 20
42.416389
 11
458.266327
 21
46.666389
  0
LINE
  8
0
 62
     4
 10
452.915833
 20
40.181297
 11
452.915863
 21
40.666801
  0
LINE
  8
0
 62
     4
 10
452.915833
 20
40.181282
 11
455.915833
 21
40.181057
  0
LINE
  8
0
 62
     1
 10
453.165833
 20
40.181271
 11
453.165863
 21
40.666775
  0
LINE
  8
0
 62
     1
 10
455.665833
 20
40.181084
 11
455.665863
 21
40.666588
  0
LINE
  8
0
 62
     4
 10
455.915833
 20
40.181072
 11
455.915863
 21
40.666576
  0
LINE
  8
0
  6
CENTER
 62
     2
 10
233.750000
 20
-119.836761
 11
233.750000
 21
-188.666672
  0
LINE
  8
0
  6
CENTER
 62
     2
 10
350.292542
 20
-161.666672
 11
179.553589
 21
-161.666672
  0
LINE
  8
0
 10
255.750000
 20
-142.666672
 11
255.750000
 21
-180.666672
  0
LINE
  8
0
 10
252.750000
 20
-139.666672
 11
214.750000
 21
-139.666672
  0
LINE
  8
0
 10
252.750000
 20
-183.666656
 11
214.750000
 21
-183.666656
  0
LINE
  8
0
 10
229.997223
 20
-156.166626
 11
226.244476
 21
-149.666626
  0
LINE
  8
0
  6
CENTER
 62
     2
 10
242.250000
 20
-149.666672
 11
225.250000
 21
-149.666672
  0
LINE
  8
0
 10
226.244507
 20
-149.666687
 11
229.997269
 21
-143.166672
  0
LINE
  8
0
 10
229.997192
 20
-143.166656
 11
237.502808
 21
-143.166656
  0
LINE
  8
0
 10
237.502945
 20
-143.166611
 11
241.255692
 21
-149.666595
  0
LINE
  8
0
 10
241.255615
 20
-149.666702
 11
237.502853
 21
-156.166718
  0
LINE
  8
0
 10
237.502808
 20
-156.166672
 11
229.997192
 21
-156.166672
  0
LINE
  8
0
 10
255.450012
 20
-142.466675
 11
255.450012
 21
-180.866684
  0
LINE
  8
0
 10
212.049988
 20
-142.466675
 11
212.049988
 21
-180.866684
  0
LINE
  8
0
 10
252.950012
 20
-139.966675
 11
214.549988
 21
-139.966675
  0
LINE
  8
0
 10
252.950012
 20
-183.366669
 11
214.549988
 21
-183.366669
  0
LINE
  8
0
 10
245.250000
 20
-177.666672
 11
245.250000
 21
-183.366684
  0
LINE
  8
0
 10
222.250000
 20
-177.666672
 11
222.250000
 21
-183.366684
  0
LINE
  8
0
 10
217.750000
 20
-173.166672
 11
212.049988
 21
-173.166672
  0
LINE
  8
0
 10
255.450012
 20
-173.166672
 11
249.750000
 21
-173.166672
  0
LINE
  8
0
 10
245.250000
 20
-139.966675
 11
245.250000
 21
-145.666672
  0
LINE
  8
0
 10
255.450012
 20
-150.166672
 11
249.750000
 21
-150.166672
  0
LINE
  8
0
 10
222.250000
 20
-139.966675
 11
222.250000
 21
-145.666672
  0
LINE
  8
0
 10
217.750000
 20
-150.166672
 11
212.049988
 21
-150.166672
  0
LINE
  8
0
 62
     4
 10
182.750000
 20
-158.466660
 11
182.750000
 21
-164.866653
  0
LINE
  8
0
 62
     4
 10
203.750000
 20
-157.966660
 11
194.395386
 21
-157.966660
  0
LINE
  8
0
 62
     4
 10
203.750000
 20
-165.366653
 11
194.395386
 21
-165.366653
  0
LINE
  8
0
 62
     4
 10
182.750092
 20
-164.866501
 11
183.250122
 21
-165.366531
  0
LINE
  8
0
 62
     4
 10
182.750076
 20
-158.466766
 11
183.250107
 21
-157.966736
  0
LINE
  8
0
 62
     4
 10
183.250000
 20
-165.366653
 11
183.250000
 21
-163.186539
  0
LINE
  8
0
 62
     4
 10
200.750000
 20
-157.966660
 11
200.750000
 21
-160.146790
  0
LINE
  8
0
 62
     4
 10
202.750000
 20
-157.966660
 11
202.750000
 21
-160.146790
  0
LINE
  8
0
 62
     4
 10
202.750000
 20
-160.146790
 11
194.395386
 21
-160.146790
  0
LINE
  8
0
 62
     4
 10
202.750000
 20
-163.186539
 11
194.395386
 21
-163.186539
  0
LINE
  8
0
 62
     4
 10
183.250000
 20
-160.146790
 11
183.250000
 21
-157.966660
  0
LINE
  8
0
 62
     4
 10
183.250046
 20
-160.146835
 11
182.750061
 21
-160.646820
  0
LINE
  8
0
 62
     4
 10
183.250137
 20
-163.186401
 11
182.750153
 21
-162.686417
  0
LINE
  8
0
 62
     4
 10
202.750000
 20
-163.186539
 11
202.750000
 21
-165.366653
  0
LINE
  8
0
 62
     4
 10
200.750000
 20
-163.186539
 11
200.750000
 21
-165.366653
  0
LINE
  8
0
 62
     4
 10
202.750031
 20
-160.146851
 11
203.750015
 21
-158.414795
  0
LINE
  8
0
 62
     4
 10
202.749832
 20
-163.186630
 11
203.750031
 21
-164.919067
  0
LINE
  8
0
 62
     1
 10
200.750000
 20
-164.866653
 11
194.395386
 21
-164.866653
  0
LINE
  8
0
 62
     1
 10
200.750000
 20
-158.466660
 11
194.395386
 21
-158.466660
  0
LINE
  8
0
 62
     1
 10
200.749863
 20
-164.866745
 11
201.615952
 21
-165.366745
  0
LINE
  8
0
 62
     1
 10
200.749985
 20
-158.466690
 11
201.615952
 21
-157.966690
  0
LINE
  8
0
 62
     1
 10
189.395386
 20
-164.866653
 11
182.750000
 21
-164.866653
  0
LINE
  8
0
 62
     4
 10
189.395386
 20
-165.366653
 11
183.250000
 21
-165.366653
  0
LINE
  8
0
 62
     4
 10
189.395386
 20
-163.186539
 11
183.250000
 21
-163.186539
  0
LINE
  8
0
 62
     4
 10
189.395386
 20
-160.146790
 11
183.250000
 21
-160.146790
  0
LINE
  8
0
 62
     1
 10
189.395386
 20
-158.466660
 11
182.750000
 21
-158.466660
  0
LINE
  8
0
 62
     4
 10
189.395386
 20
-157.966660
 11
183.250000
 21
-157.966660
  0
LINE
  8
0
 62
     4
 10
194.395386
 20
-155.166672
 11
194.395386
 21
-161.666672
  0
LINE
  8
0
 62
     4
 10
193.814819
 20
-154.161087
 11
191.895386
 21
-154.161087
  0
LINE
  8
0
 62
     4
 10
194.395172
 20
-155.166794
 11
193.814606
 21
-154.161224
  0
LINE
  8
0
 62
     4
 10
189.395386
 20
-155.166672
 11
189.395386
 21
-161.666672
  0
LINE
  8
0
 62
     4
 10
189.975952
 20
-154.161087
 11
191.895386
 21
-154.161087
  0
LINE
  8
0
 62
     4
 10
189.395477
 20
-155.166687
 11
189.976028
 21
-154.161118
  0
LINE
  8
0
 62
     4
 10
194.395386
 20
-168.166672
 11
194.395386
 21
-161.666672
  0
LINE
  8
0
 62
     4
 10
193.814819
 20
-169.172256
 11
191.895386
 21
-169.172256
  0
LINE
  8
0
 62
     4
 10
194.395370
 20
-168.166687
 11
193.814804
 21
-169.172256
  0
LINE
  8
0
 62
     4
 10
189.395386
 20
-168.166672
 11
189.395386
 21
-161.666672
  0
LINE
  8
0
 62
     4
 10
189.975952
 20
-169.172256
 11
191.895386
 21
-169.172256
  0
LINE
  8
0
 62
     4
 10
189.395203
 20
-168.166763
 11
189.975769
 21
-169.172348
  0
LINE
  8
0
 62
     4
 10
193.814819
 20
-157.913895
 11
189.975952
 21
-157.913895
  0
LINE
  8
0
 62
     4
 10
193.814819
 20
-165.419449
 11
189.975952
 21
-165.419449
  0
LINE
  8
0
 10
340.750000
 20
-149.466675
 11
340.750000
 21
-173.866684
  0
LINE
  8
0
 10
331.750000
 20
-148.466675
 11
331.750000
 21
-174.866669
  0
LINE
  8
0
 10
268.750000
 20
-142.666672
 11
268.750000
 21
-180.666672
  0
LINE
  8
0
 10
268.750000
 20
-142.666672
 11
255.750000
 21
-142.666672
  0
LINE
  8
0
 10
268.750000
 20
-180.666672
 11
255.750000
 21
-180.666672
  0
LINE
  8
0
  6
CENTER
 62
     2
 10
262.250000
 20
-137.666672
 11
262.250000
 21
-151.987625
  0
LINE
  8
0
 10
339.750000
 20
-148.466675
 11
321.750000
 21
-148.466675
  0
LINE
  8
0
 10
339.750000
 20
-174.866669
 11
321.750000
 21
-174.866669
  0
LINE
  8
0
 10
339.749969
 20
-148.466690
 11
340.749939
 21
-149.466675
  0
LINE
  8
0
 10
339.749939
 20
-174.866638
 11
340.749969
 21
-173.866623
  0
LINE
  8
0
 10
339.750000
 20
-148.466675
 11
339.750000
 21
-152.502060
  0
LINE
  8
0
 10
339.750000
 20
-170.831284
 11
335.750000
 21
-170.831284
  0
LINE
  8
0
 10
339.750000
 20
-152.502060
 11
335.750000
 21
-152.502060
  0
LINE
  8
0
 10
340.750183
 20
-169.321213
 11
339.750183
 21
-170.831390
  0
LINE
  8
0
 10
340.750031
 20
-154.012177
 11
339.750031
 21
-152.501968
  0
LINE
  8
0
 10
339.750000
 20
-170.831284
 11
339.750000
 21
-174.866669
  0
LINE
  8
0
 10
335.750000
 20
-152.502060
 11
335.750000
 21
-170.831284
  0
LINE
  8
0
 10
251.164230
 20
-147.080811
 11
248.335861
 21
-144.252380
  0
LINE
  8
0
 10
219.164261
 20
-147.080841
 11
216.335892
 21
-144.252396
  0
LINE
  8
0
 10
219.164337
 20
-179.080795
 11
216.335983
 21
-176.252380
  0
LINE
  8
0
 10
251.164230
 20
-179.080795
 11
248.335876
 21
-176.252380
  0
LINE
  8
0
 10
251.164230
 20
-144.252396
 11
248.335876
 21
-147.080811
  0
LINE
  8
0
 10
219.164108
 20
-144.252365
 11
216.335754
 21
-147.080765
  0
LINE
  8
0
 10
219.164185
 20
-176.252396
 11
216.335800
 21
-179.080856
  0
LINE
  8
0
 10
251.164215
 20
-176.252502
 11
248.335861
 21
-179.080902
  0
LINE
  8
0
 10
203.750000
 20
-124.166672
 11
203.750000
 21
-199.166672
  0
LINE
  8
0
 10
211.750000
 20
-199.166672
 11
203.750000
 21
-199.166672
  0
LINE
  8
0
 10
211.750000
 20
-124.166672
 11
203.750000
 21
-124.166672
  0
LINE
  8
0
 10
211.750000
 20
-124.166672
 11
211.750000
 21
-199.166672
  0
LINE
  8
0
  6
CENTER
 62
     2
 10
214.083939
 20
-176.666672
 11
200.750000
 21
-176.666672
  0
LINE
  8
0
  6
CENTER
 62
     2
 10
214.083939
 20
-146.666672
 11
200.750000
 21
-146.666672
  0
LINE
  8
0
 10
211.750000
 20
-128.166672
 11
203.750000
 21
-128.166672
  0
LINE
  8
0
 10
211.750000
 20
-195.166672
 11
203.750000
 21
-195.166672
  0
LINE
  8
0
 62
     4
 10
230.949997
 20
-139.166672
 11
230.949997
 21
-133.666672
  0
LINE
  8
0
 62
     4
 10
255.750000
 20
-140.666672
 11
255.750000
 21
-137.666672
  0
LINE
  8
0
 62
     4
 10
247.750000
 20
-133.666672
 11
230.949997
 21
-133.666672
  0
LINE
  8
0
 62
     4
 10
255.750000
 20
-140.666672
 11
254.986069
 21
-140.666672
  0
LINE
  8
0
 62
     4
 10
255.750000
 20
-137.666672
 11
247.749985
 21
-133.666672
  0
LINE
  8
0
 62
     4
 10
242.750000
 20
-139.166672
 11
235.750000
 21
-139.166672
  0
LINE
  8
0
 62
     4
 10
242.750000
 20
-139.666672
 11
242.750000
 21
-139.166672
  0
LINE
  8
0
 62
     4
 10
239.949997
 20
-132.694855
 11
239.949997
 21
-133.666672
  0
LINE
  8
0
 62
     4
 10
245.550003
 20
-132.694855
 11
245.550003
 21
-133.666672
  0
LINE
  8
0
 62
     4
 10
235.750000
 20
-139.166672
 11
235.750000
 21
-135.666672
  0
LINE
  8
0
 62
     4
 10
231.750000
 20
-139.166672
 11
231.750000
 21
-135.666672
  0
LINE
  8
0
 62
     4
 10
235.750000
 20
-135.666672
 11
231.750000
 21
-135.666672
  0
LINE
  8
0
 62
     4
 10
231.750000
 20
-139.166672
 11
230.949997
 21
-139.166672
  0
LINE
  8
0
 62
     4
 10
231.750000
 20
-135.666672
 11
235.750000
 21
-135.666672
  0
LINE
  8
0
 62
     4
 10
231.750000
 20
-135.666672
 11
231.750000
 21
-139.666687
  0
LINE
  8
0
 62
     4
 10
235.750000
 20
-135.666672
 11
235.750000
 21
-139.666687
  0
LINE
  8
0
 62
     1
 10
241.520493
 20
-139.666672
 11
241.520493
 21
-139.166672
  0
LINE
  8
0
 62
     4
 10
241.250000
 20
-139.666672
 11
241.250000
 21
-139.166672
  0
LINE
  8
0
 62
     4
 10
289.750000
 20
-148.316879
 11
289.750000
 21
-175.016479
  0
LINE
  8
0
 62
     4
 10
297.750000
 20
-148.316879
 11
297.750000
 21
-175.016479
  0
LINE
  8
0
 62
     4
 10
297.750000
 20
-148.316879
 11
289.750000
 21
-148.316879
  0
LINE
  8
0
 62
     4
 10
297.750000
 20
-175.016479
 11
289.750000
 21
-175.016479
  0
LINE
  8
0
 62
     4
 10
304.750000
 20
-159.966675
 11
299.750000
 21
-159.966675
  0
LINE
  8
0
 62
     4
 10
304.750000
 20
-163.366669
 11
299.750000
 21
-163.366669
  0
LINE
  8
0
 62
     4
 10
306.750000
 20
-159.166687
 11
304.749969
 21
-159.166687
  0
LINE
  8
0
 62
     4
 10
306.750000
 20
-164.166687
 11
304.749969
 21
-164.166687
  0
LINE
  8
0
 62
     4
 10
304.750000
 20
-159.166656
 11
304.750000
 21
-164.166656
  0
LINE
  8
0
 62
     4
 10
322.250000
 20
-156.666687
 11
313.250000
 21
-156.666687
  0
LINE
  8
0
 62
     4
 10
322.750000
 20
-166.666687
 11
320.000000
 21
-166.666687
  0
LINE
  8
0
 62
     4
 10
328.750000
 20
-158.166687
 11
322.750000
 21
-158.166687
  0
LINE
  8
0
 62
     4
 10
328.750000
 20
-165.166687
 11
322.750000
 21
-165.166687
  0
LINE
  8
0
 62
     4
 10
322.750000
 20
-157.166656
 11
322.750000
 21
-165.166656
  0
LINE
  8
0
 62
     4
 10
328.750000
 20
-158.166656
 11
328.750000
 21
-165.166656
  0
LINE
  8
0
 62
     4
 10
312.750000
 20
-157.166656
 11
312.750000
 21
-165.166656
  0
LINE
  8
0
 62
     4
 10
306.750000
 20
-158.166656
 11
306.750000
 21
-165.166656
  0
LINE
  8
0
 62
     4
 10
319.750000
 20
-167.032684
 11
319.750000
 21
-167.966675
  0
LINE
  8
0
 62
     4
 10
315.750000
 20
-167.032684
 11
315.750000
 21
-167.966675
  0
LINE
  8
0
 62
     4
 10
322.250000
 20
-165.666687
 11
321.116028
 21
-165.666687
  0
LINE
  8
0
 62
     4
 10
319.750000
 20
-167.966675
 11
315.750000
 21
-167.966675
  0
LINE
  8
0
 62
     4
 10
314.383972
 20
-165.666687
 11
313.250000
 21
-165.666687
  0
LINE
  8
0
 62
     4
 10
322.750000
 20
-165.166656
 11
322.750000
 21
-166.666656
  0
LINE
  8
0
 62
     4
 10
312.750000
 20
-165.166656
 11
312.750000
 21
-166.666656
  0
LINE
  8
0
 62
     4
 10
315.500000
 20
-166.666687
 11
312.750000
 21
-166.666687
  0
LINE
  8
0
 62
     4
 10
312.750000
 20
-158.166687
 11
306.750000
 21
-158.166687
  0
LINE
  8
0
 62
     4
 10
312.750000
 20
-165.166687
 11
306.750000
 21
-165.166687
  0
LINE
  8
0
 62
     4
 10
315.500000
 20
-166.666656
 11
315.500000
 21
-165.198425
  0
LINE
  8
0
 62
     4
 10
320.000000
 20
-166.666656
 11
320.000000
 21
-165.198425
  0
LINE
  8
0
 62
     4
 10
321.750000
 20
-148.316681
 11
313.750000
 21
-148.316681
  0
LINE
  8
0
 62
     4
 10
321.750000
 20
-148.316681
 11
321.750000
 21
-156.666656
  0
LINE
  8
0
 62
     4
 10
313.750000
 20
-148.316681
 11
313.750000
 21
-156.666656
  0
LINE
  8
0
 62
     4
 10
321.750000
 20
-175.016663
 11
313.750000
 21
-175.016663
  0
LINE
  8
0
 62
     4
 10
321.750000
 20
-166.666656
 11
321.750000
 21
-175.016663
  0
LINE
  8
0
 62
     4
 10
313.750000
 20
-166.666656
 11
313.750000
 21
-175.016663
  0
LINE
  8
0
 62
     4
 10
318.669220
 20
-162.585907
 11
316.830750
 21
-160.747421
  0
LINE
  8
0
 62
     4
 10
318.669220
 20
-160.747437
 11
316.830750
 21
-162.585922
  0
LINE
  8
0
 10
313.750000
 20
-148.466675
 11
297.750000
 21
-148.466675
  0
LINE
  8
0
 10
289.750000
 20
-148.466675
 11
268.750000
 21
-148.466675
  0
LINE
  8
0
 10
289.750000
 20
-174.866669
 11
268.750000
 21
-174.866669
  0
LINE
  8
0
 10
313.750000
 20
-174.866669
 11
297.750000
 21
-174.866669
  0
LINE
  8
0
 62
     4
 10
158.283386
 20
-303.554687
 11
158.283386
 21
-306.594421
  0
LINE
  8
0
 62
     4
 10
150.883362
 20
-303.554687
 11
150.883362
 21
-306.594421
  0
LINE
  8
0
 62
     4
 10
156.103271
 20
-301.374542
 11
153.063477
 21
-301.374542
  0
LINE
  8
0
 62
     4
 10
156.103271
 20
-308.774536
 11
153.063477
 21
-308.774536
  0
LINE
  8
0
 62
     4
 10
158.283325
 20
-301.374512
 11
150.883362
 21
-301.374512
  0
LINE
  8
0
 62
     4
 10
158.283325
 20
-308.774536
 11
150.883362
 21
-308.774536
  0
LINE
  8
0
 62
     4
 10
158.283325
 20
-301.374512
 11
158.283325
 21
-308.774536
  0
LINE
  8
0
 62
     4
 10
150.883362
 20
-301.374512
 11
150.883362
 21
-308.774536
  0
LINE
  8
0
  6
CENTER
 62
     1
 10
154.583374
 20
-299.074524
 11
154.583374
 21
-311.074524
  0
LINE
  8
0
  6
CENTER
 62
     1
 10
160.583374
 20
-305.074524
 11
148.583374
 21
-305.074524
  0
LINE
  8
0
 62
     4
 10
304.583374
 20
-306.594055
 11
287.083374
 21
-306.594055
  0
LINE
  8
0
 62
     4
 10
307.583374
 20
-308.774200
 11
287.083374
 21
-308.774200
  0
LINE
  8
0
 62
     4
 10
304.583374
 20
-303.554321
 11
287.083374
 21
-303.554321
  0
LINE
  8
0
 62
     4
 10
307.583374
 20
-301.374207
 11
287.083374
 21
-301.374207
  0
LINE
  8
0
 62
     4
 10
286.583374
 20
-301.874207
 11
286.583374
 21
-308.274200
  0
LINE
  8
0
 62
     4
 10
286.583527
 20
-308.274109
 11
287.083527
 21
-308.774109
  0
LINE
  8
0
 62
     4
 10
286.583466
 20
-301.874176
 11
287.083466
 21
-301.374146
  0
LINE
  8
0
 62
     4
 10
287.083374
 20
-308.774200
 11
287.083374
 21
-306.594055
  0
LINE
  8
0
 62
     4
 10
287.083374
 20
-303.554321
 11
287.083374
 21
-301.374207
  0
LINE
  8
0
 62
     4
 10
287.083313
 20
-303.554260
 11
286.583344
 21
-304.054260
  0
LINE
  8
0
 62
     4
 10
287.083496
 20
-306.593903
 11
286.583527
 21
-306.093933
  0
LINE
  8
0
  6
CENTER
 62
     1
 10
319.317535
 20
-305.074188
 11
282.203918
 21
-305.074188
  0
LINE
  8
0
 62
     4
 10
304.583374
 20
-301.374207
 11
304.583374
 21
-303.554321
  0
LINE
  8
0
 62
     4
 10
304.583374
 20
-306.594055
 11
304.583374
 21
-308.774200
  0
LINE
  8
0
 62
     4
 10
305.783295
 20
-308.774200
 11
304.583282
 21
-306.594086
  0
LINE
  8
0
 62
     4
 10
305.783386
 20
-301.374176
 11
304.583344
 21
-303.554321
  0
ARC
  8
0
 62
     4
 10
-269.950012
 20
37.480957
 40
0.799999
 50
270.000000
 51
0.000000
  0
ARC
  8
0
 62
     4
 10
-273.549988
 20
37.480957
 40
0.799988
 50
180.000000
 51
270.000000
  0
ARC
  8
0
 10
-335.015625
 20
108.500000
 40
0.500011
 50
5.000035
 51
90.000000
  0
ARC
  8
0
 10
-376.484375
 20
108.500000
 40
0.500000
 50
90.000000
 51
174.999969
  0
ARC
  8
0
 10
-345.254578
 20
108.500000
 40
0.500011
 50
5.000035
 51
90.000000
  0
ARC
  8
0
 10
-366.245422
 20
108.500000
 40
0.500000
 50
90.000000
 51
174.999969
  0
ARC
  8
0
 10
-343.953247
 20
105.100006
 40
0.500011
 50
185.000031
 51
270.000000
  0
ARC
  8
0
 10
-367.546753
 20
105.100006
 40
0.500000
 50
270.000000
 51
354.999969
  0
ARC
  8
0
 10
-371.750000
 20
104.544220
 40
3.655770
 50
16.785875
 51
163.214127
  0
ARC
  8
0
 10
-339.750000
 20
104.544220
 40
3.655770
 50
16.785875
 51
163.214127
  0
ARC
  8
0
 10
-367.546753
 20
22.900002
 40
0.500011
 50
5.000035
 51
90.000000
  0
ARC
  8
0
 10
-343.953247
 20
22.900002
 40
0.500000
 50
90.000000
 51
175.000183
  0
ARC
  8
0
 10
-339.750000
 20
23.455772
 40
3.655770
 50
196.785904
 51
343.214172
  0
ARC
  8
0
 10
-371.750000
 20
23.455772
 40
3.655770
 50
196.785904
 51
343.214172
  0
ARC
  8
0
 10
-335.015625
 20
19.500000
 40
0.500000
 50
270.000000
 51
355.000183
  0
ARC
  8
0
 10
-376.484375
 20
19.500000
 40
0.500011
 50
185.000031
 51
270.000000
  0
ARC
  8
0
 10
-345.254578
 20
19.500000
 40
0.500000
 50
270.000000
 51
354.999969
  0
ARC
  8
0
 10
-366.245422
 20
19.500000
 40
0.500011
 50
185.000031
 51
270.000000
  0
ARC
  8
0
 10
-349.750000
 20
109.000000
 40
2.000000
 50
0.000000
 51
90.000000
  0
ARC
  8
0
 10
-361.750000
 20
109.000000
 40
2.000000
 50
90.000000
 51
180.000000
  0
CIRCLE
  8
0
 10
-369.750000
 20
85.000000
 40
3.300000
  0
CIRCLE
  8
0
 10
-369.750000
 20
43.000000
 40
3.300000
  0
CIRCLE
  8
0
 10
-369.750000
 20
43.000000
 40
5.500000
  0
CIRCLE
  8
0
 10
-369.750000
 20
85.000000
 40
5.500000
  0
ARC
  8
0
 10
-350.120850
 20
114.322556
 40
3.322548
 50
235.615814
 51
304.384186
  0
ARC
  8
0
 10
-355.750000
 20
123.419403
 40
12.419395
 50
270.000000
 51
287.588013
  0
ARC
  8
0
 10
-355.750000
 20
103.580597
 40
12.419395
 50
72.411972
 51
90.000000
  0
ARC
  8
0
 10
-350.120850
 20
112.677444
 40
3.322548
 50
55.615810
 51
124.384193
  0
ARC
  8
0
 10
-355.750000
 20
123.419403
 40
12.419395
 50
252.411972
 51
270.000000
  0
ARC
  8
0
 10
-355.750000
 20
103.580597
 40
12.419395
 50
90.000000
 51
107.588028
  0
ARC
  8
0
 10
-361.379150
 20
112.677444
 40
3.322565
 50
55.615376
 51
124.384193
  0
ARC
  8
0
 10
-361.379150
 20
114.322556
 40
3.322548
 50
235.615814
 51
304.384186
  0
ARC
  8
0
 10
-361.379150
 20
15.322556
 40
3.322548
 50
235.615814
 51
304.384644
  0
ARC
  8
0
 10
-361.379150
 20
13.677444
 40
3.322548
 50
55.615810
 51
124.384193
  0
ARC
  8
0
 10
-349.750000
 20
19.000000
 40
2.000000
 50
270.000000
 51
0.000000
  0
ARC
  8
0
 10
-361.750000
 20
19.000000
 40
2.000000
 50
180.000061
 51
270.000000
  0
ARC
  8
0
 10
-350.120850
 20
13.677444
 40
3.322548
 50
55.615810
 51
124.384193
  0
ARC
  8
0
 10
-355.750000
 20
4.580605
 40
12.419395
 50
72.411972
 51
90.000000
  0
ARC
  8
0
 10
-355.750000
 20
24.419395
 40
12.419395
 50
270.000000
 51
287.588013
  0
ARC
  8
0
 10
-350.120850
 20
15.322556
 40
3.322547
 50
235.615799
 51
304.384186
  0
ARC
  8
0
 10
-355.750000
 20
4.580605
 40
12.419395
 50
90.000000
 51
107.588028
  0
ARC
  8
0
 10
-355.750000
 20
24.419395
 40
12.419397
 50
252.411972
 51
270.000000
  0
CIRCLE
  8
0
 62
     2
 10
-327.250000
 20
64.000000
 40
5.000000
  0
CIRCLE
  8
0
 10
-327.250000
 20
64.000000
 40
4.250000
  0
ARC
  8
0
 62
     4
 10
-404.491638
 20
60.750000
 40
9.386992
 50
339.743530
 51
20.256514
  0
ARC
  8
0
 62
     4
 10
-390.717651
 20
60.750000
 40
9.386994
 50
159.743484
 51
200.256470
  0
ARC
  8
0
 62
     4
 10
-404.491638
 20
67.250000
 40
9.386994
 50
339.743500
 51
20.256470
  0
ARC
  8
0
 62
     4
 10
-390.717651
 20
67.250000
 40
9.386994
 50
159.743484
 51
200.256470
  0
CIRCLE
  8
0
 62
     4
 10
-346.750000
 20
91.000000
 40
2.800000
  0
ARC
  8
0
 62
     4
 10
-356.500000
 20
73.312500
 40
0.812500
 50
202.619858
 51
337.380127
  0
ARC
  8
0
 62
     4
 10
-355.000000
 20
73.312500
 40
0.812500
 50
202.619858
 51
337.380127
  0
ARC
  8
0
 62
     4
 10
-356.500000
 20
72.687500
 40
0.812500
 50
22.619865
 51
157.380142
  0
CIRCLE
  8
0
 62
     4
 10
-346.750000
 20
37.000000
 40
2.800000
  0
ARC
  8
0
 62
     4
 10
-356.500000
 20
54.687500
 40
0.812500
 50
22.619865
 51
157.380142
  0
ARC
  8
0
 62
     4
 10
-355.000000
 20
54.687500
 40
0.812500
 50
22.619865
 51
157.380142
  0
ARC
  8
0
 62
     4
 10
-356.500000
 20
55.312500
 40
0.812500
 50
202.619858
 51
337.380127
  0
ARC
  8
0
 62
     4
 10
-264.250000
 20
45.680954
 40
3.000006
 50
229.262329
 51
310.737671
  0
ARC
  8
0
 62
     4
 10
-289.223206
 20
48.330956
 40
1.000005
 50
121.788948
 51
238.211044
  0
ARC
  8
0
 62
     4
 10
-289.223206
 20
46.630959
 40
1.000005
 50
121.788948
 51
238.211044
  0
ARC
  8
0
 62
     4
 10
-290.276794
 20
46.630959
 40
1.000005
 50
301.788940
 51
58.211052
  0
ARC
  8
0
 62
     4
 10
-276.250000
 20
46.166458
 40
0.500000
 50
90.000000
 51
180.000000
  0
ARC
  8
0
 62
     4
 10
-267.250000
 20
46.166458
 40
0.500000
 50
0.000000
 51
90.000000
  0
ARC
  8
0
 62
     4
 10
-297.549988
 20
90.519043
 40
0.800003
 50
90.000000
 51
180.000000
  0
ARC
  8
0
 62
     4
 10
-293.950012
 20
90.519043
 40
0.799988
 50
0.000000
 51
90.000000
  0
ARC
  8
0
 62
     4
 10
-303.250000
 20
82.319046
 40
3.000009
 50
49.262375
 51
130.737625
  0
ARC
  8
0
 62
     4
 10
-300.250000
 20
81.833542
 40
0.500000
 50
180.000000
 51
270.000000
  0
ARC
  8
0
 62
     4
 10
-291.250000
 20
81.833542
 40
0.500000
 50
270.000000
 51
0.000000
  0
ARC
  8
0
 62
     4
 10
-297.200012
 20
86.119041
 40
0.999989
 50
143.129745
 51
236.633636
  0
ARC
  8
0
 62
     4
 10
-294.299988
 20
86.119041
 40
0.999995
 50
303.366364
 51
36.870247
  0
ARC
  8
0
 62
     4
 10
-277.223206
 20
81.369041
 40
1.000005
 50
121.788948
 51
238.211044
  0
ARC
  8
0
 62
     4
 10
-278.276794
 20
81.369041
 40
1.000005
 50
301.788940
 51
58.211052
  0
ARC
  8
0
 62
     4
 10
-278.276794
 20
79.669044
 40
1.000005
 50
301.788940
 51
58.211052
  0
CIRCLE
  8
0
 62
     2
 10
-488.916626
 20
51.500000
 40
2.500000
  0
CIRCLE
  8
0
 62
     2
 10
-513.916626
 20
51.500000
 40
2.500000
  0
CIRCLE
  8
0
 62
     2
 10
-513.916626
 20
76.500000
 40
2.500000
  0
CIRCLE
  8
0
 62
     2
 10
-488.916626
 20
76.500000
 40
2.500000
  0
CIRCLE
  8
0
 10
-488.916626
 20
76.500000
 40
2.000000
  0
CIRCLE
  8
0
 10
-513.916626
 20
76.500000
 40
2.000000
  0
CIRCLE
  8
0
 10
-513.916626
 20
51.500000
 40
2.000000
  0
CIRCLE
  8
0
 10
-488.916626
 20
51.500000
 40
2.000000
  0
CIRCLE
  8
0
 10
-501.416626
 20
64.000000
 40
14.000000
  0
ARC
  8
0
 10
-483.416626
 20
109.000000
 40
2.000000
 50
0.000000
 51
90.000000
  0
ARC
  8
0
 10
-495.416626
 20
109.000000
 40
2.000000
 50
90.000000
 51
180.000000
  0
ARC
  8
0
 10
-495.416626
 20
19.000000
 40
2.000000
 50
180.000061
 51
270.000000
  0
ARC
  8
0
 10
-483.416626
 20
19.000000
 40
2.000000
 50
270.000000
 51
0.000000
  0
CIRCLE
  8
0
 10
-501.416626
 20
64.000000
 40
10.000000
  0
CIRCLE
  8
0
 10
-501.416626
 20
64.000000
 40
9.300000
  0
ARC
  8
0
 62
     4
 10
-501.416626
 20
64.000000
 40
4.000004
 50
112.331604
 51
157.668076
  0
CIRCLE
  8
0
 62
     1
 10
-501.416626
 20
64.000000
 40
3.500000
  0
ARC
  8
0
 62
     4
 10
-501.416626
 20
64.000000
 40
4.000014
 50
202.331665
 51
247.668381
  0
ARC
  8
0
 62
     4
 10
-501.416626
 20
64.000000
 40
4.000000
 50
292.331635
 51
337.668335
  0
ARC
  8
0
 62
     4
 10
-501.416626
 20
64.000000
 40
4.000014
 50
22.331659
 51
67.668358
  0
ARC
  8
0
 10
-517.416626
 20
104.544220
 40
3.655770
 50
16.785875
 51
163.214127
  0
ARC
  8
0
 10
-485.416626
 20
104.544220
 40
3.655770
 50
16.785875
 51
163.214127
  0
ARC
  8
0
 62
     2
 10
-490.921204
 20
19.500000
 40
0.500000
 50
270.000000
 51
354.999969
  0
ARC
  8
0
 10
-511.912048
 20
108.500000
 40
0.500000
 50
90.000000
 51
174.999969
  0
ARC
  8
0
 10
-489.619873
 20
105.100006
 40
0.500011
 50
185.000031
 51
270.000000
  0
ARC
  8
0
 10
-517.416626
 20
23.455772
 40
3.655770
 50
196.785904
 51
343.214172
  0
ARC
  8
0
 62
     2
 10
-511.912048
 20
19.500000
 40
0.500011
 50
185.000031
 51
270.000000
  0
ARC
  8
0
 10
-522.151001
 20
108.500000
 40
0.500000
 50
90.000000
 51
174.999969
  0
ARC
  8
0
 62
     2
 10
-489.619873
 20
22.900002
 40
0.500000
 50
90.000000
 51
175.000183
  0
ARC
  8
0
 10
-480.682251
 20
108.500000
 40
0.500011
 50
5.000035
 51
90.000000
  0
ARC
  8
0
 10
-513.213379
 20
105.100006
 40
0.500000
 50
270.000000
 51
354.999969
  0
ARC
  8
0
 10
-490.921204
 20
108.500000
 40
0.500011
 50
5.000035
 51
90.000000
  0
ARC
  8
0
 62
     2
 10
-522.151001
 20
19.500000
 40
0.500011
 50
185.000031
 51
270.000000
  0
ARC
  8
0
 10
-485.416626
 20
23.455772
 40
3.655770
 50
196.785904
 51
343.214172
  0
ARC
  8
0
 62
     2
 10
-480.682251
 20
19.500000
 40
0.500000
 50
270.000000
 51
355.000183
  0
ARC
  8
0
 62
     2
 10
-513.213379
 20
22.900002
 40
0.500011
 50
5.000035
 51
90.000000
  0
ARC
  8
0
 10
-486.166626
 20
7.612881
 40
9.387115
 50
69.743759
 51
110.256233
  0
ARC
  8
0
 10
-486.166626
 20
21.387119
 40
9.387120
 50
249.743774
 51
290.256256
  0
ARC
  8
0
 10
-492.666626
 20
7.612881
 40
9.387114
 50
69.743759
 51
110.256226
  0
ARC
  8
0
 10
-492.666626
 20
21.387119
 40
9.387122
 50
249.743576
 51
290.256042
  0
ARC
  8
0
 10
-486.166626
 20
106.612885
 40
9.387115
 50
69.743759
 51
110.256226
  0
ARC
  8
0
 10
-486.166626
 20
120.387115
 40
9.387123
 50
249.743774
 51
290.256226
  0
ARC
  8
0
 10
-492.666626
 20
120.387115
 40
9.387123
 50
249.743774
 51
290.256226
  0
ARC
  8
0
 10
-492.666626
 20
106.612885
 40
9.387113
 50
69.743950
 51
110.256432
  0
CIRCLE
  8
0
 62
     4
 10
-501.416626
 20
64.000000
 40
6.500000
  0
ARC
  8
0
 62
     4
 10
-476.216614
 20
91.000000
 40
5.000002
 50
330.507721
 51
29.492359
  0
ARC
  8
0
 62
     4
 10
-472.444794
 20
93.133331
 40
0.666674
 50
29.491623
 51
90.000000
  0
ARC
  8
0
 62
     4
 10
-472.444794
 20
88.866661
 40
0.666664
 50
270.000000
 51
330.508362
  0
ARC
  8
0
 62
     4
 10
-478.166626
 20
73.312500
 40
0.812500
 50
202.619858
 51
337.380127
  0
ARC
  8
0
 62
     4
 10
-476.666626
 20
73.312500
 40
0.812500
 50
202.619858
 51
337.380127
  0
ARC
  8
0
 62
     4
 10
-478.166626
 20
72.687500
 40
0.812500
 50
22.619865
 51
157.380142
  0
ARC
  8
0
 62
     4
 10
-476.216614
 20
37.000004
 40
5.000006
 50
330.507629
 51
29.492283
  0
ARC
  8
0
 62
     4
 10
-472.444794
 20
34.866669
 40
0.666668
 50
270.000000
 51
330.508087
  0
ARC
  8
0
 62
     4
 10
-472.444794
 20
39.133335
 40
0.666676
 50
29.491909
 51
90.000000
  0
ARC
  8
0
 62
     4
 10
-478.166626
 20
54.687500
 40
0.812500
 50
22.619865
 51
157.380142
  0
ARC
  8
0
 62
     4
 10
-476.666626
 20
54.687500
 40
0.812500
 50
22.619865
 51
157.380142
  0
ARC
  8
0
 62
     4
 10
-478.166626
 20
55.312500
 40
0.812500
 50
202.619858
 51
337.380127
  0
CIRCLE
  8
0
 62
     2
 10
-123.083374
 20
95.500000
 40
5.000000
  0
CIRCLE
  8
0
 62
     2
 10
-123.083374
 20
32.500000
 40
5.000000
  0
CIRCLE
  8
0
 10
-123.083374
 20
32.500000
 40
4.250000
  0
CIRCLE
  8
0
 10
-123.083374
 20
95.500000
 40
4.250000
  0
ARC
  8
0
 10
-133.083374
 20
19.000000
 40
2.000000
 50
179.999939
 51
270.000000
  0
ARC
  8
0
 10
-99.083374
 20
23.455772
 40
3.655769
 50
196.785812
 51
343.214081
  0
ARC
  8
0
 10
-104.587952
 20
19.500000
 40
0.500000
 50
270.000000
 51
354.999878
  0
ARC
  8
0
 10
-94.348969
 20
19.500000
 40
0.500000
 50
270.000000
 51
354.999878
  0
ARC
  8
0
 10
-135.817749
 20
19.500000
 40
0.499995
 50
184.999969
 51
270.000000
  0
ARC
  8
0
 10
-125.578796
 20
19.500000
 40
0.500003
 50
185.000107
 51
270.000000
  0
ARC
  8
0
 10
-103.286652
 20
22.900002
 40
0.500000
 50
90.000000
 51
174.999893
  0
ARC
  8
0
 10
-126.880127
 20
22.900002
 40
0.500003
 50
4.999893
 51
90.000000
  0
ARC
  8
0
 10
-121.083374
 20
19.000000
 40
2.000000
 50
270.000000
 51
359.999939
  0
ARC
  8
0
 10
-131.083374
 20
23.455772
 40
3.655769
 50
196.785812
 51
343.214081
  0
ARC
  8
0
 10
-126.880127
 20
105.100006
 40
0.500000
 50
270.000000
 51
354.999878
  0
ARC
  8
0
 10
-103.286652
 20
105.100006
 40
0.500003
 50
185.000107
 51
270.000000
  0
ARC
  8
0
 10
-121.083374
 20
109.000000
 40
2.000000
 50
0.000000
 51
90.000000
  0
ARC
  8
0
 10
-131.083374
 20
104.544220
 40
3.655770
 50
16.785875
 51
163.214127
  0
ARC
  8
0
 10
-99.083374
 20
104.544220
 40
3.655770
 50
16.785875
 51
163.214127
  0
ARC
  8
0
 10
-133.083374
 20
109.000000
 40
2.000000
 50
90.000000
 51
180.000000
  0
ARC
  8
0
 10
-135.817749
 20
108.500000
 40
0.500000
 50
90.000000
 51
174.999817
  0
ARC
  8
0
 10
-94.348969
 20
108.500000
 40
0.500003
 50
5.000111
 51
90.000000
  0
ARC
  8
0
 10
-125.578796
 20
108.500000
 40
0.500000
 50
90.000000
 51
174.999893
  0
ARC
  8
0
 10
-104.587952
 20
108.500000
 40
0.500003
 50
5.000111
 51
90.000000
  0
ARC
  8
0
 10
-115.083374
 20
64.000000
 40
22.499998
 50
32.387497
 51
77.153519
  0
ARC
  8
0
 10
-115.083374
 20
64.000000
 40
22.499998
 50
212.387527
 51
257.158722
  0
CIRCLE
  8
0
 62
     2
 10
-115.083374
 20
64.000000
 40
5.000000
  0
CIRCLE
  8
0
 10
-115.083374
 20
64.000000
 40
4.250000
  0
CIRCLE
  8
0
 10
-102.583374
 20
76.500000
 40
3.500000
  0
CIRCLE
  8
0
 10
-102.583374
 20
51.500000
 40
3.500000
  0
CIRCLE
  8
0
 10
-127.583374
 20
51.500000
 40
3.500000
  0
CIRCLE
  8
0
 10
-127.583374
 20
76.500000
 40
3.500000
  0
CIRCLE
  8
0
 10
-102.583374
 20
51.500000
 40
3.000000
  0
CIRCLE
  8
0
 10
-127.583374
 20
51.500000
 40
3.000000
  0
CIRCLE
  8
0
 10
-127.583374
 20
76.500000
 40
3.000000
  0
CIRCLE
  8
0
 10
-102.583374
 20
76.500000
 40
3.000000
  0
ARC
  8
0
 10
-123.833374
 20
106.612885
 40
9.387118
 50
69.743713
 51
110.256180
  0
ARC
  8
0
 10
-130.333374
 20
106.612885
 40
9.387117
 50
69.743866
 51
110.256340
  0
ARC
  8
0
 10
-130.333374
 20
120.387115
 40
9.387123
 50
249.743774
 51
290.256287
  0
ARC
  8
0
 10
-123.833374
 20
120.387115
 40
9.387120
 50
249.743820
 51
290.256287
  0
ARC
  8
0
 10
-123.833374
 20
7.612881
 40
9.387118
 50
69.743713
 51
110.256187
  0
ARC
  8
0
 10
-130.333374
 20
7.612881
 40
9.387116
 50
69.743713
 51
110.256226
  0
ARC
  8
0
 10
-123.833374
 20
21.387119
 40
9.387117
 50
249.743820
 51
290.256287
  0
ARC
  8
0
 10
-130.333374
 20
21.387119
 40
9.387116
 50
249.743668
 51
290.256134
  0
ARC
  8
0
 10
-115.083374
 20
64.000000
 40
12.199999
 50
308.859314
 51
51.140652
  0
ARC
  8
0
 10
-115.083374
 20
64.000000
 40
12.199997
 50
179.999969
 51
231.140656
  0
ARC
  8
0
 10
-115.083374
 20
64.000000
 40
12.199997
 50
128.859268
 51
179.999969
  0
CIRCLE
  8
0
 10
-115.083374
 20
64.000000
 40
13.200000
  0
ARC
  8
0
 62
     4
 10
-140.283386
 20
91.000000
 40
5.000002
 50
150.507721
 51
209.492355
  0
ARC
  8
0
 62
     4
 10
-144.055206
 20
88.866669
 40
0.666665
 50
209.492844
 51
270.000000
  0
ARC
  8
0
 62
     4
 10
-144.055206
 20
93.133331
 40
0.666664
 50
90.000000
 51
150.507736
  0
ARC
  8
0
 62
     4
 10
-139.833389
 20
73.312500
 40
0.812500
 50
202.619858
 51
337.380127
  0
ARC
  8
0
 62
     4
 10
-138.333389
 20
73.312500
 40
0.812500
 50
202.619858
 51
337.380127
  0
ARC
  8
0
 62
     4
 10
-139.833389
 20
72.687500
 40
0.812500
 50
22.619865
 51
157.380142
  0
ARC
  8
0
 62
     4
 10
-140.283386
 20
37.000000
 40
4.999994
 50
150.507523
 51
209.492249
  0
ARC
  8
0
 62
     4
 10
-144.055206
 20
39.133331
 40
0.666668
 50
90.000000
 51
150.507446
  0
ARC
  8
0
 62
     4
 10
-144.055206
 20
34.866665
 40
0.666663
 50
209.492554
 51
270.000000
  0
ARC
  8
0
 62
     4
 10
-139.833389
 20
54.687500
 40
0.812500
 50
22.619865
 51
157.380142
  0
ARC
  8
0
 62
     4
 10
-138.333389
 20
54.687500
 40
0.812500
 50
22.619865
 51
157.380142
  0
ARC
  8
0
 62
     4
 10
-139.833389
 20
55.312500
 40
0.812500
 50
202.619858
 51
337.380127
  0
ARC
  8
0
 10
-115.083374
 20
64.000000
 40
22.500002
 50
105.459091
 51
147.612411
  0
ARC
  8
0
 10
-115.083374
 20
64.000000
 40
22.499998
 50
285.464325
 51
327.612457
  0
ARC
  8
0
 62
     4
 10
-111.083656
 20
46.666367
 40
0.150002
 50
128.469116
 51
179.995636
  0
ARC
  8
0
 62
     4
 10
-115.082382
 20
63.997993
 40
13.350003
 50
215.629303
 51
324.370667
  0
ARC
  8
0
 62
     4
 10
-119.083672
 20
46.666977
 40
0.150002
 50
359.995636
 51
55.951878
  0
CIRCLE
  8
0
 62
     4
 10
-115.082367
 20
80.519043
 40
2.500000
  0
CIRCLE
  8
0
 62
     4
 10
-115.082367
 20
80.519043
 40
1.699997
  0
ARC
  8
0
 62
     4
 10
-111.584084
 20
41.166412
 40
0.500000
 50
269.995636
 51
359.995636
  0
ARC
  8
0
 62
     4
 10
-119.083656
 20
46.666962
 40
0.150002
 50
359.995636
 51
51.522697
  0
ARC
  8
0
 62
     4
 10
-111.083641
 20
46.666367
 40
0.149999
 50
133.433685
 51
179.995636
  0
ARC
  8
0
 62
     4
 10
-111.284103
 20
40.866394
 40
1.200001
 50
269.995636
 51
359.995636
  0
ARC
  8
0
 62
     4
 10
-118.584015
 20
42.166946
 40
0.500000
 50
179.995636
 51
269.995636
  0
ARC
  8
0
 62
     4
 10
-117.683990
 20
42.466881
 40
0.799999
 50
269.995636
 51
359.995636
  0
ARC
  8
0
 62
     4
 10
-112.483986
 20
42.466484
 40
0.800003
 50
179.995636
 51
269.995636
  0
ARC
  8
0
 62
     4
 10
-110.284035
 20
41.866318
 40
1.200001
 50
279.589844
 51
359.995636
  0
ARC
  8
0
 62
     4
 10
-118.884033
 20
41.866959
 40
1.199997
 50
179.995636
 51
269.995636
  0
ARC
  8
0
 62
     4
 10
-115.083008
 20
55.481178
 40
4.999999
 50
244.153671
 51
295.837585
  0
ARC
  8
0
 62
     4
 10
-115.083748
 20
45.681175
 40
3.000001
 50
229.258209
 51
310.733124
  0
ARC
  8
0
 62
     4
 10
-119.083641
 20
46.666962
 40
0.150002
 50
359.995636
 51
46.558067
  0
ARC
  8
0
 62
     4
 10
-111.083641
 20
46.666367
 40
0.150003
 50
138.244125
 51
179.995636
  0
ARC
  8
0
 62
     4
 10
-119.083641
 20
46.666962
 40
0.150002
 50
359.995636
 51
41.747646
  0
ARC
  8
0
 62
     4
 10
-111.084709
 20
46.666107
 40
0.150005
 50
144.356461
 51
179.992722
  0
ARC
  8
0
 62
     4
 10
-111.083641
 20
46.666367
 40
0.149997
 50
150.044388
 51
179.995636
  0
ARC
  8
0
 62
     4
 10
-119.083641
 20
46.666962
 40
0.150002
 50
359.995636
 51
29.946398
  0
ARC
  8
0
 62
     4
 10
-115.082367
 20
64.000008
 40
13.349999
 50
324.363586
 51
215.636292
  0
ARC
  8
0
 62
     4
 10
-118.580666
 20
86.831589
 40
0.500000
 50
89.995628
 51
179.995636
  0
ARC
  8
0
 62
     4
 10
-118.880646
 20
87.131607
 40
1.199997
 50
89.995628
 51
179.995636
  0
ARC
  8
0
 62
     4
 10
-111.580742
 20
85.831055
 40
0.500000
 50
359.995636
 51
89.995628
  0
ARC
  8
0
 62
     4
 10
-112.480759
 20
85.531120
 40
0.800003
 50
89.995628
 51
179.995636
  0
ARC
  8
0
 62
     4
 10
-117.680771
 20
85.531517
 40
0.800003
 50
359.995636
 51
89.995628
  0
ARC
  8
0
 62
     4
 10
-119.880722
 20
86.131683
 40
1.199997
 50
99.589882
 51
179.995636
  0
ARC
  8
0
 62
     4
 10
-111.280716
 20
86.131042
 40
1.199997
 50
359.995636
 51
89.995628
  0
ARC
  8
0
 62
     4
 10
-115.081741
 20
72.516823
 40
4.999999
 50
64.153671
 51
115.837570
  0
ARC
  8
0
 62
     4
 10
-116.880402
 20
90.516960
 40
0.800003
 50
89.995628
 51
179.995636
  0
ARC
  8
0
 62
     4
 10
-113.280396
 20
90.516685
 40
0.800003
 50
359.995636
 51
89.995628
  0
ARC
  8
0
 62
     4
 10
-119.081078
 20
81.331619
 40
0.149998
 50
304.038422
 51
359.994171
  0
ARC
  8
0
 62
     4
 10
-111.081078
 20
81.331024
 40
0.150002
 50
179.994171
 51
235.952698
  0
ARC
  8
0
 62
     4
 10
-119.081093
 20
81.331635
 40
0.149999
 50
308.470032
 51
359.994171
  0
ARC
  8
0
 62
     4
 10
-111.081093
 20
81.331039
 40
0.150002
 50
179.994171
 51
231.521790
  0
ARC
  8
0
 62
     4
 10
-119.081108
 20
81.331635
 40
0.149999
 50
313.433685
 51
359.994171
  0
ARC
  8
0
 62
     4
 10
-111.081108
 20
81.331039
 40
0.150002
 50
179.994171
 51
226.558075
  0
ARC
  8
0
 62
     4
 10
-113.284363
 20
37.481041
 40
0.799999
 50
269.995636
 51
359.995636
  0
ARC
  8
0
 62
     4
 10
-119.081108
 20
81.331635
 40
0.150005
 50
318.243042
 51
359.994171
  0
ARC
  8
0
 62
     4
 10
-111.081108
 20
81.331039
 40
0.150002
 50
179.994171
 51
221.746552
  0
ARC
  8
0
 62
     4
 10
-116.884369
 20
37.481316
 40
0.800003
 50
179.995636
 51
269.995636
  0
ARC
  8
0
 62
     4
 10
-111.083672
 20
46.666382
 40
0.150002
 50
124.037613
 51
179.995636
  0
ARC
  8
0
 62
     4
 10
-119.080040
 20
81.331894
 40
0.150002
 50
324.357635
 51
359.991272
  0
ARC
  8
0
 62
     4
 10
-119.081108
 20
81.331635
 40
0.149997
 50
330.044373
 51
359.997101
  0
ARC
  8
0
 62
     4
 10
-111.081108
 20
81.331039
 40
0.150002
 50
179.994171
 51
209.947662
  0
ARC
  8
0
 10
-336.250000
 20
-180.666672
 40
3.000000
 50
270.000000
 51
0.000000
  0
ARC
  8
0
 10
-336.250000
 20
-142.666672
 40
3.000000
 50
0.000000
 51
90.000000
  0
ARC
  8
0
 10
-374.250000
 20
-142.666672
 40
3.000000
 50
90.000000
 51
180.000000
  0
ARC
  8
0
 10
-374.250000
 20
-180.666672
 40
3.000000
 50
180.000000
 51
270.000000
  0
CIRCLE
  8
0
 10
-355.250000
 20
-149.666672
 40
6.500000
  0
CIRCLE
  8
0
 10
-355.250000
 20
-149.666672
 40
4.000000
  0
CIRCLE
  8
0
 62
     2
 10
-355.250000
 20
-149.666672
 40
3.375000
  0
ARC
  8
0
 10
-336.049988
 20
-180.866684
 40
2.500000
 50
270.000000
 51
0.000000
  0
ARC
  8
0
 10
-374.450012
 20
-180.866684
 40
2.500000
 50
180.000000
 51
270.000000
  0
ARC
  8
0
 10
-374.450012
 20
-142.466675
 40
2.500000
 50
90.000000
 51
180.000000
  0
ARC
  8
0
 10
-336.049988
 20
-142.466675
 40
2.500000
 50
0.000000
 51
90.000000
  0
ARC
  8
0
 10
-339.250000
 20
-177.666672
 40
4.500000
 50
90.000000
 51
180.000000
  0
ARC
  8
0
 10
-339.250000
 20
-145.666672
 40
4.500000
 50
180.000000
 51
270.000000
  0
ARC
  8
0
 10
-371.250000
 20
-145.666672
 40
4.500000
 50
270.000000
 51
0.000000
  0
ARC
  8
0
 10
-371.250000
 20
-177.666672
 40
4.500000
 50
0.000000
 51
90.000000
  0
CIRCLE
  8
0
 10
-339.250000
 20
-177.666672
 40
3.500000
  0
CIRCLE
  8
0
 10
-339.250000
 20
-177.666672
 40
3.800000
  0
CIRCLE
  8
0
 10
-371.250000
 20
-177.666672
 40
3.500000
  0
CIRCLE
  8
0
 10
-371.250000
 20
-177.666672
 40
3.800000
  0
CIRCLE
  8
0
 10
-339.250000
 20
-145.666672
 40
3.500000
  0
CIRCLE
  8
0
 10
-339.250000
 20
-145.666672
 40
3.800000
  0
CIRCLE
  8
0
 10
-371.250000
 20
-145.666672
 40
3.500000
  0
CIRCLE
  8
0
 10
-371.250000
 20
-145.666672
 40
3.800000
  0
ARC
  8
0
 62
     4
 10
-407.023804
 20
-161.666672
 40
12.419159
 50
359.999939
 51
17.588232
  0
ARC
  8
0
 62
     4
 10
-397.927246
 20
-156.037491
 40
3.322596
 50
325.615753
 51
34.384552
  0
ARC
  8
0
 62
     4
 10
-387.185547
 20
-161.666672
 40
12.419158
 50
162.411697
 51
180.000000
  0
ARC
  8
0
 62
     4
 10
-396.282104
 20
-156.037491
 40
3.322571
 50
145.615448
 51
214.384247
  0
ARC
  8
0
 62
     4
 10
-407.023804
 20
-161.666672
 40
12.419154
 50
342.411774
 51
0.000070
  0
ARC
  8
0
 62
     4
 10
-397.927246
 20
-167.295853
 40
3.322571
 50
325.615448
 51
34.384254
  0
ARC
  8
0
 62
     4
 10
-387.185547
 20
-161.666672
 40
12.419159
 50
180.000000
 51
197.588226
  0
ARC
  8
0
 62
     4
 10
-396.282104
 20
-167.295853
 40
3.322596
 50
145.615753
 51
214.384552
  0
ARC
  8
0
 62
     4
 10
-346.250000
 20
-136.466675
 40
5.000010
 50
60.507565
 51
119.492432
  0
ARC
  8
0
 62
     4
 10
-348.383331
 20
-132.694855
 40
0.666669
 50
119.493408
 51
180.000000
  0
ARC
  8
0
 62
     4
 10
-344.116669
 20
-132.694855
 40
0.666656
 50
0.000000
 51
60.506588
  0
CIRCLE
  8
0
 62
     4
 10
-355.250000
 20
-137.666672
 40
1.499996
  0
ARC
  8
0
 62
     4
 10
-275.750000
 20
-165.166656
 40
0.500000
 50
180.000000
 51
270.000000
  0
ARC
  8
0
 62
     4
 10
-288.723206
 20
-162.516678
 40
0.999998
 50
121.789177
 51
238.211288
  0
ARC
  8
0
 62
     4
 10
-288.723206
 20
-160.816681
 40
0.999998
 50
121.789177
 51
238.211288
  0
ARC
  8
0
 62
     4
 10
-289.776794
 20
-160.816681
 40
0.999998
 50
301.789185
 51
58.211281
  0
CIRCLE
  8
0
 62
     4
 10
-263.750000
 20
-161.666656
 40
2.000000
  0
ARC
  8
0
 62
     4
 10
-273.750000
 20
-166.166656
 40
1.000002
 50
299.999939
 51
150.000076
  0
ARC
  8
0
 62
     4
 10
-268.750000
 20
-166.166656
 40
1.000002
 50
29.999931
 51
240.000076
  0
CIRCLE
  8
0
 62
     4
 10
-271.250000
 20
-161.666656
 40
2.600006
  0
ARC
  8
0
 62
     4
 10
-266.750000
 20
-157.166656
 40
0.500000
 50
0.000000
 51
90.000000
  0
ARC
  8
0
 62
     4
 10
-275.750000
 20
-157.166656
 40
0.500000
 50
90.000000
 51
180.000000
  0
ARC
  8
0
 62
     4
 10
-266.750000
 20
-165.166656
 40
0.500000
 50
270.000000
 51
0.000000
  0
ARC
  8
0
 62
     4
 10
-442.416779
 20
-305.074738
 40
4.000011
 50
112.331558
 51
157.668274
  0
ARC
  8
0
 62
     4
 10
-442.416779
 20
-305.074738
 40
4.000011
 50
292.331573
 51
337.668274
  0
ARC
  8
0
 62
     4
 10
-442.416779
 20
-305.074738
 40
4.000011
 50
202.331558
 51
247.668442
  0
ARC
  8
0
 62
     4
 10
-442.416779
 20
-305.074738
 40
4.000011
 50
22.331558
 51
67.668442
  0
CIRCLE
  8
0
 62
     1
 10
-442.416779
 20
-305.074738
 40
2.000000
  0
CIRCLE
  8
0
 62
     4
 10
-442.416779
 20
-305.074738
 40
1.500000
  0
ARC
  8
0
 62
     4
 10
300.276794
 20
48.330956
 40
1.000005
 50
121.788948
 51
238.211044
  0
ARC
  8
0
 62
     4
 10
300.276794
 20
46.630959
 40
1.000005
 50
121.788948
 51
238.211044
  0
ARC
  8
0
 10
254.484375
 20
108.500000
 40
0.499995
 50
5.000187
 51
90.000000
  0
ARC
  8
0
 10
213.015625
 20
108.500000
 40
0.500000
 50
90.000000
 51
174.999817
  0
ARC
  8
0
 10
244.245422
 20
108.500000
 40
0.499995
 50
5.000187
 51
90.000000
  0
ARC
  8
0
 10
223.254578
 20
108.500000
 40
0.500000
 50
90.000000
 51
174.999817
  0
ARC
  8
0
 10
245.546753
 20
105.099976
 40
0.499995
 50
185.000183
 51
270.000000
  0
ARC
  8
0
 10
221.953247
 20
105.099976
 40
0.500000
 50
270.000000
 51
354.999817
  0
ARC
  8
0
 10
217.750000
 20
104.544189
 40
3.655770
 50
16.785875
 51
163.214127
  0
ARC
  8
0
 10
249.750000
 20
104.544189
 40
3.655770
 50
16.785875
 51
163.214127
  0
ARC
  8
0
 10
221.953247
 20
22.899994
 40
0.499995
 50
5.000187
 51
90.000000
  0
ARC
  8
0
 10
245.546753
 20
22.899994
 40
0.500000
 50
90.000000
 51
175.000031
  0
ARC
  8
0
 10
249.750000
 20
23.455750
 40
3.655770
 50
196.785904
 51
343.214172
  0
ARC
  8
0
 10
217.750000
 20
23.455750
 40
3.655770
 50
196.785904
 51
343.214172
  0
ARC
  8
0
 10
254.484375
 20
19.500000
 40
0.500000
 50
270.000000
 51
355.000031
  0
ARC
  8
0
 10
213.015625
 20
19.500000
 40
0.499995
 50
185.000183
 51
270.000000
  0
ARC
  8
0
 10
244.245422
 20
19.500000
 40
0.500000
 50
270.000000
 51
354.999817
  0
ARC
  8
0
 10
223.254578
 20
19.500000
 40
0.499995
 50
185.000183
 51
270.000000
  0
ARC
  8
0
 10
239.750000
 20
109.000000
 40
2.000000
 50
0.000000
 51
90.000000
  0
ARC
  8
0
 10
227.750000
 20
109.000000
 40
2.000000
 50
90.000000
 51
180.000000
  0
CIRCLE
  8
0
 10
219.750000
 20
85.000000
 40
3.300000
  0
CIRCLE
  8
0
 10
219.750000
 20
43.000000
 40
3.300000
  0
CIRCLE
  8
0
 10
219.750000
 20
43.000000
 40
5.500000
  0
CIRCLE
  8
0
 10
219.750000
 20
85.000000
 40
5.500000
  0
ARC
  8
0
 10
239.379150
 20
114.322540
 40
3.322556
 50
235.615585
 51
304.384399
  0
ARC
  8
0
 10
233.750000
 20
123.419373
 40
12.419395
 50
270.000000
 51
287.588013
  0
ARC
  8
0
 10
233.750000
 20
103.580566
 40
12.419395
 50
72.411972
 51
90.000000
  0
ARC
  8
0
 10
239.379150
 20
112.677429
 40
3.322556
 50
55.615593
 51
124.384407
  0
ARC
  8
0
 10
233.750000
 20
123.419373
 40
12.419395
 50
252.411972
 51
270.000000
  0
ARC
  8
0
 10
233.750000
 20
103.580566
 40
12.419395
 50
90.000000
 51
107.588028
  0
ARC
  8
0
 10
228.120850
 20
112.677429
 40
3.322556
 50
55.615593
 51
124.384407
  0
ARC
  8
0
 10
228.120850
 20
114.322540
 40
3.322556
 50
235.615585
 51
304.384399
  0
ARC
  8
0
 10
228.120850
 20
15.322540
 40
3.322557
 50
235.615601
 51
304.384430
  0
ARC
  8
0
 10
228.120850
 20
13.677429
 40
3.322556
 50
55.615593
 51
124.384407
  0
ARC
  8
0
 10
239.750000
 20
19.000000
 40
2.000000
 50
270.000000
 51
0.000000
  0
ARC
  8
0
 10
227.750000
 20
19.000000
 40
2.000000
 50
180.000061
 51
270.000000
  0
ARC
  8
0
 10
239.379150
 20
13.677429
 40
3.322556
 50
55.615593
 51
124.384407
  0
ARC
  8
0
 10
233.750000
 20
4.580597
 40
12.419395
 50
72.411972
 51
90.000000
  0
ARC
  8
0
 10
233.750000
 20
24.419373
 40
12.419395
 50
270.000000
 51
287.588013
  0
ARC
  8
0
 10
239.379150
 20
15.322540
 40
3.322556
 50
235.615585
 51
304.384399
  0
ARC
  8
0
 10
233.750000
 20
4.580597
 40
12.419395
 50
90.000000
 51
107.588028
  0
ARC
  8
0
 10
233.750000
 20
24.419373
 40
12.419397
 50
252.411972
 51
270.000000
  0
CIRCLE
  8
0
 62
     2
 10
262.250000
 20
64.000000
 40
5.000000
  0
CIRCLE
  8
0
 10
262.250000
 20
64.000000
 40
4.250000
  0
ARC
  8
0
 62
     4
 10
185.008362
 20
60.750000
 40
9.387006
 50
339.743561
 51
20.256481
  0
ARC
  8
0
 62
     4
 10
198.782349
 20
60.750000
 40
9.387009
 50
159.743515
 51
200.256439
  0
ARC
  8
0
 62
     4
 10
185.008362
 20
67.250000
 40
9.387009
 50
339.743530
 51
20.256437
  0
ARC
  8
0
 62
     4
 10
198.782349
 20
67.250000
 40
9.387009
 50
159.743515
 51
200.256439
  0
CIRCLE
  8
0
 62
     4
 10
242.750000
 20
90.999985
 40
2.800000
  0
ARC
  8
0
 62
     4
 10
233.000000
 20
73.312485
 40
0.812500
 50
202.619858
 51
337.380127
  0
ARC
  8
0
 62
     4
 10
234.500000
 20
73.312485
 40
0.812500
 50
202.619858
 51
337.380127
  0
ARC
  8
0
 62
     4
 10
233.000000
 20
72.687485
 40
0.812500
 50
22.619865
 51
157.380142
  0
CIRCLE
  8
0
 62
     4
 10
242.750000
 20
36.999985
 40
2.800000
  0
ARC
  8
0
 62
     4
 10
233.000000
 20
54.687485
 40
0.812500
 50
22.619865
 51
157.380142
  0
ARC
  8
0
 62
     4
 10
234.500000
 20
54.687485
 40
0.812500
 50
22.619865
 51
157.380142
  0
ARC
  8
0
 62
     4
 10
233.000000
 20
55.312485
 40
0.812500
 50
202.619858
 51
337.380127
  0
ARC
  8
0
 62
     4
 10
291.950012
 20
90.519043
 40
0.800003
 50
90.000000
 51
180.000000
  0
ARC
  8
0
 62
     4
 10
295.549988
 20
90.519043
 40
0.799988
 50
0.000000
 51
90.000000
  0
ARC
  8
0
 62
     4
 10
286.250000
 20
82.319046
 40
3.000009
 50
49.262375
 51
130.737625
  0
ARC
  8
0
 62
     4
 10
289.250000
 20
81.833542
 40
0.500000
 50
180.000000
 51
270.000000
  0
ARC
  8
0
 62
     4
 10
298.250000
 20
81.833542
 40
0.500000
 50
270.000000
 51
0.000000
  0
ARC
  8
0
 62
     4
 10
292.299988
 20
86.119041
 40
0.999989
 50
143.129745
 51
236.633636
  0
ARC
  8
0
 62
     4
 10
295.200012
 20
86.119041
 40
0.999995
 50
303.366364
 51
36.870247
  0
ARC
  8
0
 62
     4
 10
312.276794
 20
81.369041
 40
1.000005
 50
121.788948
 51
238.211044
  0
ARC
  8
0
 62
     4
 10
311.223206
 20
81.369041
 40
1.000005
 50
301.788940
 51
58.211052
  0
ARC
  8
0
 62
     4
 10
311.223206
 20
79.669044
 40
1.000005
 50
301.788940
 51
58.211052
  0
ARC
  8
0
 62
     4
 10
319.549988
 20
37.480957
 40
0.799999
 50
270.000000
 51
0.000000
  0
ARC
  8
0
 62
     4
 10
315.950012
 20
37.480957
 40
0.799988
 50
180.000000
 51
270.000000
  0
ARC
  8
0
 62
     4
 10
325.250000
 20
45.680954
 40
3.000006
 50
229.262329
 51
310.737671
  0
ARC
  8
0
 62
     4
 10
322.250000
 20
46.166458
 40
0.500000
 50
0.000000
 51
90.000000
  0
ARC
  8
0
 62
     4
 10
313.250000
 20
46.166458
 40
0.500000
 50
90.000000
 51
180.000000
  0
ARC
  8
0
 62
     4
 10
299.223206
 20
46.630959
 40
1.000005
 50
301.788940
 51
58.211052
  0
ARC
  8
0
 10
86.083374
 20
109.000000
 40
2.000000
 50
0.000000
 51
90.000000
  0
ARC
  8
0
 10
74.083374
 20
109.000000
 40
2.000000
 50
90.000000
 51
180.000000
  0
ARC
  8
0
 10
74.083374
 20
19.000000
 40
2.000000
 50
180.000061
 51
270.000000
  0
ARC
  8
0
 10
86.083374
 20
19.000000
 40
2.000000
 50
270.000000
 51
0.000000
  0
ARC
  8
0
 10
52.083374
 20
104.544189
 40
3.655770
 50
16.785875
 51
163.214127
  0
ARC
  8
0
 10
84.083374
 20
104.544189
 40
3.655770
 50
16.785875
 51
163.214127
  0
ARC
  8
0
 10
78.578796
 20
19.500000
 40
0.500000
 50
270.000000
 51
354.999878
  0
ARC
  8
0
 10
57.587952
 20
108.500000
 40
0.500000
 50
90.000000
 51
174.999847
  0
ARC
  8
0
 10
79.880127
 20
105.099976
 40
0.500003
 50
185.000107
 51
270.000000
  0
ARC
  8
0
 10
52.083374
 20
23.455750
 40
3.655770
 50
196.785904
 51
343.214172
  0
ARC
  8
0
 10
57.587952
 20
19.500000
 40
0.499999
 50
185.000153
 51
270.000000
  0
ARC
  8
0
 10
47.348999
 20
108.500000
 40
0.500000
 50
90.000000
 51
174.999847
  0
ARC
  8
0
 10
79.880127
 20
22.899994
 40
0.500000
 50
90.000000
 51
175.000107
  0
ARC
  8
0
 10
88.817749
 20
108.500000
 40
0.500003
 50
5.000111
 51
90.000000
  0
ARC
  8
0
 10
56.286621
 20
105.099976
 40
0.500000
 50
270.000000
 51
354.999847
  0
ARC
  8
0
 10
78.578796
 20
108.500000
 40
0.500003
 50
5.000111
 51
90.000000
  0
ARC
  8
0
 10
47.348999
 20
19.500000
 40
0.499999
 50
185.000153
 51
270.000000
  0
ARC
  8
0
 10
84.083374
 20
23.455750
 40
3.655770
 50
196.785904
 51
343.214172
  0
ARC
  8
0
 10
88.817749
 20
19.500000
 40
0.500000
 50
270.000000
 51
355.000092
  0
ARC
  8
0
 10
56.286621
 20
22.899994
 40
0.499999
 50
5.000149
 51
90.000000
  0
ARC
  8
0
 10
83.333374
 20
7.612854
 40
9.387118
 50
69.743713
 51
110.256187
  0
ARC
  8
0
 10
83.333374
 20
21.387115
 40
9.387117
 50
249.743820
 51
290.256287
  0
ARC
  8
0
 10
76.833374
 20
7.612854
 40
9.387116
 50
69.743713
 51
110.256187
  0
ARC
  8
0
 10
76.833374
 20
21.387115
 40
9.387116
 50
249.743668
 51
290.256134
  0
ARC
  8
0
 10
83.333374
 20
106.612854
 40
9.387118
 50
69.743713
 51
110.256180
  0
ARC
  8
0
 10
83.333374
 20
120.387085
 40
9.387120
 50
249.743820
 51
290.256287
  0
ARC
  8
0
 10
76.833374
 20
120.387085
 40
9.387120
 50
249.743820
 51
290.256287
  0
ARC
  8
0
 10
76.833374
 20
106.612854
 40
9.387117
 50
69.743866
 51
110.256340
  0
CIRCLE
  8
0
 10
98.083374
 20
49.000000
 40
2.750000
  0
CIRCLE
  8
0
 10
38.083374
 20
49.000000
 40
2.750000
  0
CIRCLE
  8
0
 10
38.083374
 20
79.000000
 40
2.750000
  0
CIRCLE
  8
0
 10
98.083374
 20
79.000000
 40
2.750000
  0
ARC
  8
0
 62
     4
 10
68.083374
 20
64.000000
 40
4.000004
 50
112.331604
 51
157.668152
  0
CIRCLE
  8
0
 62
     1
 10
68.083374
 20
64.000000
 40
3.500000
  0
ARC
  8
0
 62
     4
 10
68.083374
 20
64.000000
 40
4.000000
 50
202.331741
 51
247.668381
  0
ARC
  8
0
 62
     4
 10
68.083374
 20
64.000000
 40
4.000000
 50
292.331635
 51
337.668243
  0
ARC
  8
0
 62
     4
 10
68.083374
 20
64.000000
 40
4.000000
 50
22.331743
 51
67.668358
  0
CIRCLE
  8
0
 62
     4
 10
68.083374
 20
64.000000
 40
6.500000
  0
CIRCLE
  8
0
 10
68.083374
 20
64.000000
 40
10.000000
  0
CIRCLE
  8
0
 10
68.083374
 20
64.000000
 40
9.300000
  0
ARC
  8
0
 62
     4
 10
93.283371
 20
90.999985
 40
4.999995
 50
330.507660
 51
29.492401
  0
ARC
  8
0
 62
     4
 10
97.055199
 20
93.133316
 40
0.666668
 50
29.491947
 51
90.000000
  0
ARC
  8
0
 62
     4
 10
97.055199
 20
88.866646
 40
0.666664
 50
270.000000
 51
330.508057
  0
ARC
  8
0
 62
     4
 10
93.283371
 20
36.999989
 40
4.999999
 50
330.507599
 51
29.492283
  0
ARC
  8
0
 62
     4
 10
97.055199
 20
34.866653
 40
0.666668
 50
270.000000
 51
330.507782
  0
ARC
  8
0
 62
     4
 10
97.055199
 20
39.133320
 40
0.666670
 50
29.492231
 51
90.000000
  0
CIRCLE
  8
0
 62
     2
 10
446.416626
 20
95.500000
 40
5.000000
  0
CIRCLE
  8
0
 62
     2
 10
446.416626
 20
32.500000
 40
5.000000
  0
CIRCLE
  8
0
 10
446.416626
 20
32.500000
 40
4.250000
  0
CIRCLE
  8
0
 10
446.416626
 20
95.500000
 40
4.250000
  0
ARC
  8
0
 10
436.416626
 20
19.000000
 40
2.000000
 50
179.999939
 51
270.000000
  0
ARC
  8
0
 10
470.416626
 20
23.455750
 40
3.655769
 50
196.785812
 51
343.214081
  0
ARC
  8
0
 10
464.912048
 20
19.500000
 40
0.500000
 50
270.000000
 51
354.999969
  0
ARC
  8
0
 10
475.151031
 20
19.500000
 40
0.500000
 50
270.000000
 51
354.999969
  0
ARC
  8
0
 10
433.682251
 20
19.500000
 40
0.500010
 50
184.999817
 51
270.000000
  0
ARC
  8
0
 10
443.921204
 20
19.500000
 40
0.500011
 50
185.000031
 51
270.000000
  0
ARC
  8
0
 10
466.213348
 20
22.899994
 40
0.500000
 50
90.000000
 51
174.999969
  0
ARC
  8
0
 10
442.619873
 20
22.899994
 40
0.500010
 50
4.999817
 51
90.000000
  0
ARC
  8
0
 10
448.416626
 20
19.000000
 40
2.000000
 50
270.000000
 51
359.999939
  0
ARC
  8
0
 10
438.416626
 20
23.455750
 40
3.655769
 50
196.785812
 51
343.214081
  0
ARC
  8
0
 10
448.416626
 20
109.000000
 40
2.000000
 50
0.000000
 51
90.000000
  0
ARC
  8
0
 10
438.416626
 20
104.544189
 40
3.655770
 50
16.785875
 51
163.214127
  0
ARC
  8
0
 10
470.416626
 20
104.544189
 40
3.655770
 50
16.785875
 51
163.214127
  0
ARC
  8
0
 10
436.416626
 20
109.000000
 40
2.000000
 50
90.000000
 51
180.000000
  0
ARC
  8
0
 10
454.416626
 20
64.000000
 40
22.499992
 50
32.387508
 51
77.153481
  0
ARC
  8
0
 10
454.416626
 20
64.000000
 40
22.499998
 50
212.387527
 51
257.158722
  0
CIRCLE
  8
0
 62
     2
 10
454.416626
 20
64.000000
 40
5.000000
  0
CIRCLE
  8
0
 10
454.416626
 20
64.000000
 40
4.250000
  0
CIRCLE
  8
0
 10
466.916626
 20
76.500000
 40
3.500000
  0
CIRCLE
  8
0
 10
466.916626
 20
51.500000
 40
3.500000
  0
CIRCLE
  8
0
 10
441.916626
 20
51.500000
 40
3.500000
  0
CIRCLE
  8
0
 10
441.916626
 20
76.500000
 40
3.500000
  0
CIRCLE
  8
0
 10
466.916626
 20
51.500000
 40
3.000000
  0
CIRCLE
  8
0
 10
441.916626
 20
51.500000
 40
3.000000
  0
CIRCLE
  8
0
 10
441.916626
 20
76.500000
 40
3.000000
  0
CIRCLE
  8
0
 10
466.916626
 20
76.500000
 40
3.000000
  0
ARC
  8
0
 10
445.666626
 20
106.612854
 40
9.387115
 50
69.743759
 51
110.256226
  0
ARC
  8
0
 10
439.166626
 20
106.612854
 40
9.387113
 50
69.743950
 51
110.256432
  0
ARC
  8
0
 10
439.166626
 20
120.387085
 40
9.387123
 50
249.743774
 51
290.256226
  0
ARC
  8
0
 10
445.666626
 20
120.387085
 40
9.387123
 50
249.743774
 51
290.256226
  0
ARC
  8
0
 10
445.666626
 20
7.612854
 40
9.387115
 50
69.743759
 51
110.256233
  0
ARC
  8
0
 10
439.166626
 20
7.612854
 40
9.387114
 50
69.743759
 51
110.256226
  0
ARC
  8
0
 10
445.666626
 20
21.387115
 40
9.387120
 50
249.743774
 51
290.256256
  0
ARC
  8
0
 10
439.166626
 20
21.387115
 40
9.387122
 50
249.743576
 51
290.256042
  0
ARC
  8
0
 10
454.416626
 20
64.000000
 40
12.200008
 50
308.859375
 51
51.140625
  0
ARC
  8
0
 10
454.416626
 20
64.000000
 40
12.200012
 50
179.999969
 51
231.140625
  0
ARC
  8
0
 10
454.416626
 20
64.000000
 40
12.199992
 50
128.859238
 51
179.999969
  0
CIRCLE
  8
0
 10
454.416626
 20
64.000000
 40
13.200000
  0
ARC
  8
0
 10
433.682159
 20
108.500000
 40
0.500000
 50
90.000000
 51
174.999969
  0
ARC
  8
0
 10
475.150848
 20
108.500000
 40
0.500011
 50
5.000035
 51
90.000000
  0
ARC
  8
0
 10
442.619812
 20
105.099976
 40
0.500000
 50
270.000000
 51
354.999969
  0
ARC
  8
0
 10
466.213501
 20
105.099976
 40
0.500011
 50
185.000900
 51
270.000000
  0
ARC
  8
0
 10
464.912170
 20
108.500000
 40
0.500011
 50
5.000035
 51
90.000000
  0
ARC
  8
0
 10
443.921143
 20
108.500000
 40
0.500000
 50
90.000000
 51
174.999969
  0
ARC
  8
0
 10
424.416626
 20
79.000000
 40
4.750000
 50
32.636890
 51
341.328278
  0
CIRCLE
  8
0
 10
484.416626
 20
79.000000
 40
4.750000
  0
ARC
  8
0
 10
424.416626
 20
49.000000
 40
4.750000
 50
18.671721
 51
327.363098
  0
CIRCLE
  8
0
 10
484.416626
 20
49.000000
 40
4.750000
  0
CIRCLE
  8
0
 10
424.416626
 20
79.000000
 40
2.750000
  0
CIRCLE
  8
0
 10
484.416626
 20
79.000000
 40
2.750000
  0
CIRCLE
  8
0
 10
484.416626
 20
49.000000
 40
2.750000
  0
CIRCLE
  8
0
 10
424.416626
 20
49.000000
 40
2.750000
  0
ARC
  8
0
 62
     4
 10
429.216614
 20
90.999985
 40
5.000002
 50
150.507721
 51
209.492355
  0
ARC
  8
0
 62
     4
 10
425.444794
 20
88.866653
 40
0.666678
 50
209.492187
 51
270.000000
  0
ARC
  8
0
 62
     4
 10
425.444794
 20
93.133316
 40
0.666664
 50
90.000000
 51
150.508377
  0
ARC
  8
0
 62
     4
 10
429.666626
 20
73.312485
 40
0.812500
 50
202.619858
 51
337.380127
  0
ARC
  8
0
 62
     4
 10
431.166626
 20
73.312485
 40
0.812500
 50
202.619858
 51
337.380127
  0
ARC
  8
0
 62
     4
 10
429.666626
 20
72.687485
 40
0.812500
 50
22.619865
 51
157.380142
  0
ARC
  8
0
 62
     4
 10
429.216614
 20
36.999985
 40
5.000008
 50
150.507599
 51
209.492249
  0
ARC
  8
0
 62
     4
 10
425.444794
 20
39.133316
 40
0.666668
 50
90.000000
 51
150.508087
  0
ARC
  8
0
 62
     4
 10
425.444794
 20
34.866650
 40
0.666676
 50
209.491913
 51
270.000000
  0
ARC
  8
0
 62
     4
 10
429.666626
 20
54.687485
 40
0.812500
 50
22.619865
 51
157.380142
  0
ARC
  8
0
 62
     4
 10
431.166626
 20
54.687485
 40
0.812500
 50
22.619865
 51
157.380142
  0
ARC
  8
0
 62
     4
 10
429.666626
 20
55.312485
 40
0.812500
 50
202.619858
 51
337.380127
  0
ARC
  8
0
 62
     4
 10
454.417603
 20
63.997993
 40
13.350003
 50
215.629303
 51
324.370697
  0
ARC
  8
0
 62
     4
 10
458.418884
 20
81.331039
 40
0.149994
 50
179.994171
 51
209.947662
  0
ARC
  8
0
 62
     4
 10
450.418884
 20
81.331635
 40
0.150010
 50
330.047302
 51
359.997101
  0
ARC
  8
0
 62
     4
 10
450.419952
 20
81.331894
 40
0.149990
 50
324.354248
 51
359.991272
  0
ARC
  8
0
 62
     4
 10
458.418884
 20
81.331039
 40
0.149994
 50
179.994171
 51
221.748505
  0
ARC
  8
0
 62
     4
 10
450.418884
 20
81.331635
 40
0.150011
 50
318.244965
 51
359.994171
  0
ARC
  8
0
 62
     4
 10
458.418884
 20
81.331039
 40
0.149994
 50
179.994171
 51
226.555954
  0
ARC
  8
0
 62
     4
 10
450.418884
 20
81.331635
 40
0.149994
 50
313.431580
 51
359.994171
  0
ARC
  8
0
 62
     4
 10
458.418915
 20
81.331039
 40
0.149994
 50
179.994171
 51
231.524078
  0
ARC
  8
0
 62
     4
 10
450.418915
 20
81.331635
 40
0.150004
 50
308.472290
 51
359.994171
  0
ARC
  8
0
 62
     4
 10
458.418915
 20
81.331024
 40
0.149994
 50
179.994171
 51
235.952698
  0
ARC
  8
0
 62
     4
 10
450.418915
 20
81.331619
 40
0.149994
 50
304.036011
 51
359.994171
  0
ARC
  8
0
 62
     4
 10
456.219604
 20
90.516685
 40
0.799988
 50
359.995636
 51
89.995628
  0
ARC
  8
0
 62
     4
 10
452.619598
 20
90.516960
 40
0.800003
 50
89.995628
 51
179.995636
  0
ARC
  8
0
 62
     4
 10
454.418274
 20
72.516823
 40
5.000006
 50
64.153519
 51
115.837570
  0
ARC
  8
0
 62
     4
 10
458.219299
 20
86.131042
 40
1.200012
 50
359.995636
 51
89.995628
  0
ARC
  8
0
 62
     4
 10
449.619263
 20
86.131683
 40
1.199998
 50
99.590240
 51
179.995636
  0
ARC
  8
0
 62
     4
 10
451.819214
 20
85.531517
 40
0.799988
 50
359.995636
 51
89.995628
  0
ARC
  8
0
 62
     4
 10
457.019226
 20
85.531120
 40
0.800003
 50
89.995628
 51
179.995636
  0
ARC
  8
0
 62
     4
 10
457.919250
 20
85.831055
 40
0.500000
 50
359.995636
 51
89.996506
  0
ARC
  8
0
 62
     4
 10
450.619354
 20
87.131607
 40
1.199997
 50
89.995628
 51
179.995636
  0
ARC
  8
0
 62
     4
 10
450.919342
 20
86.831589
 40
0.500000
 50
89.996506
 51
179.995636
  0
ARC
  8
0
 62
     4
 10
454.417633
 20
64.000008
 40
13.349994
 50
324.363556
 51
215.636276
  0
ARC
  8
0
 62
     4
 10
450.416351
 20
46.666962
 40
0.149994
 50
359.995636
 51
29.946398
  0
ARC
  8
0
 62
     4
 10
458.416351
 20
46.666367
 40
0.150010
 50
150.047287
 51
179.995636
  0
ARC
  8
0
 62
     4
 10
458.415283
 20
46.666107
 40
0.149992
 50
144.353058
 51
179.992722
  0
ARC
  8
0
 62
     4
 10
450.416351
 20
46.666962
 40
0.149994
 50
359.995636
 51
41.749584
  0
ARC
  8
0
 62
     4
 10
458.416351
 20
46.666367
 40
0.150008
 50
138.246063
 51
179.995636
  0
ARC
  8
0
 62
     4
 10
450.416351
 20
46.666962
 40
0.149994
 50
359.995636
 51
46.555950
  0
ARC
  8
0
 62
     4
 10
458.416351
 20
46.666367
 40
0.149994
 50
133.431580
 51
179.995636
  0
ARC
  8
0
 62
     4
 10
450.416351
 20
46.666962
 40
0.149994
 50
359.995636
 51
51.524979
  0
ARC
  8
0
 62
     4
 10
458.416351
 20
46.666367
 40
0.150007
 50
128.471390
 51
179.995636
  0
ARC
  8
0
 62
     4
 10
450.416321
 20
46.666977
 40
0.149994
 50
359.995636
 51
55.951878
  0
ARC
  8
0
 62
     4
 10
458.416321
 20
46.666382
 40
0.149997
 50
124.035202
 51
179.995636
  0
ARC
  8
0
 62
     4
 10
452.615631
 20
37.481316
 40
0.799988
 50
179.995636
 51
269.995636
  0
ARC
  8
0
 62
     4
 10
456.215637
 20
37.481041
 40
0.799999
 50
269.995636
 51
359.995636
  0
ARC
  8
0
 62
     4
 10
454.416260
 20
45.681175
 40
2.999996
 50
229.258316
 51
310.733124
  0
ARC
  8
0
 62
     4
 10
454.416992
 20
55.481178
 40
5.000006
 50
244.153519
 51
295.837585
  0
ARC
  8
0
 62
     4
 10
450.615967
 20
41.866959
 40
1.200012
 50
179.995636
 51
269.995636
  0
ARC
  8
0
 62
     4
 10
459.215973
 20
41.866318
 40
1.200002
 50
279.590210
 51
359.995636
  0
ARC
  8
0
 62
     4
 10
457.016022
 20
42.466484
 40
0.799988
 50
179.995636
 51
269.995636
  0
ARC
  8
0
 62
     4
 10
451.816010
 20
42.466881
 40
0.799999
 50
269.995636
 51
359.995636
  0
ARC
  8
0
 62
     4
 10
450.915985
 20
42.166946
 40
0.500000
 50
179.995636
 51
269.996490
  0
ARC
  8
0
 62
     4
 10
458.215881
 20
40.866394
 40
1.200001
 50
269.995636
 51
359.995636
  0
ARC
  8
0
 62
     4
 10
457.915924
 20
41.166412
 40
0.500000
 50
269.996490
 51
359.995636
  0
CIRCLE
  8
0
 62
     4
 10
454.417633
 20
80.519043
 40
1.699997
  0
CIRCLE
  8
0
 62
     4
 10
454.417633
 20
80.519043
 40
2.500000
  0
ARC
  8
0
 10
454.416626
 20
64.000000
 40
22.500000
 50
105.459076
 51
147.612427
  0
ARC
  8
0
 10
454.416626
 20
64.000000
 40
22.500000
 50
285.464386
 51
327.612457
  0
ARC
  8
0
 10
252.750000
 20
-180.666672
 40
3.000000
 50
270.000000
 51
0.000000
  0
ARC
  8
0
 10
252.750000
 20
-142.666672
 40
3.000000
 50
0.000000
 51
90.000000
  0
ARC
  8
0
 10
214.750000
 20
-142.666672
 40
3.000000
 50
90.000000
 51
180.000000
  0
ARC
  8
0
 10
214.750000
 20
-180.666672
 40
3.000000
 50
180.000000
 51
270.000000
  0
CIRCLE
  8
0
 10
233.750000
 20
-149.666672
 40
6.500000
  0
CIRCLE
  8
0
 10
233.750000
 20
-149.666672
 40
4.000000
  0
CIRCLE
  8
0
 62
     2
 10
233.750000
 20
-149.666672
 40
3.375000
  0
ARC
  8
0
 10
252.950012
 20
-180.866684
 40
2.500000
 50
270.000000
 51
0.000000
  0
ARC
  8
0
 10
214.549988
 20
-180.866684
 40
2.500000
 50
180.000000
 51
270.000000
  0
ARC
  8
0
 10
214.549988
 20
-142.466675
 40
2.500000
 50
90.000000
 51
180.000000
  0
ARC
  8
0
 10
252.950012
 20
-142.466675
 40
2.500000
 50
0.000000
 51
90.000000
  0
ARC
  8
0
 10
249.750000
 20
-177.666672
 40
4.500000
 50
90.000000
 51
180.000000
  0
ARC
  8
0
 10
249.750000
 20
-145.666672
 40
4.500000
 50
180.000000
 51
270.000000
  0
ARC
  8
0
 10
217.750000
 20
-145.666672
 40
4.500000
 50
270.000000
 51
0.000000
  0
ARC
  8
0
 10
217.750000
 20
-177.666672
 40
4.500000
 50
0.000000
 51
90.000000
  0
CIRCLE
  8
0
 10
249.750000
 20
-177.666672
 40
3.500000
  0
CIRCLE
  8
0
 10
249.750000
 20
-177.666672
 40
3.800000
  0
CIRCLE
  8
0
 10
217.750000
 20
-177.666672
 40
3.500000
  0
CIRCLE
  8
0
 10
217.750000
 20
-177.666672
 40
3.800000
  0
CIRCLE
  8
0
 10
249.750000
 20
-145.666672
 40
3.500000
  0
CIRCLE
  8
0
 10
249.750000
 20
-145.666672
 40
3.800000
  0
CIRCLE
  8
0
 10
217.750000
 20
-145.666672
 40
3.500000
  0
CIRCLE
  8
0
 10
217.750000
 20
-145.666672
 40
3.800000
  0
ARC
  8
0
 62
     4
 10
181.976196
 20
-161.666672
 40
12.419144
 50
359.999939
 51
17.588253
  0
ARC
  8
0
 62
     4
 10
191.072754
 20
-156.037491
 40
3.322584
 50
325.615601
 51
34.384403
  0
ARC
  8
0
 62
     4
 10
201.814453
 20
-161.666672
 40
12.419144
 50
162.411682
 51
180.000000
  0
ARC
  8
0
 62
     4
 10
192.717896
 20
-156.037491
 40
3.322584
 50
145.615601
 51
214.384399
  0
ARC
  8
0
 62
     4
 10
181.976196
 20
-161.666672
 40
12.419154
 50
342.411774
 51
0.000070
  0
ARC
  8
0
 62
     4
 10
191.072754
 20
-167.295853
 40
3.322584
 50
325.615601
 51
34.384403
  0
ARC
  8
0
 62
     4
 10
201.814453
 20
-161.666672
 40
12.419144
 50
180.000000
 51
197.588257
  0
ARC
  8
0
 62
     4
 10
192.717896
 20
-167.295853
 40
3.322584
 50
145.615601
 51
214.384399
  0
ARC
  8
0
 62
     4
 10
242.750000
 20
-136.466675
 40
5.000002
 50
60.507717
 51
119.492279
  0
ARC
  8
0
 62
     4
 10
240.616669
 20
-132.694855
 40
0.666661
 50
119.492271
 51
180.000000
  0
ARC
  8
0
 62
     4
 10
244.883331
 20
-132.694855
 40
0.666672
 50
0.000000
 51
60.507732
  0
CIRCLE
  8
0
 62
     4
 10
233.750000
 20
-137.666672
 40
1.499996
  0
CIRCLE
  8
0
 62
     4
 10
317.750000
 20
-161.666656
 40
2.600006
  0
ARC
  8
0
 62
     4
 10
322.250000
 20
-157.166656
 40
0.500000
 50
0.000000
 51
90.000000
  0
ARC
  8
0
 62
     4
 10
313.250000
 20
-157.166656
 40
0.500000
 50
90.000000
 51
180.000000
  0
ARC
  8
0
 62
     4
 10
322.250000
 20
-165.166656
 40
0.500000
 50
270.000000
 51
0.000000
  0
ARC
  8
0
 62
     4
 10
313.250000
 20
-165.166656
 40
0.500000
 50
180.000000
 51
270.000000
  0
ARC
  8
0
 62
     4
 10
320.250000
 20
-166.166656
 40
1.000002
 50
29.999931
 51
240.000076
  0
ARC
  8
0
 62
     4
 10
315.250000
 20
-166.166656
 40
1.000002
 50
299.999939
 51
150.000076
  0
CIRCLE
  8
0
 62
     4
 10
325.250000
 20
-161.666656
 40
2.000000
  0
ARC
  8
0
 62
     4
 10
299.223206
 20
-160.816681
 40
0.999998
 50
301.789185
 51
58.211281
  0
ARC
  8
0
 62
     4
 10
300.276794
 20
-160.816681
 40
0.999998
 50
121.789177
 51
238.211288
  0
ARC
  8
0
 62
     4
 10
300.276794
 20
-162.516678
 40
0.999998
 50
121.789177
 51
238.211288
  0
ARC
  8
0
 62
     4
 10
154.583374
 20
-305.074524
 40
4.000011
 50
112.331558
 51
157.668365
  0
CIRCLE
  8
0
 62
     1
 10
154.583374
 20
-305.074524
 40
3.500000
  0
ARC
  8
0
 62
     4
 10
154.583374
 20
-305.074524
 40
3.999997
 50
202.331635
 51
247.668442
  0
ARC
  8
0
 62
     4
 10
154.583374
 20
-305.074524
 40
4.000011
 50
292.331573
 51
337.668365
  0
ARC
  8
0
 62
     4
 10
154.583374
 20
-305.074524
 40
3.999997
 50
22.331642
 51
67.668442
  0
ARC
  8
0
 62
     4
 10
154.583374
 20
-305.074524
 40
4.000011
 50
112.331558
 51
157.668365
  0
ARC
  8
0
 62
     4
 10
154.583374
 20
-305.074524
 40
4.000011
 50
292.331573
 51
337.668365
  0
ARC
  8
0
 62
     4
 10
154.583374
 20
-305.074524
 40
3.999997
 50
202.331635
 51
247.668442
  0
ARC
  8
0
 62
     4
 10
154.583374
 20
-305.074524
 40
3.999997
 50
22.331642
 51
67.668442
  0
CIRCLE
  8
0
 62
     1
 10
154.583374
 20
-305.074524
 40
2.000000
  0
CIRCLE
  8
0
 62
     4
 10
154.583374
 20
-305.074524
 40
1.500000
  0
TEXT
  8
0
 10
-507.285156
 20
375.250000
 40
12.500000
  1
SWING CYL
 50
0.000000
 41
1.052632
 51
0.000000
  7
STANDARD
  0
TEXT
  8
0
 10
-542.285156
 20
330.250000
 40
12.500000
  1
MODEL:SDA25*25-45(90)
 50
0.000000
 41
1.052632
 51
0.000000
  7
STANDARD
  0
TEXT
  8
0
 10
364.214844
 20
375.250000
 40
12.500000
  1
DATE: JUL ,1993
 50
0.000000
 41
1.052632
 51
0.000000
  7
STANDARD
  0
TEXT
  8
0
 10
345.179352
 20
-400.700012
 40
18.000000
  1
KOGANEI CORP.
 50
0.000000
 41
1.052632
 51
0.000000
  7
STANDARD
  0
TEXT
  8
0
 10
27.214844
 20
330.250000
 40
12.500000
  1
MODEL:SDA25*25-45(90)-3
 50
0.000000
 41
1.052632
 51
0.000000
  7
STANDARD
  0
TEXT
  8
0
 10
-533.285156
 20
290.250000
 40
12.500000
  1
STROKE:15,25,50
 50
0.000000
 41
1.052632
 51
0.000000
  7
STANDARD
  0
TEXT
  8
0
 10
-533.285156
 20
310.250000
 40
12.500000
  1
(WITH SENSOR SWITCH)
 50
0.000000
 41
1.052632
 51
0.000000
  7
STANDARD
  0
TEXT
  8
0
 10
36.214844
 20
290.250000
 40
12.500000
  1
STROKE:15,25,50
 50
0.000000
 41
1.052632
 51
0.000000
  7
STANDARD
  0
TEXT
  8
0
 10
36.214844
 20
310.250000
 40
12.500000
  1
(WITH SENSOR SWITCH)
 50
0.000000
 41
1.052632
 51
0.000000
  7
STANDARD
  0
TEXT
  8
0
 10
212.690948
 20
-364.793915
 40
9.000000
  1
N
 50
0.000000
 41
1.052632
 51
0.000000
  7
STANDARD
  0
TEXT
  8
0
 10
-374.142426
 20
-364.793915
 40
9.000000
  1
N
 50
0.000000
 41
1.052632
 51
0.000000
  7
STANDARD
  0
TEXT
  8
0
 62
     2
 10
233.714279
 20
164.472214
 40
9.000000
  1
133+ST
 50
0.000000
 41
1.052632
 51
0.000000
  7
STANDARD
  0
LINE
  8
0
 62
     2
 10
340.749969
 20
163.472214
 11
182.750000
 21
163.472214
  0
LINE
  8
0
 62
     2
 10
340.749969
 20
163.472214
 11
337.852203
 21
162.695755
  0
LINE
  8
0
 62
     2
 10
340.749969
 20
163.472214
 11
337.852203
 21
164.248672
  0
LINE
  8
0
 62
     2
 10
182.750000
 20
163.472214
 11
185.647781
 21
164.248672
  0
LINE
  8
0
 62
     2
 10
182.750000
 20
163.472214
 11
185.647781
 21
162.695755
  0
LINE
  8
0
 62
     2
 10
340.749969
 20
73.500000
 11
340.749969
 21
164.972214
  0
LINE
  8
0
 62
     2
 10
182.750000
 20
67.199997
 11
182.750000
 21
164.972214
  0
TEXT
  8
0
 62
     2
 10
-355.785706
 20
164.472214
 40
9.000000
  1
133+ST
 50
0.000000
 41
1.052632
 51
0.000000
  7
STANDARD
  0
LINE
  8
0
 62
     2
 10
-248.750031
 20
163.472214
 11
-406.750000
 21
163.472214
  0
LINE
  8
0
 62
     2
 10
-248.750031
 20
163.472214
 11
-251.647812
 21
162.695755
  0
LINE
  8
0
 62
     2
 10
-248.750031
 20
163.472214
 11
-251.647812
 21
164.248672
  0
LINE
  8
0
 62
     2
 10
-406.750000
 20
163.472214
 11
-403.852234
 21
164.248672
  0
LINE
  8
0
 62
     2
 10
-406.750000
 20
163.472214
 11
-403.852234
 21
162.695755
  0
LINE
  8
0
 62
     2
 10
-248.750031
 20
73.500000
 11
-248.750031
 21
164.972214
  0
LINE
  8
0
 62
     2
 10
-406.750000
 20
67.199997
 11
-406.750000
 21
164.972214
  0
TEXT
  8
0
 62
     2
 10
274.714294
 20
144.472214
 40
9.000000
  1
60+ST
 50
0.000000
 41
1.052632
 51
0.000000
  7
STANDARD
  0
LINE
  8
0
 62
     2
 10
340.750000
 20
143.472214
 11
255.750000
 21
143.472214
  0
LINE
  8
0
 62
     2
 10
340.750000
 20
143.472214
 11
337.852234
 21
142.695755
  0
LINE
  8
0
 62
     2
 10
340.750000
 20
143.472214
 11
337.852234
 21
144.248672
  0
LINE
  8
0
 62
     2
 10
255.750000
 20
143.472214
 11
258.647766
 21
144.248672
  0
LINE
  8
0
 62
     2
 10
255.750000
 20
143.472214
 11
258.647766
 21
142.695755
  0
LINE
  8
0
 62
     2
 10
340.750000
 20
73.500000
 11
340.750000
 21
144.972214
  0
LINE
  8
0
 62
     2
 10
255.750000
 20
102.000000
 11
255.750000
 21
144.972214
  0
TEXT
  8
0
 62
     2
 10
-314.785706
 20
144.472214
 40
9.000000
  1
60+ST
 50
0.000000
 41
1.052632
 51
0.000000
  7
STANDARD
  0
LINE
  8
0
 62
     2
 10
-248.750000
 20
143.472214
 11
-333.750000
 21
143.472214
  0
LINE
  8
0
 62
     2
 10
-248.750000
 20
143.472214
 11
-251.647781
 21
142.695755
  0
LINE
  8
0
 62
     2
 10
-248.750000
 20
143.472214
 11
-251.647781
 21
144.248672
  0
LINE
  8
0
 62
     2
 10
-333.750000
 20
143.472214
 11
-330.852234
 21
144.248672
  0
LINE
  8
0
 62
     2
 10
-333.750000
 20
143.472214
 11
-330.852234
 21
142.695755
  0
LINE
  8
0
 62
     2
 10
-248.750000
 20
73.500000
 11
-248.750000
 21
144.972214
  0
LINE
  8
0
 62
     2
 10
-333.750000
 20
102.000000
 11
-333.750000
 21
144.972214
  0
ENDSEC
  0
EOF
