  0
SECTION
  2
HEADER
  0
ENDSEC
  0
SECTION
  2
TABLES
  0
TABLE
  2
LTYPE
 70
     4
  0
LTYPE
  2
CONTINUOUS
 70
    64
  3
Solid line
 72
    65
 73
     0
 40
0.000000
  0
LTYPE
  2
DASHED
 70
    64
  3
__ __ __ __ __ __ __ __ __ __ __ __ __ __ __
 72
    65
 73
     2
 40
3.500000
 49
2.000000
 49
-1.500000
  0
LTYPE
  2
CENTER
 70
    64
  3
____ _ ____ _ ____ _ ____ _ ____ _ ____ _ ____
 72
    65
 73
     4
 40
17.500000
 49
13.000000
 49
-1.500000
 49
1.500000
 49
-1.500000
  0
LTYPE
  2
PHANTOM
 70
    64
  3
_____ _ _ _____ _ _ _____ _ _ _____ _ _ ____  
 72
    65
 73
     6
 40
15.500000
 49
8.000000
 49
-1.500000
 49
1.500000
 49
-1.500000
 49
1.500000
 49
-1.500000
  0
LTYPE
  2
DASHED1
 70
    64
  3
__ __ __ __ __ __ __ __ __ __ __ __ __ __ __
 72
    65
 73
     2
 40
1.500000
 49
1.000000
 49
-0.500000
  0
LTYPE
  2
DASHED2
 70
    64
  3
__ __ __ __ __ __ __ __ __ __ __ __ __ __ __
 72
    65
 73
     2
 40
3.500000
 49
2.500000
 49
-1.000000
  0
LTYPE
  2
DASHED3
 70
    64
  3
__ __ __ __ __ __ __ __ __ __ __ __ __ __ __
 72
    65
 73
     2
 40
6.000000
 49
4.000000
 49
-2.000000
  0
LTYPE
  2
DASHED4
 70
    64
  3
__ __ __ __ __ __ __ __ __ __ __ __ __ __ __
 72
    65
 73
     2
 40
12.000000
 49
10.000000
 49
-2.000000
  0
LTYPE
  2
DASHED5
 70
    64
  3
__ __ __ __ __ __ __ __ __ __ __ __ __ __ __
 72
    65
 73
     2
 40
17.000000
 49
15.000000
 49
-2.000000
  0
LTYPE
  2
DASHED6
 70
    64
  3
__ __ __ __ __ __ __ __ __ __ __ __ __ __ __
 72
    65
 73
     2
 40
29.000000
 49
27.000000
 49
-2.000000
  0
LTYPE
  2
PHANTOM1
 70
    64
  3
_____ _ _ _____ _ _ _____ _ _ _____ _ _ ____  
 72
    65
 73
     6
 40
31.000000
 49
25.000000
 49
-1.500000
 49
1.000000
 49
-1.000000
 49
1.000000
 49
-1.500000
  0
LTYPE
  2
PHANTOM2
 70
    64
  3
_____ _ _ _____ _ _ _____ _ _ _____ _ _ ____  
 72
    65
 73
     6
 40
36.000000
 49
27.000000
 49
-1.500000
 49
2.500000
 49
-1.000000
 49
2.500000
 49
-1.500000
  0
LTYPE
  2
PHANTOM3
 70
    64
  3
_____ _ _ _____ _ _ _____ _ _ _____ _ _ ____  
 72
    65
 73
     6
 40
78.000000
 49
64.000000
 49
-2.000000
 49
4.000000
 49
-2.000000
 49
4.000000
 49
-2.000000
  0
LTYPE
  2
CENTER1
 70
    64
  3
____ _ ____ _ ____ _ ____ _ ____ _ ____ _ ____
 72
    65
 73
     4
 40
19.000000
 49
14.000000
 49
-1.000000
 49
3.000000
 49
-1.000000
  0
LTYPE
  2
CENTER2
 70
    64
  3
____ _ ____ _ ____ _ ____ _ ____ _ ____ _ ____
 72
    65
 73
     4
 40
28.500000
 49
25.000000
 49
-1.000000
 49
1.500000
 49
-1.000000
  0
LTYPE
  2
CENTER3
 70
    64
  3
____ _ ____ _ ____ _ ____ _ ____ _ ____ _ ____
 72
    65
 73
     4
 40
31.500000
 49
27.000000
 49
-1.000000
 49
2.500000
 49
-1.000000
  0
LTYPE
  2
CENTER4
 70
    64
  3
____ _ ____ _ ____ _ ____ _ ____ _ ____ _ ____
 72
    65
 73
     4
 40
50.000000
 49
45.000000
 49
-1.000000
 49
3.000000
 49
-1.000000
  0
LTYPE
  2
CENTER5
 70
    64
  3
____ _ ____ _ ____ _ ____ _ ____ _ ____ _ ____
 72
    65
 73
     4
 40
100.000000
 49
92.000000
 49
-2.000000
 49
4.000000
 49
-2.000000
  0
LTYPE
  2
SBK1
 70
    64
  3
______ _ _ _ ______ _ _ _ ______ _ _ _ _____  
 72
    65
 73
     8
 40
60.500000
 49
45.000000
 49
-2.000000
 49
2.500000
 49
-2.000000
 49
2.500000
 49
-2.000000
 49
2.500000
 49
-2.000000
  0
LTYPE
  2
SBK2
 70
    64
  3
______ _ _ _ ______ _ _ _ ______ _ _ _ _____  
 72
    65
 73
     8
 40
84.000000
 49
64.000000
 49
-2.000000
 49
4.000000
 49
-2.000000
 49
4.000000
 49
-2.000000
 49
4.000000
 49
-2.000000
  0
LTYPE
  2
STCH
 70
    64
  3
__ __ __ __ __ __ __ __ __ __ __ __ __ __ __
 72
    65
 73
     2
 40
3.000000
 49
1.000000
 49
-2.000000
  0
LTYPE
  2
MTCH
 70
    64
  3
_____ _ _ _____ _ _ _____ _ _ _____ _ _ ____  
 72
    65
 73
     6
 40
80.000000
 49
66.000000
 49
-2.000000
 49
4.000000
 49
-2.000000
 49
4.000000
 49
-2.000000
  0
ENDTAB
  0
TABLE
  2
LAYER
 70
     1
  0
LAYER
  2
0
 70
     0
 62
     7
  6
CONTINUOUS
  0
ENDTAB
  0
TABLE
  2
STYLE
 70
     1
  0
STYLE
  2
STANDARD
 70
     0
 40
0.000000
 41
1.000000
 50
0.000000
 71
     0
 42
0.200000
  3
txt
  4
BIGFONT
  0
ENDTAB
  0
TABLE
  2
VIEW
 70
     0
  0
ENDTAB
  0
ENDSEC
  0
SECTION
  2
BLOCKS
  0
ENDSEC
  0
SECTION
  2
ENTITIES
  0
LINE
  8
0
 10
399.799988
 20
276.250000
 11
399.799988
 21
-276.750000
  0
LINE
  8
0
 10
-399.250000
 20
276.250000
 11
-399.250000
 21
-276.750000
  0
LINE
  8
0
 10
-399.250000
 20
276.250000
 11
399.799988
 21
276.250000
  0
LINE
  8
0
 10
-399.250000
 20
-276.750000
 11
399.799988
 21
-276.750000
  0
LINE
  8
0
 10
239.799988
 20
-251.750000
 11
399.799988
 21
-251.750000
  0
LINE
  8
0
 10
239.799988
 20
251.250000
 11
399.799988
 21
251.250000
  0
LINE
  8
0
 10
-399.250000
 20
251.250000
 11
-239.250000
 21
251.250000
  0
LINE
  8
0
 10
239.799988
 20
-251.750000
 11
239.799988
 21
-276.750000
  0
LINE
  8
0
 10
239.799988
 20
251.250000
 11
239.799988
 21
276.250000
  0
LINE
  8
0
 10
-239.250000
 20
276.250000
 11
-239.250000
 21
251.250000
  0
LINE
  8
0
  6
CENTER
 62
     2
 10
-41.873260
 20
-120.000000
 11
314.399994
 21
-120.000000
  0
LINE
  8
0
 10
100.000000
 20
-18.000000
 11
100.000000
 21
-222.000000
  0
LINE
  8
0
  6
CENTER
 62
     2
 10
118.500000
 20
-12.759338
 11
118.500000
 21
-131.300003
  0
LINE
  8
0
 10
287.404877
 20
-119.250000
 11
297.595062
 21
-119.250000
  0
LINE
  8
0
 10
287.404877
 20
-120.750000
 11
297.595062
 21
-120.750000
  0
LINE
  8
0
  6
CENTER
 62
     2
 10
292.499969
 20
-11.510635
 11
292.499969
 21
-133.000000
  0
LINE
  8
0
 10
310.999969
 20
-18.000000
 11
310.999969
 21
-222.000000
  0
LINE
  8
0
 10
113.404907
 20
-119.250000
 11
123.595093
 21
-119.250000
  0
LINE
  8
0
 10
113.404907
 20
-120.750000
 11
123.595093
 21
-120.750000
  0
LINE
  8
0
 10
139.000000
 20
-18.000000
 11
139.000000
 21
-222.000000
  0
LINE
  8
0
 10
271.999969
 20
-18.000000
 11
271.999969
 21
-222.000000
  0
LINE
  8
0
  6
DASHED
 62
     2
 10
305.721069
 20
-18.000038
 11
305.228577
 21
-32.100052
  0
LINE
  8
0
  6
DASHED
 62
     2
 10
279.772034
 20
-32.100021
 11
279.279358
 21
-18.000000
  0
LINE
  8
0
  6
DASHED
 62
     2
 10
280.999969
 20
-19.500000
 11
303.999969
 21
-19.500000
  0
LINE
  8
0
  6
DASHED
 62
     2
 10
280.999969
 20
-19.500000
 11
280.999969
 21
-32.100006
  0
LINE
  8
0
  6
DASHED
 62
     2
 10
303.999969
 20
-19.500000
 11
303.999969
 21
-32.100006
  0
LINE
  8
0
  6
DASHED
 62
     2
 10
305.720581
 20
-18.000177
 11
304.000092
 21
-19.500158
  0
LINE
  8
0
  6
DASHED
 62
     2
 10
279.279694
 20
-17.999767
 11
281.000183
 21
-19.499769
  0
LINE
  8
0
 10
90.000000
 20
-63.500000
 11
90.000000
 21
-176.500000
  0
LINE
  8
0
 10
91.000000
 20
-62.500000
 11
91.000000
 21
-177.500000
  0
LINE
  8
0
 10
91.000000
 20
-177.500000
 11
100.000000
 21
-177.500000
  0
LINE
  8
0
 10
91.000000
 20
-62.500000
 11
100.000000
 21
-62.500000
  0
LINE
  8
0
 10
89.999985
 20
-63.499985
 11
90.999985
 21
-62.499981
  0
LINE
  8
0
 10
90.000008
 20
-176.500000
 11
91.000008
 21
-177.500000
  0
LINE
  8
0
 10
60.000000
 20
-87.000000
 11
60.000000
 21
-153.000000
  0
LINE
  8
0
 10
87.000000
 20
-73.000000
 11
87.000000
 21
-78.766029
  0
LINE
  8
0
 10
87.000000
 20
-73.000000
 11
90.000000
 21
-73.000000
  0
LINE
  8
0
 10
87.000000
 20
-167.000000
 11
90.000000
 21
-167.000000
  0
LINE
  8
0
 10
79.999985
 20
-85.259270
 11
61.038452
 21
-85.961548
  0
LINE
  8
0
 10
61.038464
 20
-154.038361
 11
80.000000
 21
-154.740646
  0
LINE
  8
0
 10
81.000000
 20
-145.233978
 11
90.000000
 21
-145.233978
  0
LINE
  8
0
 10
81.000000
 20
-161.233978
 11
90.000000
 21
-161.233978
  0
LINE
  8
0
 10
80.000000
 20
-146.233978
 11
80.000000
 21
-160.233978
  0
LINE
  8
0
 10
79.999969
 20
-146.233932
 11
80.999962
 21
-145.233932
  0
LINE
  8
0
 10
81.000015
 20
-161.234009
 11
80.000015
 21
-160.234009
  0
LINE
  8
0
 10
81.000008
 20
-145.233978
 11
81.000008
 21
-161.233978
  0
LINE
  8
0
 10
81.000000
 20
-94.766029
 11
90.000000
 21
-94.766029
  0
LINE
  8
0
 10
80.000000
 20
-79.766029
 11
80.000000
 21
-93.766029
  0
LINE
  8
0
 10
80.999992
 20
-94.766045
 11
79.999992
 21
-93.766045
  0
LINE
  8
0
 10
81.000008
 20
-78.766022
 11
81.000008
 21
-94.766022
  0
LINE
  8
0
 10
79.999992
 20
-79.766006
 11
80.999985
 21
-78.766006
  0
LINE
  8
0
 10
81.000000
 20
-78.766029
 11
90.000000
 21
-78.766029
  0
LINE
  8
0
 10
87.000000
 20
-161.233978
 11
87.000000
 21
-167.000000
  0
LINE
  8
0
 10
87.000000
 20
-94.766029
 11
87.000000
 21
-145.233978
  0
LINE
  8
0
 10
100.000000
 20
-18.000000
 11
139.000000
 21
-18.000000
  0
LINE
  8
0
  6
CENTER
 62
     2
 10
60.274483
 20
-39.000000
 11
353.682465
 21
-39.000000
  0
LINE
  8
0
 10
81.755318
 20
-23.415298
 11
95.400002
 21
-23.415298
  0
LINE
  8
0
 10
81.822128
 20
-54.592224
 11
95.400002
 21
-54.592224
  0
LINE
  8
0
 10
95.400002
 20
-54.000000
 11
100.000000
 21
-54.000000
  0
LINE
  8
0
 10
95.400002
 20
-24.000000
 11
100.000000
 21
-24.000000
  0
LINE
  8
0
 10
95.400002
 20
-23.415298
 11
95.400002
 21
-54.592224
  0
LINE
  8
0
 10
80.400002
 20
-25.762787
 11
80.400002
 21
-52.129013
  0
LINE
  8
0
 10
81.772018
 20
-31.209534
 11
95.400002
 21
-31.209534
  0
LINE
  8
0
 10
81.805428
 20
-46.798004
 11
95.400002
 21
-46.798004
  0
LINE
  8
0
 10
81.755325
 20
-23.415308
 11
80.400009
 21
-25.762785
  0
LINE
  8
0
 10
80.400055
 20
-52.128979
 11
81.822197
 21
-54.592201
  0
LINE
  8
0
 10
66.000000
 20
-30.000000
 11
80.400002
 21
-30.000000
  0
LINE
  8
0
 10
66.000000
 20
-48.000000
 11
80.400002
 21
-48.000000
  0
LINE
  8
0
 10
65.000000
 20
-31.000000
 11
65.000000
 21
-47.000000
  0
LINE
  8
0
 10
65.999992
 20
-30.000006
 11
64.999985
 21
-31.000006
  0
LINE
  8
0
 10
64.999977
 20
-47.000008
 11
65.999977
 21
-48.000011
  0
LINE
  8
0
 10
65.999985
 20
-30.000000
 11
65.999985
 21
-48.000000
  0
LINE
  8
0
 10
81.755318
 20
-185.415298
 11
95.400002
 21
-185.415298
  0
LINE
  8
0
 10
81.822128
 20
-216.592224
 11
95.400002
 21
-216.592224
  0
LINE
  8
0
 10
95.400002
 20
-216.000000
 11
100.000000
 21
-216.000000
  0
LINE
  8
0
 10
95.400002
 20
-186.000000
 11
100.000000
 21
-186.000000
  0
LINE
  8
0
 10
95.400002
 20
-185.415298
 11
95.400002
 21
-216.592224
  0
LINE
  8
0
 10
80.400002
 20
-187.762787
 11
80.400002
 21
-214.129013
  0
LINE
  8
0
 10
81.772018
 20
-193.209534
 11
95.400002
 21
-193.209534
  0
LINE
  8
0
 10
81.805428
 20
-208.798004
 11
95.400002
 21
-208.798004
  0
LINE
  8
0
 10
81.755341
 20
-185.415329
 11
80.400024
 21
-187.762802
  0
LINE
  8
0
 10
80.399994
 20
-214.129044
 11
81.822128
 21
-216.592255
  0
LINE
  8
0
 10
66.000000
 20
-192.000000
 11
80.400002
 21
-192.000000
  0
LINE
  8
0
 10
66.000000
 20
-210.000000
 11
80.400002
 21
-210.000000
  0
LINE
  8
0
 10
65.000000
 20
-193.000000
 11
65.000000
 21
-209.000000
  0
LINE
  8
0
 10
65.999962
 20
-191.999969
 11
64.999962
 21
-192.999969
  0
LINE
  8
0
 10
65.000046
 20
-208.999985
 11
66.000046
 21
-209.999985
  0
LINE
  8
0
 10
65.999985
 20
-192.000000
 11
65.999985
 21
-210.000000
  0
LINE
  8
0
 10
329.244659
 20
-216.584747
 11
315.599976
 21
-216.584747
  0
LINE
  8
0
 10
329.177826
 20
-185.407837
 11
315.599976
 21
-185.407837
  0
LINE
  8
0
 10
315.599976
 20
-186.000046
 11
310.999969
 21
-186.000046
  0
LINE
  8
0
 10
315.599976
 20
-216.000046
 11
310.999969
 21
-216.000046
  0
LINE
  8
0
 10
315.600006
 20
-216.584702
 11
315.600006
 21
-185.407776
  0
LINE
  8
0
 10
330.600006
 20
-214.237213
 11
330.600006
 21
-187.870987
  0
LINE
  8
0
 10
329.227936
 20
-208.790512
 11
315.599976
 21
-208.790512
  0
LINE
  8
0
 10
329.194550
 20
-193.202042
 11
315.599976
 21
-193.202042
  0
LINE
  8
0
 10
329.244751
 20
-216.584778
 11
330.600067
 21
-214.237305
  0
LINE
  8
0
 10
330.600037
 20
-187.870987
 11
329.177887
 21
-185.407776
  0
LINE
  8
0
 10
344.999969
 20
-210.000046
 11
330.599976
 21
-210.000046
  0
LINE
  8
0
 10
344.999969
 20
-192.000046
 11
330.599976
 21
-192.000046
  0
LINE
  8
0
 10
346.000000
 20
-209.000000
 11
346.000000
 21
-193.000000
  0
LINE
  8
0
 10
344.999786
 20
-209.999908
 11
345.999786
 21
-208.999908
  0
LINE
  8
0
 10
345.999878
 20
-192.999985
 11
344.999878
 21
-191.999985
  0
LINE
  8
0
 10
345.000000
 20
-210.000000
 11
345.000000
 21
-192.000000
  0
LINE
  8
0
 10
345.000000
 20
-48.000000
 11
345.000000
 21
-30.000000
  0
LINE
  8
0
 10
329.244659
 20
-54.584747
 11
315.599976
 21
-54.584747
  0
LINE
  8
0
 10
329.177826
 20
-23.407837
 11
315.599976
 21
-23.407837
  0
LINE
  8
0
 10
315.599976
 20
-24.000046
 11
310.999969
 21
-24.000046
  0
LINE
  8
0
 10
315.599976
 20
-54.000046
 11
310.999969
 21
-54.000046
  0
LINE
  8
0
 10
315.600006
 20
-54.584702
 11
315.600006
 21
-23.407776
  0
LINE
  8
0
 10
330.600006
 20
-52.237213
 11
330.600006
 21
-25.870987
  0
LINE
  8
0
 10
329.227936
 20
-46.790512
 11
315.599976
 21
-46.790512
  0
LINE
  8
0
 10
329.194550
 20
-31.202042
 11
315.599976
 21
-31.202042
  0
LINE
  8
0
 10
329.244781
 20
-54.584816
 11
330.600098
 21
-52.237366
  0
LINE
  8
0
 10
330.600189
 20
-25.870872
 11
329.178070
 21
-23.407677
  0
LINE
  8
0
 10
344.999969
 20
-48.000046
 11
330.599976
 21
-48.000046
  0
LINE
  8
0
 10
344.999969
 20
-30.000046
 11
330.599976
 21
-30.000046
  0
LINE
  8
0
 10
346.000000
 20
-47.000000
 11
346.000000
 21
-31.000000
  0
LINE
  8
0
 10
344.999817
 20
-47.999947
 11
345.999817
 21
-46.999947
  0
LINE
  8
0
 10
345.999847
 20
-31.000013
 11
344.999847
 21
-30.000011
  0
LINE
  8
0
  6
CENTER
 62
     2
 10
58.630562
 20
-201.000000
 11
351.216583
 21
-201.000000
  0
LINE
  8
0
 10
139.000000
 20
-48.000000
 11
271.999969
 21
-48.000000
  0
LINE
  8
0
 10
139.000000
 20
-30.000000
 11
271.999969
 21
-30.000000
  0
LINE
  8
0
 10
139.000000
 20
-210.000000
 11
271.999969
 21
-210.000000
  0
LINE
  8
0
 10
139.000000
 20
-192.000000
 11
271.999969
 21
-192.000000
  0
LINE
  8
0
 10
271.999969
 20
-18.000000
 11
310.999969
 21
-18.000000
  0
LINE
  8
0
  6
DASHED
 62
     2
 10
105.279671
 20
-17.999809
 11
107.000160
 21
-19.499811
  0
LINE
  8
0
  6
DASHED
 62
     2
 10
131.720688
 20
-18.000036
 11
131.228195
 21
-32.100052
  0
LINE
  8
0
  6
DASHED
 62
     2
 10
105.772133
 20
-32.100025
 11
105.279465
 21
-18.000000
  0
LINE
  8
0
  6
DASHED
 62
     2
 10
107.000000
 20
-19.500000
 11
130.000000
 21
-19.500000
  0
LINE
  8
0
  6
DASHED
 62
     2
 10
107.000000
 20
-19.500000
 11
107.000000
 21
-32.100006
  0
LINE
  8
0
  6
DASHED
 62
     2
 10
130.000000
 20
-19.500000
 11
130.000000
 21
-32.100006
  0
LINE
  8
0
  6
DASHED
 62
     2
 10
131.720490
 20
-17.999983
 11
130.000000
 21
-19.499979
  0
LINE
  8
0
 10
100.000000
 20
-222.000000
 11
139.000000
 21
-222.000000
  0
LINE
  8
0
 10
271.999969
 20
-222.000000
 11
310.999969
 21
-222.000000
  0
LINE
  8
0
 10
139.000000
 20
-216.500000
 11
271.999969
 21
-216.500000
  0
LINE
  8
0
 10
139.000000
 20
-23.500000
 11
271.999969
 21
-23.500000
  0
LINE
  8
0
 10
35.330124
 20
-110.726379
 11
48.000000
 21
-110.726379
  0
LINE
  8
0
 10
35.330124
 20
-129.273621
 11
48.000000
 21
-129.273621
  0
LINE
  8
0
 10
-34.250000
 20
-140.000000
 11
31.000000
 21
-140.000000
  0
LINE
  8
0
 10
-34.250000
 20
-100.000000
 11
31.000000
 21
-100.000000
  0
LINE
  8
0
 10
35.330124
 20
-142.500000
 11
60.000000
 21
-142.500000
  0
LINE
  8
0
 10
35.330124
 20
-97.500000
 11
60.000000
 21
-97.500000
  0
LINE
  8
0
 10
28.000000
 20
-100.000000
 11
28.000000
 21
-140.000000
  0
LINE
  8
0
 10
31.000000
 20
-100.000000
 11
31.000000
 21
-140.000000
  0
LINE
  8
0
 10
31.000008
 20
-100.000031
 11
35.330135
 21
-97.500031
  0
LINE
  8
0
 10
30.999981
 20
-140.000061
 11
35.330109
 21
-142.500061
  0
LINE
  8
0
 10
35.330124
 20
-142.500000
 11
35.330124
 21
-129.273621
  0
LINE
  8
0
 10
48.000000
 20
-110.726379
 11
48.000000
 21
-129.273621
  0
LINE
  8
0
 10
35.330124
 20
-110.726379
 11
35.330124
 21
-97.500000
  0
LINE
  8
0
 62
     2
 10
48.000008
 20
-110.726372
 11
35.330132
 21
-129.273621
  0
LINE
  8
0
 62
     2
 10
35.330120
 20
-110.726372
 11
47.999989
 21
-129.273605
  0
LINE
  8
0
 10
59.999996
 20
-87.000015
 11
61.038460
 21
-85.961548
  0
LINE
  8
0
 10
60.000042
 20
-152.999939
 11
61.038494
 21
-154.038391
  0
LINE
  8
0
 10
61.038460
 20
-85.961548
 11
61.038460
 21
-154.038467
  0
LINE
  8
0
 62
     2
 10
65.000000
 20
-208.600006
 11
80.400002
 21
-208.600006
  0
LINE
  8
0
 62
     2
 10
65.000000
 20
-193.399994
 11
80.400002
 21
-193.399994
  0
LINE
  8
0
 62
     2
 10
65.000000
 20
-46.600006
 11
80.400002
 21
-46.600006
  0
LINE
  8
0
 62
     2
 10
65.000000
 20
-31.399994
 11
80.400002
 21
-31.399994
  0
LINE
  8
0
 62
     2
 10
346.000000
 20
-31.400040
 11
330.599976
 21
-31.400040
  0
LINE
  8
0
 62
     2
 10
346.000000
 20
-46.600052
 11
330.599976
 21
-46.600052
  0
LINE
  8
0
 62
     2
 10
346.000000
 20
-208.600037
 11
330.599976
 21
-208.600037
  0
LINE
  8
0
 62
     2
 10
346.000000
 20
-193.400055
 11
330.599976
 21
-193.400055
  0
LINE
  8
0
 62
     2
 10
28.000010
 20
-139.249985
 11
29.607143
 21
-139.999985
  0
LINE
  8
0
 10
-35.000000
 20
-100.750000
 11
-35.000000
 21
-139.250000
  0
LINE
  8
0
 10
-34.250034
 20
-140.000031
 11
-35.000027
 21
-139.250031
  0
LINE
  8
0
 10
-34.250000
 20
-100.000000
 11
-34.250000
 21
-140.000000
  0
LINE
  8
0
 62
     2
 10
-35.000000
 20
-139.250000
 11
28.000000
 21
-139.250000
  0
LINE
  8
0
 62
     2
 10
-35.000000
 20
-100.750000
 11
28.000000
 21
-100.750000
  0
LINE
  8
0
 62
     2
 10
27.999992
 20
-100.749985
 11
29.607128
 21
-99.999992
  0
LINE
  8
0
 10
-34.250011
 20
-100.000000
 11
-35.000008
 21
-100.750000
  0
LINE
  8
0
  6
CENTER
 62
     2
 10
-339.196136
 20
-120.000000
 11
-121.470490
 21
-120.000000
  0
LINE
  8
0
  6
CENTER
 62
     2
 10
-230.000000
 20
-11.831863
 11
-230.000000
 21
-229.147491
  0
LINE
  8
0
 10
-195.570496
 20
-148.772583
 11
-192.304520
 21
-152.038544
  0
LINE
  8
0
 10
-201.227386
 20
-154.429367
 11
-197.961380
 21
-157.695389
  0
LINE
  8
0
 10
-192.304825
 20
-152.038559
 11
-193.500259
 21
-156.500000
  0
LINE
  8
0
 10
-200.032272
 20
-149.967972
 11
-201.227722
 21
-154.429382
  0
LINE
  8
0
 10
-197.961502
 20
-157.695465
 11
-193.500076
 21
-156.500031
  0
LINE
  8
0
 10
-200.032059
 20
-149.968033
 11
-195.570602
 21
-148.772598
  0
LINE
  8
0
 10
-201.227295
 20
-85.570656
 11
-197.961319
 21
-82.304680
  0
LINE
  8
0
 10
-195.570480
 20
-91.227509
 11
-192.304474
 21
-87.961510
  0
LINE
  8
0
 10
-197.961349
 20
-82.304619
 11
-193.499939
 21
-83.500046
  0
LINE
  8
0
 10
-200.031891
 20
-90.031990
 11
-195.570496
 21
-91.227417
  0
LINE
  8
0
 10
-192.304581
 20
-87.961502
 11
-193.500015
 21
-83.500092
  0
LINE
  8
0
 10
-200.031982
 20
-90.032036
 11
-201.227402
 21
-85.570610
  0
LINE
  8
0
 10
-264.429352
 20
-91.227249
 11
-267.695312
 21
-87.961281
  0
LINE
  8
0
 10
-258.772400
 20
-85.570435
 11
-262.038422
 21
-82.304428
  0
LINE
  8
0
 10
-267.695496
 20
-87.961388
 11
-266.500061
 21
-83.499962
  0
LINE
  8
0
 10
-259.968048
 20
-90.031937
 11
-258.772614
 21
-85.570534
  0
LINE
  8
0
 10
-262.038574
 20
-82.304543
 11
-266.499969
 21
-83.499969
  0
LINE
  8
0
 10
-259.967987
 20
-90.031952
 11
-264.429382
 21
-91.227371
  0
LINE
  8
0
 10
-258.772644
 20
-154.429459
 11
-262.038605
 21
-157.695419
  0
LINE
  8
0
 10
-264.429443
 20
-148.772598
 11
-267.695465
 21
-152.038605
  0
LINE
  8
0
 10
-262.038635
 20
-157.695465
 11
-266.500092
 21
-156.500031
  0
LINE
  8
0
 10
-259.968079
 20
-149.968094
 11
-264.429504
 21
-148.772659
  0
LINE
  8
0
 10
-267.695312
 20
-152.038452
 11
-266.499908
 21
-156.499863
  0
LINE
  8
0
 10
-259.967804
 20
-149.967926
 11
-258.772400
 21
-154.429337
  0
LINE
  8
0
 10
-128.000000
 20
-18.000000
 11
-128.000000
 21
-222.000000
  0
LINE
  8
0
 10
-332.000000
 20
-18.000000
 11
-332.000000
 21
-222.000000
  0
LINE
  8
0
 10
-332.000000
 20
-222.000000
 11
-128.000000
 21
-222.000000
  0
LINE
  8
0
 10
-332.000000
 20
-18.000000
 11
-128.000000
 21
-18.000000
  0
LINE
  8
0
  6
CENTER
 62
     2
 10
-311.000000
 20
-20.791016
 11
-311.000000
 21
-57.528183
  0
LINE
  8
0
  6
CENTER
 62
     2
 10
-328.204254
 20
-39.000000
 11
-294.293030
 21
-39.000000
  0
LINE
  8
0
 10
-297.500000
 20
-31.213272
 11
-297.500000
 21
-46.794220
  0
LINE
  8
0
 10
-324.500000
 20
-31.205780
 11
-324.500000
 21
-46.801727
  0
LINE
  8
0
 10
-297.500000
 20
-46.794182
 11
-311.006470
 21
-54.592163
  0
LINE
  8
0
 10
-311.006622
 20
-23.415134
 11
-324.500153
 21
-31.205637
  0
LINE
  8
0
 10
-324.499908
 20
-46.801674
 11
-311.006409
 21
-54.592159
  0
LINE
  8
0
 10
-311.006500
 20
-23.415213
 11
-297.500000
 21
-31.213192
  0
LINE
  8
0
  6
CENTER
 62
     2
 10
-149.000000
 20
-20.791016
 11
-149.000000
 21
-57.528183
  0
LINE
  8
0
  6
CENTER
 62
     2
 10
-166.204254
 20
-39.000000
 11
-132.293030
 21
-39.000000
  0
LINE
  8
0
 10
-135.500000
 20
-31.213272
 11
-135.500000
 21
-46.794220
  0
LINE
  8
0
 10
-162.500000
 20
-31.205780
 11
-162.500000
 21
-46.801727
  0
LINE
  8
0
 10
-135.500046
 20
-46.794182
 11
-149.006561
 21
-54.592178
  0
LINE
  8
0
 10
-149.006546
 20
-23.415241
 11
-162.500046
 21
-31.205730
  0
LINE
  8
0
 10
-162.499969
 20
-46.801720
 11
-149.006454
 21
-54.592201
  0
LINE
  8
0
 10
-149.006454
 20
-23.415279
 11
-135.499969
 21
-31.213245
  0
LINE
  8
0
  6
CENTER
 62
     2
 10
-149.000000
 20
-182.791016
 11
-149.000000
 21
-219.528183
  0
LINE
  8
0
  6
CENTER
 62
     2
 10
-166.204254
 20
-201.000000
 11
-132.293030
 21
-201.000000
  0
LINE
  8
0
 10
-135.500000
 20
-193.213272
 11
-135.500000
 21
-208.794220
  0
LINE
  8
0
 10
-162.500000
 20
-193.205780
 11
-162.500000
 21
-208.801727
  0
LINE
  8
0
 10
-135.500000
 20
-208.794235
 11
-149.006485
 21
-216.592209
  0
LINE
  8
0
 10
-149.006470
 20
-185.415268
 11
-162.499985
 21
-193.205750
  0
LINE
  8
0
 10
-162.499924
 20
-208.801605
 11
-149.006409
 21
-216.592087
  0
LINE
  8
0
 10
-149.006454
 20
-185.415161
 11
-135.499969
 21
-193.213135
  0
LINE
  8
0
  6
CENTER
 62
     2
 10
-311.000000
 20
-182.791016
 11
-311.000000
 21
-219.528183
  0
LINE
  8
0
  6
CENTER
 62
     2
 10
-328.204254
 20
-201.000000
 11
-294.293030
 21
-201.000000
  0
LINE
  8
0
 10
-297.500000
 20
-193.213272
 11
-297.500000
 21
-208.794220
  0
LINE
  8
0
 10
-324.500000
 20
-193.205780
 11
-324.500000
 21
-208.801727
  0
LINE
  8
0
 10
-297.500000
 20
-208.794189
 11
-311.006500
 21
-216.592178
  0
LINE
  8
0
 10
-311.006500
 20
-185.415237
 11
-324.500000
 21
-193.205734
  0
LINE
  8
0
 10
-324.499939
 20
-208.801636
 11
-311.006409
 21
-216.592117
  0
LINE
  8
0
 10
-311.006409
 20
-185.415146
 11
-297.499908
 21
-193.213120
  0
LINE
  8
0
 10
-209.500000
 20
-110.726379
 11
-209.500000
 21
-129.273621
  0
LINE
  8
0
 10
-250.500000
 20
-110.726379
 11
-250.500000
 21
-129.273621
  0
LINE
  8
0
  6
CENTER
 62
     2
 10
-41.873260
 20
120.000000
 11
314.399994
 21
120.000000
  0
LINE
  8
0
 10
100.000000
 20
222.000000
 11
100.000000
 21
18.000000
  0
LINE
  8
0
  6
CENTER
 62
     2
 10
118.500000
 20
139.108398
 11
118.500000
 21
101.881638
  0
LINE
  8
0
  6
CENTER
 62
     2
 10
292.499969
 20
140.062927
 11
292.499969
 21
101.881638
  0
LINE
  8
0
 10
310.999969
 20
222.000000
 11
310.999969
 21
18.000000
  0
LINE
  8
0
 10
139.000000
 20
222.000000
 11
139.000000
 21
18.000000
  0
LINE
  8
0
 10
271.999969
 20
222.000000
 11
271.999969
 21
18.000000
  0
LINE
  8
0
 10
90.000000
 20
176.500000
 11
90.000000
 21
63.500000
  0
LINE
  8
0
 10
91.000000
 20
177.500000
 11
91.000000
 21
62.500000
  0
LINE
  8
0
 10
91.000000
 20
62.500000
 11
100.000000
 21
62.500000
  0
LINE
  8
0
 10
91.000000
 20
177.500000
 11
100.000000
 21
177.500000
  0
LINE
  8
0
 10
89.999992
 20
176.500015
 11
90.999992
 21
177.500015
  0
LINE
  8
0
 10
90.000015
 20
63.499973
 11
91.000015
 21
62.499973
  0
LINE
  8
0
 10
60.000000
 20
153.000000
 11
60.000000
 21
87.000000
  0
LINE
  8
0
 10
87.000000
 20
167.000000
 11
87.000000
 21
161.233978
  0
LINE
  8
0
 10
87.000000
 20
167.000000
 11
90.000000
 21
167.000000
  0
LINE
  8
0
 10
87.000000
 20
73.000000
 11
90.000000
 21
73.000000
  0
LINE
  8
0
 10
79.999992
 20
154.740692
 11
61.038452
 21
154.038406
  0
LINE
  8
0
 10
61.038467
 20
85.961586
 11
80.000000
 21
85.259308
  0
LINE
  8
0
 10
81.000000
 20
94.766022
 11
90.000000
 21
94.766022
  0
LINE
  8
0
 10
81.000000
 20
78.766022
 11
90.000000
 21
78.766022
  0
LINE
  8
0
 10
80.000000
 20
93.766022
 11
80.000000
 21
79.766022
  0
LINE
  8
0
 10
79.999992
 20
93.766068
 11
80.999992
 21
94.766068
  0
LINE
  8
0
 10
81.000000
 20
78.765968
 11
80.000000
 21
79.765976
  0
LINE
  8
0
 10
81.000008
 20
94.766022
 11
81.000008
 21
78.766022
  0
LINE
  8
0
 10
81.000000
 20
145.233978
 11
90.000000
 21
145.233978
  0
LINE
  8
0
 10
80.000000
 20
160.233978
 11
80.000000
 21
146.233978
  0
LINE
  8
0
 10
80.999977
 20
145.233948
 11
79.999977
 21
146.233948
  0
LINE
  8
0
 10
81.000008
 20
161.233978
 11
81.000008
 21
145.233978
  0
LINE
  8
0
 10
80.000015
 20
160.233994
 11
81.000000
 21
161.233994
  0
LINE
  8
0
 10
81.000000
 20
161.233978
 11
90.000000
 21
161.233978
  0
LINE
  8
0
 10
87.000000
 20
78.766022
 11
87.000000
 21
73.000000
  0
LINE
  8
0
 10
87.000000
 20
145.233978
 11
87.000000
 21
94.766022
  0
LINE
  8
0
 10
100.000000
 20
222.000000
 11
139.000000
 21
222.000000
  0
LINE
  8
0
  6
CENTER
 62
     2
 10
60.274483
 20
201.000000
 11
353.682465
 21
201.000000
  0
LINE
  8
0
 10
95.400002
 20
186.000000
 11
100.000000
 21
186.000000
  0
LINE
  8
0
 10
95.400002
 20
216.000000
 11
100.000000
 21
216.000000
  0
LINE
  8
0
 10
66.000000
 20
210.000000
 11
80.400002
 21
210.000000
  0
LINE
  8
0
 10
66.000000
 20
192.000000
 11
80.400002
 21
192.000000
  0
LINE
  8
0
 10
65.000000
 20
209.000000
 11
65.000000
 21
193.000000
  0
LINE
  8
0
 10
66.000008
 20
209.999985
 11
65.000008
 21
208.999985
  0
LINE
  8
0
 10
64.999969
 20
192.999969
 11
65.999969
 21
191.999969
  0
LINE
  8
0
 10
65.999985
 20
210.000000
 11
65.999985
 21
192.000000
  0
LINE
  8
0
 10
95.400002
 20
24.000000
 11
100.000000
 21
24.000000
  0
LINE
  8
0
 10
95.400002
 20
54.000000
 11
100.000000
 21
54.000000
  0
LINE
  8
0
 10
66.000000
 20
48.000000
 11
80.400002
 21
48.000000
  0
LINE
  8
0
 10
66.000000
 20
30.000000
 11
80.400002
 21
30.000000
  0
LINE
  8
0
 10
65.000000
 20
47.000000
 11
65.000000
 21
31.000000
  0
LINE
  8
0
 10
65.999977
 20
48.000038
 11
64.999977
 21
47.000038
  0
LINE
  8
0
 10
65.000031
 20
31.000000
 11
66.000031
 21
29.999998
  0
LINE
  8
0
 10
65.999985
 20
48.000000
 11
65.999985
 21
30.000000
  0
LINE
  8
0
 10
315.599976
 20
53.999954
 11
310.999969
 21
53.999954
  0
LINE
  8
0
 10
315.599976
 20
23.999954
 11
310.999969
 21
23.999954
  0
LINE
  8
0
 10
344.999969
 20
29.999954
 11
330.599976
 21
29.999954
  0
LINE
  8
0
 10
344.999969
 20
47.999954
 11
330.599976
 21
47.999954
  0
LINE
  8
0
 10
346.000000
 20
31.000000
 11
346.000000
 21
47.000000
  0
LINE
  8
0
 10
344.999756
 20
30.000103
 11
345.999756
 21
31.000126
  0
LINE
  8
0
 10
345.999847
 20
46.999950
 11
344.999847
 21
47.999954
  0
LINE
  8
0
 10
345.000000
 20
30.000000
 11
345.000000
 21
48.000000
  0
LINE
  8
0
 10
345.000000
 20
192.000000
 11
345.000000
 21
210.000000
  0
LINE
  8
0
 10
315.599976
 20
215.999954
 11
310.999969
 21
215.999954
  0
LINE
  8
0
 10
315.599976
 20
185.999954
 11
310.999969
 21
185.999954
  0
LINE
  8
0
 10
344.999969
 20
191.999954
 11
330.599976
 21
191.999954
  0
LINE
  8
0
 10
344.999969
 20
209.999954
 11
330.599976
 21
209.999954
  0
LINE
  8
0
 10
346.000000
 20
193.000000
 11
346.000000
 21
209.000000
  0
LINE
  8
0
 10
344.999817
 20
192.000031
 11
345.999786
 21
193.000000
  0
LINE
  8
0
 10
345.999817
 20
208.999985
 11
344.999817
 21
209.999985
  0
LINE
  8
0
  6
CENTER
 62
     2
 10
58.630562
 20
39.000000
 11
351.216583
 21
39.000000
  0
LINE
  8
0
 10
139.000000
 20
192.000000
 11
271.999969
 21
192.000000
  0
LINE
  8
0
 10
139.000000
 20
210.000000
 11
271.999969
 21
210.000000
  0
LINE
  8
0
 10
139.000000
 20
30.000000
 11
271.999969
 21
30.000000
  0
LINE
  8
0
 10
139.000000
 20
48.000000
 11
271.999969
 21
48.000000
  0
LINE
  8
0
 10
271.999969
 20
222.000000
 11
310.999969
 21
222.000000
  0
LINE
  8
0
 10
100.000000
 20
18.000000
 11
139.000000
 21
18.000000
  0
LINE
  8
0
 10
271.999969
 20
18.000000
 11
310.999969
 21
18.000000
  0
LINE
  8
0
 10
139.000000
 20
23.500000
 11
271.999969
 21
23.500000
  0
LINE
  8
0
 10
139.000000
 20
216.500000
 11
271.999969
 21
216.500000
  0
LINE
  8
0
 10
-34.250000
 20
100.000000
 11
31.000000
 21
100.000000
  0
LINE
  8
0
 10
-34.250000
 20
140.000000
 11
31.000000
 21
140.000000
  0
LINE
  8
0
 10
49.154701
 20
97.500000
 11
60.000000
 21
97.500000
  0
LINE
  8
0
 10
49.154701
 20
142.500000
 11
60.000000
 21
142.500000
  0
LINE
  8
0
 10
28.000000
 20
140.000000
 11
28.000000
 21
100.000000
  0
LINE
  8
0
 10
31.000000
 20
140.000000
 11
31.000000
 21
100.000000
  0
LINE
  8
0
 10
31.000008
 20
140.000000
 11
31.866066
 21
140.500015
  0
LINE
  8
0
 10
30.999998
 20
99.999977
 11
31.865963
 21
99.500008
  0
LINE
  8
0
 10
60.000000
 20
152.999969
 11
61.038464
 21
154.038437
  0
LINE
  8
0
 10
60.000015
 20
86.999992
 11
61.038471
 21
85.961540
  0
LINE
  8
0
 10
61.038460
 20
154.038452
 11
61.038460
 21
85.961533
  0
LINE
  8
0
 62
     2
 10
65.000000
 20
31.399994
 11
80.400002
 21
31.399994
  0
LINE
  8
0
 62
     2
 10
65.000000
 20
46.600006
 11
80.400002
 21
46.600006
  0
LINE
  8
0
 62
     2
 10
65.000000
 20
193.399994
 11
80.400002
 21
193.399994
  0
LINE
  8
0
 62
     2
 10
65.000000
 20
208.600006
 11
80.400002
 21
208.600006
  0
LINE
  8
0
 62
     2
 10
346.000000
 20
208.599960
 11
330.599976
 21
208.599960
  0
LINE
  8
0
 62
     2
 10
346.000000
 20
193.399948
 11
330.599976
 21
193.399948
  0
LINE
  8
0
 62
     2
 10
346.000000
 20
31.399963
 11
330.599976
 21
31.399963
  0
LINE
  8
0
 62
     2
 10
346.000000
 20
46.599945
 11
330.599976
 21
46.599945
  0
LINE
  8
0
 10
-35.000000
 20
139.250000
 11
-35.000000
 21
100.750000
  0
LINE
  8
0
 62
     2
 10
-35.000000
 20
139.250000
 11
28.000000
 21
139.250000
  0
LINE
  8
0
 62
     2
 10
28.000013
 20
139.249969
 11
29.607149
 21
139.999969
  0
LINE
  8
0
 10
31.866058
 20
140.500000
 11
48.000000
 21
140.500000
  0
LINE
  8
0
 10
31.865959
 20
99.500000
 11
48.000000
 21
99.500000
  0
LINE
  8
0
 10
47.999996
 20
140.499969
 11
49.154701
 21
142.499969
  0
LINE
  8
0
 10
95.400009
 20
25.500000
 11
80.400009
 21
25.500000
  0
LINE
  8
0
 10
95.400002
 20
39.000000
 11
81.605774
 21
39.000000
  0
LINE
  8
0
 10
95.400002
 20
24.000000
 11
95.400002
 21
54.000000
  0
LINE
  8
0
 10
95.399994
 20
52.500000
 11
80.399994
 21
52.500000
  0
LINE
  8
0
 10
80.400002
 20
25.500000
 11
80.400002
 21
52.500000
  0
LINE
  8
0
 10
95.400009
 20
187.500000
 11
80.400009
 21
187.500000
  0
LINE
  8
0
 10
95.400002
 20
201.000000
 11
81.605774
 21
201.000000
  0
LINE
  8
0
 10
95.400002
 20
186.000000
 11
95.400002
 21
216.000000
  0
LINE
  8
0
 10
95.399994
 20
214.500000
 11
80.399994
 21
214.500000
  0
LINE
  8
0
 10
80.400002
 20
187.500000
 11
80.400002
 21
214.500000
  0
LINE
  8
0
 10
315.599976
 20
187.500000
 11
330.599976
 21
187.500000
  0
LINE
  8
0
 10
315.599976
 20
201.000000
 11
329.394196
 21
201.000000
  0
LINE
  8
0
 10
315.599976
 20
214.500000
 11
330.599976
 21
214.500000
  0
LINE
  8
0
 10
330.599976
 20
187.500000
 11
330.599976
 21
214.500000
  0
LINE
  8
0
 10
315.599976
 20
25.500000
 11
330.599976
 21
25.500000
  0
LINE
  8
0
 10
315.599976
 20
39.000000
 11
329.394196
 21
39.000000
  0
LINE
  8
0
 10
315.599976
 20
52.500000
 11
330.599976
 21
52.500000
  0
LINE
  8
0
 10
330.599976
 20
25.500000
 11
330.599976
 21
52.500000
  0
LINE
  8
0
 10
315.599976
 20
186.000000
 11
315.599976
 21
216.000000
  0
LINE
  8
0
 10
315.599976
 20
24.000000
 11
315.599976
 21
54.000000
  0
LINE
  8
0
 10
47.999992
 20
99.500000
 11
49.154690
 21
97.500008
  0
LINE
  8
0
 10
-34.249996
 20
139.999985
 11
-34.999989
 21
139.249985
  0
LINE
  8
0
 10
-34.250000
 20
140.000000
 11
-34.250000
 21
100.000000
  0
LINE
  8
0
 62
     2
 10
27.999990
 20
100.749985
 11
29.607124
 21
99.999985
  0
LINE
  8
0
 62
     2
 10
-35.000000
 20
100.750000
 11
28.000000
 21
100.750000
  0
LINE
  8
0
 10
-34.250015
 20
100.000000
 11
-35.000004
 21
100.750000
  0
CIRCLE
  8
0
 10
118.500000
 20
-120.000000
 40
7.950000
  0
CIRCLE
  8
0
 10
292.499969
 20
-120.000000
 40
7.950000
  0
CIRCLE
  8
0
 10
118.500000
 20
-120.000000
 40
5.150000
  0
CIRCLE
  8
0
 10
292.499969
 20
-120.000000
 40
5.150000
  0
ARC
  8
0
 10
86.478134
 20
-50.685120
 40
6.078137
 50
140.243698
 51
220.001770
  0
ARC
  8
0
 10
86.650482
 20
-27.301941
 40
6.250495
 50
141.551331
 51
218.694305
  0
ARC
  8
0
 10
102.967087
 20
-38.958389
 40
22.567135
 50
159.917755
 51
200.327774
  0
ARC
  8
0
 10
86.478134
 20
-212.685120
 40
6.078140
 50
140.243668
 51
220.001709
  0
ARC
  8
0
 10
86.650482
 20
-189.301941
 40
6.250496
 50
141.551315
 51
218.694321
  0
ARC
  8
0
 10
102.967087
 20
-200.958389
 40
22.567137
 50
159.917740
 51
200.327774
  0
ARC
  8
0
 10
324.521820
 20
-189.314880
 40
6.078140
 50
320.243683
 51
40.001816
  0
ARC
  8
0
 10
324.349487
 20
-212.698059
 40
6.250496
 50
321.551331
 51
38.694408
  0
ARC
  8
0
 10
308.032867
 20
-201.041611
 40
22.567133
 50
339.917786
 51
20.327818
  0
ARC
  8
0
 10
324.349487
 20
-50.698059
 40
6.250494
 50
321.551331
 51
38.694408
  0
ARC
  8
0
 10
308.032867
 20
-39.041611
 40
22.567133
 50
339.917786
 51
20.327805
  0
ARC
  8
0
 10
324.521820
 20
-27.314880
 40
6.078137
 50
320.243713
 51
40.001778
  0
ARC
  8
0
 10
46.011108
 20
-120.000000
 40
14.145083
 50
139.034286
 51
220.965714
  0
ARC
  8
0
 10
20.083321
 20
-120.000000
 40
29.416679
 50
0.000000
 51
18.375933
  0
ARC
  8
0
 10
20.083321
 20
-120.000000
 40
29.416679
 50
341.624054
 51
0.000000
  0
CIRCLE
  8
0
 10
-230.000000
 20
-120.000000
 40
57.500000
  0
ARC
  8
0
 10
-196.766022
 20
-153.234070
 40
10.000008
 50
56.944412
 51
213.055389
  0
CIRCLE
  8
0
 10
-196.766022
 20
-153.234070
 40
8.000000
  0
CIRCLE
  8
0
 10
-196.765930
 20
-86.766029
 40
8.000000
  0
CIRCLE
  8
0
 10
-263.233978
 20
-86.765930
 40
8.000000
  0
CIRCLE
  8
0
 10
-263.234070
 20
-153.233978
 40
8.000000
  0
ARC
  8
0
 10
-190.765991
 20
-95.985596
 40
0.999995
 50
31.470470
 51
123.055977
  0
ARC
  8
0
 10
-190.766052
 20
-144.014526
 40
1.000009
 50
236.944504
 51
328.530365
  0
ARC
  8
0
 10
-230.000000
 20
-120.000000
 40
46.999996
 50
328.529846
 51
31.470057
  0
ARC
  8
0
 10
-196.765930
 20
-86.766029
 40
9.999995
 50
146.944366
 51
303.055420
  0
ARC
  8
0
 10
-205.985489
 20
-80.766045
 40
1.000005
 50
326.944855
 51
58.530128
  0
ARC
  8
0
 10
-230.000000
 20
-120.000000
 40
46.999996
 50
58.529835
 51
121.470055
  0
ARC
  8
0
 10
-254.014404
 20
-80.765984
 40
1.000006
 50
121.470619
 51
213.055969
  0
ARC
  8
0
 10
-263.233978
 20
-86.765930
 40
10.000001
 50
236.944382
 51
33.055431
  0
ARC
  8
0
 10
-269.233948
 20
-95.985489
 40
0.999994
 50
56.944996
 51
148.529907
  0
ARC
  8
0
 10
-230.000000
 20
-120.000000
 40
47.000011
 50
148.529846
 51
211.470062
  0
ARC
  8
0
 10
-269.234009
 20
-144.014404
 40
0.999999
 50
211.470840
 51
303.056702
  0
ARC
  8
0
 10
-263.234070
 20
-153.233978
 40
10.000008
 50
326.944397
 51
123.055397
  0
ARC
  8
0
 10
-254.014526
 20
-159.233948
 40
1.000009
 50
146.944504
 51
238.530365
  0
ARC
  8
0
 10
-230.000000
 20
-120.000000
 40
46.999996
 50
238.529831
 51
301.470062
  0
ARC
  8
0
 10
-205.985596
 20
-159.234009
 40
0.999999
 50
301.470856
 51
33.055973
  0
CIRCLE
  8
0
 10
-311.000000
 20
-39.000000
 40
9.000000
  0
CIRCLE
  8
0
 10
-311.000000
 20
-39.000000
 40
13.000000
  0
CIRCLE
  8
0
 10
-149.000000
 20
-39.000000
 40
9.000000
  0
CIRCLE
  8
0
 10
-149.000000
 20
-39.000000
 40
13.000000
  0
CIRCLE
  8
0
 10
-149.000000
 20
-201.000000
 40
9.000000
  0
CIRCLE
  8
0
 10
-149.000000
 20
-201.000000
 40
13.000000
  0
CIRCLE
  8
0
 10
-311.000000
 20
-201.000000
 40
9.000000
  0
CIRCLE
  8
0
 10
-311.000000
 20
-201.000000
 40
13.000000
  0
CIRCLE
  8
0
 10
-230.000000
 20
-120.000000
 40
20.000000
  0
CIRCLE
  8
0
 10
-230.000000
 20
-120.000000
 40
22.500000
  0
CIRCLE
  8
0
 10
-230.000000
 20
-120.000000
 40
35.000000
  0
CIRCLE
  8
0
 62
     2
 10
-149.000000
 20
-39.000000
 40
7.600000
  0
CIRCLE
  8
0
 62
     2
 10
-311.000000
 20
-39.000000
 40
7.600000
  0
CIRCLE
  8
0
 62
     2
 10
-311.000000
 20
-201.000000
 40
7.600000
  0
CIRCLE
  8
0
 62
     2
 10
-149.000000
 20
-201.000000
 40
7.600000
  0
CIRCLE
  8
0
 62
     2
 10
-230.000000
 20
-120.000000
 40
19.250000
  0
CIRCLE
  8
0
 62
     2
 10
118.500000
 20
120.000000
 40
13.220500
  0
CIRCLE
  8
0
 62
     2
 10
292.499969
 20
120.000000
 40
13.220500
  0
CIRCLE
  8
0
 10
118.500000
 20
120.000000
 40
12.058500
  0
CIRCLE
  8
0
 10
292.499969
 20
120.000000
 40
12.058500
  0
ARC
  8
0
 10
99.896393
 20
45.750000
 40
19.496391
 50
159.743835
 51
200.256073
  0
ARC
  8
0
 10
99.896393
 20
32.250000
 40
19.496391
 50
159.743835
 51
200.256073
  0
ARC
  8
0
 10
99.896393
 20
194.250000
 40
19.496391
 50
159.743835
 51
200.256073
  0
ARC
  8
0
 10
99.896393
 20
207.750000
 40
19.496391
 50
159.743835
 51
200.256073
  0
ARC
  8
0
 10
311.103577
 20
194.250000
 40
19.496386
 50
339.743896
 51
20.256161
  0
ARC
  8
0
 10
311.103577
 20
207.750000
 40
19.496386
 50
339.743896
 51
20.256161
  0
ARC
  8
0
 10
311.103577
 20
45.750000
 40
19.496386
 50
339.743896
 51
20.256149
  0
ARC
  8
0
 10
311.103577
 20
32.250000
 40
19.496386
 50
339.743866
 51
20.256149
  0
TEXT
  8
0
 10
-369.785309
 20
256.649994
 40
9.000000
  1
SD CYLINDER
 50
0.000000
 41
1.052632
 51
0.000000
  7
STANDARD
  0
TEXT
  8
0
 10
242.014816
 20
-274.500000
 40
12.500000
  1
KOGANEI CORP.
 50
0.000000
 41
1.052632
 51
0.000000
  7
STANDARD
  0
TEXT
  8
0
 10
251.264664
 20
256.649994
 40
9.000000
  1
DATE: AUG ,1993
 50
0.000000
 41
1.052632
 51
0.000000
  7
STANDARD
  0
TEXT
  8
0
 10
-384.785309
 20
224.149994
 40
9.000000
  1
MODEL:KA0SD180*100
 50
0.000000
 41
1.052632
 51
0.000000
  7
STANDARD
  0
ENDSEC
  0
EOF
