  0
SECTION
  2
HEADER
  0
ENDSEC
  0
SECTION
  2
TABLES
  0
TABLE
  2
LTYPE
 70
     4
  0
LTYPE
  2
CONTINUOUS
 70
    64
  3
Solid line
 72
    65
 73
     0
 40
0.000000
  0
LTYPE
  2
DASHED
 70
    64
  3
__ __ __ __ __ __ __ __ __ __ __ __ __ __ __
 72
    65
 73
     2
 40
3.500000
 49
2.000000
 49
-1.500000
  0
LTYPE
  2
CENTER
 70
    64
  3
____ _ ____ _ ____ _ ____ _ ____ _ ____ _ ____
 72
    65
 73
     4
 40
17.500000
 49
13.000000
 49
-1.500000
 49
1.500000
 49
-1.500000
  0
LTYPE
  2
PHANTOM
 70
    64
  3
_____ _ _ _____ _ _ _____ _ _ _____ _ _ ____  
 72
    65
 73
     6
 40
15.500000
 49
8.000000
 49
-1.500000
 49
1.500000
 49
-1.500000
 49
1.500000
 49
-1.500000
  0
LTYPE
  2
DASHED1
 70
    64
  3
__ __ __ __ __ __ __ __ __ __ __ __ __ __ __
 72
    65
 73
     2
 40
1.500000
 49
1.000000
 49
-0.500000
  0
LTYPE
  2
DASHED2
 70
    64
  3
__ __ __ __ __ __ __ __ __ __ __ __ __ __ __
 72
    65
 73
     2
 40
3.500000
 49
2.500000
 49
-1.000000
  0
LTYPE
  2
DASHED3
 70
    64
  3
__ __ __ __ __ __ __ __ __ __ __ __ __ __ __
 72
    65
 73
     2
 40
6.000000
 49
4.000000
 49
-2.000000
  0
LTYPE
  2
DASHED4
 70
    64
  3
__ __ __ __ __ __ __ __ __ __ __ __ __ __ __
 72
    65
 73
     2
 40
12.000000
 49
10.000000
 49
-2.000000
  0
LTYPE
  2
DASHED5
 70
    64
  3
__ __ __ __ __ __ __ __ __ __ __ __ __ __ __
 72
    65
 73
     2
 40
17.000000
 49
15.000000
 49
-2.000000
  0
LTYPE
  2
DASHED6
 70
    64
  3
__ __ __ __ __ __ __ __ __ __ __ __ __ __ __
 72
    65
 73
     2
 40
29.000000
 49
27.000000
 49
-2.000000
  0
LTYPE
  2
PHANTOM1
 70
    64
  3
_____ _ _ _____ _ _ _____ _ _ _____ _ _ ____  
 72
    65
 73
     6
 40
31.000000
 49
25.000000
 49
-1.500000
 49
1.000000
 49
-1.000000
 49
1.000000
 49
-1.500000
  0
LTYPE
  2
PHANTOM2
 70
    64
  3
_____ _ _ _____ _ _ _____ _ _ _____ _ _ ____  
 72
    65
 73
     6
 40
36.000000
 49
27.000000
 49
-1.500000
 49
2.500000
 49
-1.000000
 49
2.500000
 49
-1.500000
  0
LTYPE
  2
PHANTOM3
 70
    64
  3
_____ _ _ _____ _ _ _____ _ _ _____ _ _ ____  
 72
    65
 73
     6
 40
78.000000
 49
64.000000
 49
-2.000000
 49
4.000000
 49
-2.000000
 49
4.000000
 49
-2.000000
  0
LTYPE
  2
CENTER1
 70
    64
  3
____ _ ____ _ ____ _ ____ _ ____ _ ____ _ ____
 72
    65
 73
     4
 40
19.000000
 49
14.000000
 49
-1.000000
 49
3.000000
 49
-1.000000
  0
LTYPE
  2
CENTER2
 70
    64
  3
____ _ ____ _ ____ _ ____ _ ____ _ ____ _ ____
 72
    65
 73
     4
 40
28.500000
 49
25.000000
 49
-1.000000
 49
1.500000
 49
-1.000000
  0
LTYPE
  2
CENTER3
 70
    64
  3
____ _ ____ _ ____ _ ____ _ ____ _ ____ _ ____
 72
    65
 73
     4
 40
31.500000
 49
27.000000
 49
-1.000000
 49
2.500000
 49
-1.000000
  0
LTYPE
  2
CENTER4
 70
    64
  3
____ _ ____ _ ____ _ ____ _ ____ _ ____ _ ____
 72
    65
 73
     4
 40
50.000000
 49
45.000000
 49
-1.000000
 49
3.000000
 49
-1.000000
  0
LTYPE
  2
CENTER5
 70
    64
  3
____ _ ____ _ ____ _ ____ _ ____ _ ____ _ ____
 72
    65
 73
     4
 40
100.000000
 49
92.000000
 49
-2.000000
 49
4.000000
 49
-2.000000
  0
LTYPE
  2
SBK1
 70
    64
  3
______ _ _ _ ______ _ _ _ ______ _ _ _ _____  
 72
    65
 73
     8
 40
60.500000
 49
45.000000
 49
-2.000000
 49
2.500000
 49
-2.000000
 49
2.500000
 49
-2.000000
 49
2.500000
 49
-2.000000
  0
LTYPE
  2
SBK2
 70
    64
  3
______ _ _ _ ______ _ _ _ ______ _ _ _ _____  
 72
    65
 73
     8
 40
84.000000
 49
64.000000
 49
-2.000000
 49
4.000000
 49
-2.000000
 49
4.000000
 49
-2.000000
 49
4.000000
 49
-2.000000
  0
LTYPE
  2
STCH
 70
    64
  3
__ __ __ __ __ __ __ __ __ __ __ __ __ __ __
 72
    65
 73
     2
 40
3.000000
 49
1.000000
 49
-2.000000
  0
LTYPE
  2
MTCH
 70
    64
  3
_____ _ _ _____ _ _ _____ _ _ _____ _ _ ____  
 72
    65
 73
     6
 40
80.000000
 49
66.000000
 49
-2.000000
 49
4.000000
 49
-2.000000
 49
4.000000
 49
-2.000000
  0
ENDTAB
  0
TABLE
  2
LAYER
 70
     1
  0
LAYER
  2
0
 70
     0
 62
     7
  6
CONTINUOUS
  0
ENDTAB
  0
TABLE
  2
STYLE
 70
     1
  0
STYLE
  2
STANDARD
 70
     0
 40
0.000000
 41
1.000000
 50
0.000000
 71
     0
 42
0.200000
  3
txt
  4
BIGFONT
  0
ENDTAB
  0
TABLE
  2
VIEW
 70
     0
  0
ENDTAB
  0
ENDSEC
  0
SECTION
  2
BLOCKS
  0
ENDSEC
  0
SECTION
  2
ENTITIES
  0
LINE
  8
0
 10
574.500000
 20
400.500000
 11
574.500000
 21
-400.500000
  0
LINE
  8
0
 10
-564.500000
 20
400.500000
 11
574.500000
 21
400.500000
  0
LINE
  8
0
 10
-564.500000
 20
-400.500000
 11
574.500000
 21
-400.500000
  0
LINE
  8
0
 10
-564.500000
 20
400.500000
 11
-564.500000
 21
-400.500000
  0
LINE
  8
0
 10
-564.500000
 20
370.500000
 11
-334.500000
 21
370.500000
  0
LINE
  8
0
 10
344.500000
 20
370.500000
 11
574.500000
 21
370.500000
  0
LINE
  8
0
 10
344.500000
 20
-370.500000
 11
574.500000
 21
-370.500000
  0
LINE
  8
0
 10
344.500000
 20
-370.500000
 11
344.500000
 21
-400.500000
  0
LINE
  8
0
 10
344.500000
 20
400.500000
 11
344.500000
 21
370.500000
  0
LINE
  8
0
 10
-334.500000
 20
400.500000
 11
-334.500000
 21
370.500000
  0
LINE
  8
0
 10
-7.000000
 20
-400.500000
 11
-7.000000
 21
400.500000
  0
LINE
  8
0
  6
CENTER
 62
     2
 10
-560.144043
 20
-186.943604
 11
-259.548706
 21
-186.943604
  0
LINE
  8
0
  6
CENTER
 62
     2
 10
-410.632782
 20
-77.840332
 11
-410.632782
 21
-299.206360
  0
LINE
  8
0
  6
CENTER
 62
     2
 10
-209.842529
 20
-186.943604
 11
-58.972511
 21
-186.943604
  0
LINE
  8
0
  6
CENTER
 62
     2
 10
-190.550171
 20
-114.943604
 11
-39.680183
 21
-114.943604
  0
LINE
  8
0
  6
CENTER
 62
     2
 10
-229.134888
 20
-258.943604
 11
-78.264870
 21
-258.943604
  0
LINE
  8
0
 10
-438.045990
 20
-210.114182
 11
-434.699921
 21
-211.010757
  0
LINE
  8
0
 10
-439.598907
 20
-215.909744
 11
-436.252838
 21
-216.806320
  0
LINE
  8
0
 10
-440.495361
 20
-212.563446
 11
-439.598785
 21
-215.909531
  0
LINE
  8
0
 10
-434.699646
 20
-211.010666
 11
-433.803070
 21
-214.356674
  0
LINE
  8
0
 10
-436.252594
 20
-216.806244
 11
-433.803131
 21
-214.356766
  0
LINE
  8
0
 10
-440.495148
 20
-212.563553
 11
-438.045654
 21
-210.114059
  0
LINE
  8
0
 10
-436.252563
 20
-157.080917
 11
-433.803070
 21
-159.530411
  0
LINE
  8
0
 10
-433.803345
 20
-159.530487
 11
-434.699921
 21
-162.876556
  0
LINE
  8
0
 10
-439.599030
 20
-157.977539
 11
-440.495605
 21
-161.323578
  0
LINE
  8
0
 10
-436.252625
 20
-157.081024
 11
-439.598694
 21
-157.977600
  0
LINE
  8
0
 10
-434.699738
 20
-162.876572
 11
-438.045776
 21
-163.773132
  0
LINE
  8
0
 10
-440.495148
 20
-161.323624
 11
-438.045685
 21
-163.773087
  0
LINE
  8
0
 10
-383.219574
 20
-210.113968
 11
-380.770081
 21
-212.563461
  0
LINE
  8
0
 10
-380.770416
 20
-212.563461
 11
-381.666992
 21
-215.909576
  0
LINE
  8
0
 10
-386.565887
 20
-211.010574
 11
-387.462463
 21
-214.356644
  0
LINE
  8
0
 10
-383.219635
 20
-210.114044
 11
-386.565704
 21
-211.010620
  0
LINE
  8
0
 10
-381.666748
 20
-215.909546
 11
-385.012787
 21
-216.806107
  0
LINE
  8
0
 10
-387.462189
 20
-214.356628
 11
-385.012726
 21
-216.806076
  0
LINE
  8
0
 10
-387.462280
 20
-159.530609
 11
-385.012756
 21
-157.081116
  0
LINE
  8
0
 10
-385.012848
 20
-157.081085
 11
-381.666809
 21
-157.977646
  0
LINE
  8
0
 10
-386.565826
 20
-162.876694
 11
-383.219757
 21
-163.773285
  0
LINE
  8
0
 10
-387.462219
 20
-159.530457
 11
-386.565643
 21
-162.876526
  0
LINE
  8
0
 10
-381.666656
 20
-157.977600
 11
-380.770081
 21
-161.323624
  0
LINE
  8
0
 10
-383.219604
 20
-163.773178
 11
-380.770142
 21
-161.323700
  0
LINE
  8
0
 10
-104.882790
 20
-271.943604
 11
-92.100960
 21
-271.943604
  0
LINE
  8
0
 10
-104.882790
 20
-101.943604
 11
-46.549599
 21
-101.943604
  0
LINE
  8
0
 10
-104.882790
 20
-250.943604
 11
-86.474037
 21
-250.943604
  0
LINE
  8
0
 10
-104.882790
 20
-266.943604
 11
-90.761208
 21
-266.943604
  0
LINE
  8
0
 10
-104.882790
 20
-106.943604
 11
-47.889351
 21
-106.943604
  0
LINE
  8
0
 10
-104.882790
 20
-122.943604
 11
-52.176521
 21
-122.943604
  0
LINE
  8
0
 10
-501.632782
 20
-95.943604
 11
-319.632782
 21
-95.943604
  0
LINE
  8
0
 10
-501.632782
 20
-277.943604
 11
-319.632782
 21
-277.943604
  0
LINE
  8
0
 10
-319.632782
 20
-95.943604
 11
-319.632782
 21
-277.943604
  0
LINE
  8
0
 10
-501.632782
 20
-95.943604
 11
-501.632782
 21
-277.943604
  0
LINE
  8
0
  6
CENTER
 62
     2
 10
-482.632782
 20
-244.156937
 11
-482.632782
 21
-273.970276
  0
LINE
  8
0
  6
CENTER
 62
     2
 10
-497.088226
 20
-258.943604
 11
-469.202240
 21
-258.943604
  0
LINE
  8
0
 10
-494.632782
 20
-252.015396
 11
-494.632782
 21
-265.871796
  0
LINE
  8
0
 10
-470.632782
 20
-252.015396
 11
-470.632782
 21
-265.871796
  0
LINE
  8
0
 10
-470.632812
 20
-265.871735
 11
-482.632843
 21
-272.799957
  0
LINE
  8
0
 10
-482.632874
 20
-245.087128
 11
-494.632843
 21
-252.015320
  0
LINE
  8
0
 10
-494.632660
 20
-265.871704
 11
-482.632690
 21
-272.799896
  0
LINE
  8
0
 10
-482.632751
 20
-245.087173
 11
-470.632751
 21
-252.015366
  0
LINE
  8
0
 10
-494.632751
 20
-121.871674
 11
-482.632751
 21
-128.799866
  0
LINE
  8
0
 10
-482.632751
 20
-101.087204
 11
-470.632721
 21
-108.015419
  0
LINE
  8
0
  6
CENTER
 62
     2
 10
-482.632782
 20
-100.156937
 11
-482.632782
 21
-129.970276
  0
LINE
  8
0
  6
CENTER
 62
     2
 10
-497.088226
 20
-114.943604
 11
-469.202240
 21
-114.943604
  0
LINE
  8
0
 10
-494.632782
 20
-108.015396
 11
-494.632782
 21
-121.871796
  0
LINE
  8
0
 10
-470.632782
 20
-108.015396
 11
-470.632782
 21
-121.871796
  0
LINE
  8
0
 10
-470.632874
 20
-121.871704
 11
-482.632874
 21
-128.799896
  0
LINE
  8
0
 10
-482.632874
 20
-101.087029
 11
-494.632874
 21
-108.015244
  0
LINE
  8
0
 10
-350.632782
 20
-121.871773
 11
-338.632782
 21
-128.799957
  0
LINE
  8
0
 10
-338.632751
 20
-101.087212
 11
-326.632782
 21
-108.015396
  0
LINE
  8
0
  6
CENTER
 62
     2
 10
-338.632782
 20
-100.156937
 11
-338.632782
 21
-129.970276
  0
LINE
  8
0
  6
CENTER
 62
     2
 10
-353.088257
 20
-114.943604
 11
-325.202209
 21
-114.943604
  0
LINE
  8
0
 10
-350.632782
 20
-108.015396
 11
-350.632782
 21
-121.871796
  0
LINE
  8
0
 10
-326.632782
 20
-108.015396
 11
-326.632782
 21
-121.871796
  0
LINE
  8
0
 10
-326.632904
 20
-121.871712
 11
-338.632904
 21
-128.799927
  0
LINE
  8
0
 10
-338.632874
 20
-101.087097
 11
-350.632843
 21
-108.015289
  0
LINE
  8
0
 10
-350.632690
 20
-265.871765
 11
-338.632721
 21
-272.799957
  0
LINE
  8
0
 10
-338.632751
 20
-245.087051
 11
-326.632721
 21
-252.015274
  0
LINE
  8
0
  6
CENTER
 62
     2
 10
-338.632782
 20
-244.156937
 11
-338.632782
 21
-273.970276
  0
LINE
  8
0
  6
CENTER
 62
     2
 10
-353.088257
 20
-258.943604
 11
-325.202209
 21
-258.943604
  0
LINE
  8
0
 10
-350.632782
 20
-252.015396
 11
-350.632782
 21
-265.871796
  0
LINE
  8
0
 10
-326.632782
 20
-252.015396
 11
-326.632782
 21
-265.871796
  0
LINE
  8
0
 10
-326.632812
 20
-265.871735
 11
-338.632843
 21
-272.799957
  0
LINE
  8
0
 10
-338.632812
 20
-245.087128
 11
-350.632843
 21
-252.015350
  0
LINE
  8
0
 10
-428.632782
 20
-178.225800
 11
-428.632782
 21
-195.661407
  0
LINE
  8
0
 10
-392.632782
 20
-178.225800
 11
-392.632782
 21
-195.661407
  0
LINE
  8
0
  6
PHANTOM
 62
     2
 10
-225.453812
 20
-283.842926
 11
-174.817123
 21
-94.864243
  0
LINE
  8
0
  6
PHANTOM
 62
     2
 10
-93.827980
 20
-278.389038
 11
-43.820648
 21
-91.759148
  0
LINE
  8
0
 10
-220.925720
 20
-266.943604
 11
-164.882782
 21
-266.943604
  0
LINE
  8
0
 10
-222.265442
 20
-271.943604
 11
-164.882782
 21
-271.943604
  0
LINE
  8
0
 10
-216.638519
 20
-250.943604
 11
-164.882782
 21
-250.943604
  0
LINE
  8
0
 10
-182.341003
 20
-122.943604
 11
-164.882782
 21
-122.943604
  0
LINE
  8
0
 10
-178.053833
 20
-106.943604
 11
-164.882782
 21
-106.943604
  0
LINE
  8
0
 10
-176.714081
 20
-101.943604
 11
-164.882782
 21
-101.943604
  0
LINE
  8
0
  6
CENTER
 62
     2
 10
-3.843887
 20
-218.137970
 11
331.316071
 21
-218.137970
  0
LINE
  8
0
  6
CENTER
 62
     2
 10
162.767822
 20
-98.137970
 11
162.767822
 21
-338.137970
  0
LINE
  8
0
  6
CENTER
 62
     2
 10
369.605072
 20
-218.137970
 11
524.713867
 21
-218.137970
  0
LINE
  8
0
 10
197.197372
 20
-246.910645
 11
200.463333
 21
-250.176620
  0
LINE
  8
0
 10
191.540421
 20
-252.567429
 11
194.806427
 21
-255.833435
  0
LINE
  8
0
 10
200.463165
 20
-250.176544
 11
199.267715
 21
-254.638000
  0
LINE
  8
0
 10
192.735703
 20
-248.105972
 11
191.540253
 21
-252.567398
  0
LINE
  8
0
 10
194.806274
 20
-255.833374
 11
199.267700
 21
-254.637939
  0
LINE
  8
0
 10
192.735809
 20
-248.105850
 11
197.197205
 21
-246.910431
  0
LINE
  8
0
 10
191.540421
 20
-183.708588
 11
194.806412
 21
-180.442612
  0
LINE
  8
0
 10
197.197311
 20
-189.365417
 11
200.463303
 21
-186.099426
  0
LINE
  8
0
 10
194.806473
 20
-180.442566
 11
199.267868
 21
-181.638000
  0
LINE
  8
0
 10
192.735901
 20
-188.169998
 11
197.197296
 21
-189.365433
  0
LINE
  8
0
 10
200.463287
 20
-186.099411
 11
199.267853
 21
-181.638016
  0
LINE
  8
0
 10
192.735931
 20
-188.169968
 11
191.540497
 21
-183.708542
  0
LINE
  8
0
 10
128.338409
 20
-189.365234
 11
125.072449
 21
-186.099258
  0
LINE
  8
0
 10
133.995346
 20
-183.708435
 11
130.729340
 21
-180.442429
  0
LINE
  8
0
 10
125.072319
 20
-186.099319
 11
126.267761
 21
-181.637894
  0
LINE
  8
0
 10
132.799744
 20
-188.169846
 11
133.995163
 21
-183.708435
  0
LINE
  8
0
 10
130.729279
 20
-180.442505
 11
126.267883
 21
-181.637939
  0
LINE
  8
0
 10
132.799805
 20
-188.169876
 11
128.338409
 21
-189.365295
  0
LINE
  8
0
 10
133.995148
 20
-252.567352
 11
130.729172
 21
-255.833328
  0
LINE
  8
0
 10
128.338333
 20
-246.910461
 11
125.072319
 21
-250.176468
  0
LINE
  8
0
 10
130.729187
 20
-255.833527
 11
126.267677
 21
-254.638062
  0
LINE
  8
0
 10
132.799728
 20
-248.106079
 11
128.338287
 21
-246.910645
  0
LINE
  8
0
 10
125.072418
 20
-250.176453
 11
126.267845
 21
-254.637833
  0
LINE
  8
0
 10
132.799850
 20
-248.105896
 11
133.995285
 21
-252.567291
  0
LINE
  8
0
 10
264.767822
 20
-116.137970
 11
264.767822
 21
-320.137970
  0
LINE
  8
0
 10
60.767822
 20
-116.137970
 11
60.767822
 21
-320.137970
  0
LINE
  8
0
 10
60.767822
 20
-320.137970
 11
264.767822
 21
-320.137970
  0
LINE
  8
0
 10
60.767822
 20
-116.137970
 11
264.767822
 21
-116.137970
  0
LINE
  8
0
  6
CENTER
 62
     2
 10
81.767822
 20
-118.928986
 11
81.767822
 21
-155.666153
  0
LINE
  8
0
  6
CENTER
 62
     2
 10
64.563599
 20
-137.137970
 11
98.474792
 21
-137.137970
  0
LINE
  8
0
 10
95.267822
 20
-129.351242
 11
95.267822
 21
-144.932190
  0
LINE
  8
0
 10
68.267822
 20
-129.343750
 11
68.267822
 21
-144.939697
  0
LINE
  8
0
 10
95.267807
 20
-144.932190
 11
81.761322
 21
-152.730179
  0
LINE
  8
0
 10
81.761200
 20
-121.553123
 11
68.267670
 21
-129.343628
  0
LINE
  8
0
 10
68.267868
 20
-144.939636
 11
81.761353
 21
-152.730103
  0
LINE
  8
0
 10
81.761284
 20
-121.553200
 11
95.267776
 21
-129.351166
  0
LINE
  8
0
  6
CENTER
 62
     2
 10
391.308929
 20
-137.137970
 11
546.417786
 21
-137.137970
  0
LINE
  8
0
  6
CENTER
 62
     2
 10
347.901184
 20
-299.137970
 11
504.010010
 21
-299.137970
  0
LINE
  8
0
 10
414.517822
 20
-128.137970
 11
404.073242
 21
-128.137970
  0
LINE
  8
0
 10
414.517822
 20
-121.637970
 11
405.814911
 21
-121.637970
  0
LINE
  8
0
 10
414.517822
 20
-146.137970
 11
399.250153
 21
-146.137970
  0
LINE
  8
0
 10
414.517822
 20
-290.137970
 11
360.665497
 21
-290.137970
  0
LINE
  8
0
 10
414.517822
 20
-308.137970
 11
355.842407
 21
-308.137970
  0
LINE
  8
0
 10
414.517822
 20
-314.637970
 11
354.100739
 21
-314.637970
  0
LINE
  8
0
  6
CENTER
 62
     2
 10
243.767822
 20
-118.928986
 11
243.767822
 21
-155.666153
  0
LINE
  8
0
  6
CENTER
 62
     2
 10
226.563568
 20
-137.137970
 11
260.474792
 21
-137.137970
  0
LINE
  8
0
 10
257.267822
 20
-129.351242
 11
257.267822
 21
-144.932190
  0
LINE
  8
0
 10
230.267822
 20
-129.343750
 11
230.267822
 21
-144.939697
  0
LINE
  8
0
 10
257.267822
 20
-144.932159
 11
243.761307
 21
-152.730148
  0
LINE
  8
0
 10
243.761337
 20
-121.553230
 11
230.267853
 21
-129.343704
  0
LINE
  8
0
 10
230.267807
 20
-144.939713
 11
243.761322
 21
-152.730194
  0
LINE
  8
0
 10
243.761337
 20
-121.553291
 11
257.267822
 21
-129.351257
  0
LINE
  8
0
  6
CENTER
 62
     2
 10
243.767822
 20
-280.928986
 11
243.767822
 21
-317.666138
  0
LINE
  8
0
  6
CENTER
 62
     2
 10
226.563568
 20
-299.137970
 11
260.474792
 21
-299.137970
  0
LINE
  8
0
 10
257.267822
 20
-291.351257
 11
257.267822
 21
-306.932190
  0
LINE
  8
0
 10
230.267822
 20
-291.343750
 11
230.267822
 21
-306.939697
  0
LINE
  8
0
 10
257.267883
 20
-306.932220
 11
243.761337
 21
-314.730225
  0
LINE
  8
0
 10
243.761398
 20
-283.553375
 11
230.267883
 21
-291.343872
  0
LINE
  8
0
 10
230.267838
 20
-306.939606
 11
243.761353
 21
-314.730072
  0
LINE
  8
0
 10
243.761337
 20
-283.553162
 11
257.267822
 21
-291.351135
  0
LINE
  8
0
  6
CENTER
 62
     2
 10
81.767822
 20
-280.928986
 11
81.767822
 21
-317.666138
  0
LINE
  8
0
  6
CENTER
 62
     2
 10
64.563599
 20
-299.137970
 11
98.474792
 21
-299.137970
  0
LINE
  8
0
 10
95.267822
 20
-291.351257
 11
95.267822
 21
-306.932190
  0
LINE
  8
0
 10
68.267822
 20
-291.343750
 11
68.267822
 21
-306.939697
  0
LINE
  8
0
 10
95.267845
 20
-306.932068
 11
81.761360
 21
-314.730072
  0
LINE
  8
0
 10
81.761292
 20
-283.553223
 11
68.267784
 21
-291.343689
  0
LINE
  8
0
 10
68.267914
 20
-306.939514
 11
81.761452
 21
-314.729980
  0
LINE
  8
0
 10
81.761429
 20
-283.553101
 11
95.267914
 21
-291.351074
  0
LINE
  8
0
 10
183.267822
 20
-208.864349
 11
183.267822
 21
-227.411591
  0
LINE
  8
0
 10
142.267822
 20
-208.864349
 11
142.267822
 21
-227.411591
  0
LINE
  8
0
  6
PHANTOM
 62
     2
 10
352.620972
 20
-320.161072
 11
407.517944
 21
-115.282639
  0
LINE
  8
0
  6
PHANTOM
 62
     2
 10
484.518036
 20
-322.050781
 11
539.900330
 21
-115.361076
  0
LINE
  8
0
 10
538.218140
 20
-121.637970
 11
476.517822
 21
-121.637970
  0
LINE
  8
0
 10
536.476440
 20
-128.137970
 11
474.517822
 21
-128.137970
  0
LINE
  8
0
 10
531.653381
 20
-146.137970
 11
476.517822
 21
-146.137970
  0
LINE
  8
0
 10
493.068726
 20
-290.137970
 11
476.517822
 21
-290.137970
  0
LINE
  8
0
 10
488.245636
 20
-308.137970
 11
476.517822
 21
-308.137970
  0
LINE
  8
0
 10
486.503967
 20
-314.637970
 11
476.517822
 21
-314.637970
  0
LINE
  8
0
  6
CENTER
 62
     1
 10
-134.882782
 20
-74.483612
 11
-134.882782
 21
-299.411011
  0
LINE
  8
0
 62
     4
 10
-164.882782
 20
-82.943604
 11
-164.882782
 21
-290.943604
  0
LINE
  8
0
 62
     4
 10
-104.882782
 20
-82.943604
 11
-104.882782
 21
-290.943604
  0
LINE
  8
0
 62
     4
 10
-164.882782
 20
-226.943604
 11
-104.882782
 21
-226.943604
  0
LINE
  8
0
 62
     4
 10
-164.882782
 20
-146.943604
 11
-104.882782
 21
-146.943604
  0
LINE
  8
0
 62
     4
 10
-164.882782
 20
-277.943604
 11
-104.882782
 21
-277.943604
  0
LINE
  8
0
 62
     4
 10
-164.882782
 20
-95.943604
 11
-104.882782
 21
-95.943604
  0
LINE
  8
0
 62
     4
 10
-164.882782
 20
-290.943604
 11
-104.882782
 21
-290.943604
  0
LINE
  8
0
 62
     4
 10
-164.882782
 20
-82.943604
 11
-104.882782
 21
-82.943604
  0
LINE
  8
0
 62
     4
 10
-556.632813
 20
-206.943604
 11
-516.632813
 21
-206.943604
  0
LINE
  8
0
 62
     4
 10
-556.632813
 20
-166.943604
 11
-516.632813
 21
-166.943604
  0
LINE
  8
0
 62
     4
 10
-516.632813
 20
-226.943604
 11
-510.632782
 21
-226.943604
  0
LINE
  8
0
 62
     4
 10
-516.632813
 20
-146.943604
 11
-510.632782
 21
-146.943604
  0
LINE
  8
0
 62
     4
 10
-304.632782
 20
-146.943604
 11
-304.632782
 21
-226.943604
  0
LINE
  8
0
 62
     4
 10
-516.632813
 20
-146.943604
 11
-516.632813
 21
-226.943604
  0
LINE
  8
0
 62
     4
 10
-264.632782
 20
-166.943604
 11
-264.632782
 21
-206.943604
  0
LINE
  8
0
 62
     4
 10
-556.632813
 20
-166.943604
 11
-556.632813
 21
-206.943604
  0
LINE
  8
0
 62
     4
 10
-304.632782
 20
-166.943604
 11
-264.632782
 21
-166.943604
  0
LINE
  8
0
 62
     4
 10
-304.632782
 20
-206.943604
 11
-264.632782
 21
-206.943604
  0
LINE
  8
0
 62
     4
 10
-310.632782
 20
-226.943604
 11
-304.632782
 21
-226.943604
  0
LINE
  8
0
 62
     4
 10
-310.632782
 20
-146.943604
 11
-304.632782
 21
-146.943604
  0
LINE
  8
0
 62
     4
 10
-310.632629
 20
-146.943573
 11
-319.632629
 21
-112.502060
  0
LINE
  8
0
 62
     4
 10
-310.632690
 20
-226.943649
 11
-319.632690
 21
-261.385132
  0
LINE
  8
0
 62
     4
 10
-510.632477
 20
-226.943512
 11
-501.632507
 21
-261.384888
  0
LINE
  8
0
 62
     4
 10
-510.632568
 20
-146.943634
 11
-501.632599
 21
-112.502228
  0
LINE
  8
0
 62
     4
 10
-114.882782
 20
271.427612
 11
-154.882782
 21
271.427612
  0
LINE
  8
0
 62
     4
 10
-104.882782
 20
231.427612
 11
-164.882782
 21
231.427612
  0
LINE
  8
0
 62
     4
 10
-104.882782
 20
225.427612
 11
-164.882782
 21
225.427612
  0
LINE
  8
0
 62
     4
 10
-104.882782
 20
19.427582
 11
-164.882782
 21
19.427582
  0
LINE
  8
0
 62
     4
 10
-104.882782
 20
25.427582
 11
-164.882782
 21
25.427582
  0
LINE
  8
0
 62
     4
 10
-114.882782
 20
-20.572418
 11
-154.882782
 21
-20.572418
  0
LINE
  8
0
  6
CENTER
 62
     1
 10
-84.882782
 20
125.427582
 11
-184.882782
 21
125.427582
  0
LINE
  8
0
 62
     4
 10
-164.882782
 20
231.427612
 11
-164.882782
 21
19.427582
  0
LINE
  8
0
 62
     4
 10
-104.882782
 20
231.427612
 11
-104.882782
 21
19.427582
  0
LINE
  8
0
  6
CENTER
 62
     1
 10
-134.882782
 20
282.647156
 11
-134.882782
 21
-30.544220
  0
LINE
  8
0
 62
     4
 10
-114.882782
 20
271.427612
 11
-114.882782
 21
231.427612
  0
LINE
  8
0
 62
     4
 10
-154.882782
 20
271.427612
 11
-154.882782
 21
231.427612
  0
LINE
  8
0
 62
     4
 10
-154.882782
 20
19.427582
 11
-154.882782
 21
-20.572418
  0
LINE
  8
0
 62
     4
 10
-114.882782
 20
19.427582
 11
-114.882782
 21
-20.572418
  0
LINE
  8
0
  6
CENTER
 62
     1
 10
445.517822
 20
-99.047913
 11
445.517822
 21
-337.852325
  0
LINE
  8
0
 62
     4
 10
476.517822
 20
-105.637970
 11
476.517822
 21
-330.637970
  0
LINE
  8
0
 62
     4
 10
414.517822
 20
-105.637970
 11
414.517822
 21
-330.637970
  0
LINE
  8
0
 62
     4
 10
414.517822
 20
-263.137970
 11
476.517822
 21
-263.137970
  0
LINE
  8
0
 62
     4
 10
414.517822
 20
-173.137970
 11
476.517822
 21
-173.137970
  0
LINE
  8
0
 62
     4
 10
414.517822
 20
-135.637970
 11
476.517822
 21
-135.637970
  0
LINE
  8
0
 62
     4
 10
414.517822
 20
-300.637970
 11
476.517822
 21
-300.637970
  0
LINE
  8
0
 62
     4
 10
414.517822
 20
-105.637970
 11
476.517822
 21
-105.637970
  0
LINE
  8
0
 62
     4
 10
414.517822
 20
-330.637970
 11
476.517822
 21
-330.637970
  0
LINE
  8
0
 62
     4
 10
275.267822
 20
-135.637970
 11
275.267822
 21
-173.137970
  0
LINE
  8
0
 62
     4
 10
50.267822
 20
-135.637970
 11
50.267822
 21
-173.137970
  0
LINE
  8
0
 62
     4
 10
80.267822
 20
-330.637970
 11
245.267792
 21
-330.637970
  0
LINE
  8
0
 62
     4
 10
80.267822
 20
-105.637970
 11
245.267822
 21
-105.637970
  0
LINE
  8
0
 62
     4
 10
44.767822
 20
-263.137970
 11
50.267822
 21
-263.137970
  0
LINE
  8
0
 62
     4
 10
44.767822
 20
-173.137970
 11
50.267822
 21
-173.137970
  0
LINE
  8
0
 62
     4
 10
-0.232178
 20
-240.637970
 11
44.767822
 21
-240.637970
  0
LINE
  8
0
 62
     4
 10
-0.232178
 20
-195.637970
 11
44.767822
 21
-195.637970
  0
LINE
  8
0
 62
     4
 10
280.767822
 20
-173.137970
 11
280.767822
 21
-263.137970
  0
LINE
  8
0
 62
     4
 10
44.767822
 20
-173.137970
 11
44.767822
 21
-263.137970
  0
LINE
  8
0
 62
     4
 10
325.767822
 20
-195.637970
 11
325.767822
 21
-240.637970
  0
LINE
  8
0
 62
     4
 10
-0.232178
 20
-195.637970
 11
-0.232178
 21
-240.637970
  0
LINE
  8
0
 62
     4
 10
280.767822
 20
-195.637970
 11
325.767822
 21
-195.637970
  0
LINE
  8
0
 62
     4
 10
280.767822
 20
-240.637970
 11
325.767822
 21
-240.637970
  0
LINE
  8
0
 62
     4
 10
275.267822
 20
-263.137970
 11
280.767822
 21
-263.137970
  0
LINE
  8
0
 62
     4
 10
275.267822
 20
-173.137970
 11
280.767822
 21
-173.137970
  0
LINE
  8
0
 62
     4
 10
275.267822
 20
-263.137970
 11
275.267822
 21
-300.637970
  0
LINE
  8
0
 62
     4
 10
50.267822
 20
-263.137970
 11
50.267822
 21
-300.637970
  0
LINE
  8
0
 62
     4
 10
50.267834
 20
-135.637970
 11
60.767857
 21
-125.137955
  0
LINE
  8
0
 62
     4
 10
245.267792
 20
-105.637962
 11
255.767792
 21
-116.137962
  0
LINE
  8
0
 62
     4
 10
275.267883
 20
-300.637939
 11
264.767883
 21
-311.137939
  0
LINE
  8
0
 62
     4
 10
80.267700
 20
-330.638092
 11
69.767723
 21
-320.138123
  0
LINE
  8
0
 62
     4
 10
60.767715
 20
-311.138092
 11
50.267719
 21
-300.638092
  0
LINE
  8
0
 62
     4
 10
255.767883
 20
-320.137909
 11
245.267868
 21
-330.637909
  0
LINE
  8
0
 62
     4
 10
264.767792
 20
-125.137970
 11
275.267792
 21
-135.637970
  0
LINE
  8
0
 62
     4
 10
69.767799
 20
-116.138008
 11
80.267838
 21
-105.637978
  0
LINE
  8
0
 62
     4
 10
468.017822
 20
287.540131
 11
423.017822
 21
287.540131
  0
LINE
  8
0
 62
     4
 10
476.517822
 20
242.540131
 11
414.517822
 21
242.540131
  0
LINE
  8
0
 62
     4
 10
476.517822
 20
237.040131
 11
414.517822
 21
237.040131
  0
LINE
  8
0
 62
     4
 10
476.517822
 20
207.040009
 11
414.517822
 21
207.040009
  0
LINE
  8
0
 62
     4
 10
476.517822
 20
42.040100
 11
414.517822
 21
42.040100
  0
LINE
  8
0
  6
CENTER
 62
     1
 10
495.517822
 20
124.540100
 11
395.517822
 21
124.540100
  0
LINE
  8
0
 62
     4
 10
476.517822
 20
12.040100
 11
414.517822
 21
12.040100
  0
LINE
  8
0
 62
     4
 10
476.517822
 20
6.540100
 11
414.517822
 21
6.540100
  0
LINE
  8
0
 62
     4
 10
468.017822
 20
-38.459900
 11
423.017822
 21
-38.459900
  0
LINE
  8
0
  6
CENTER
 62
     1
 10
445.517822
 20
304.540131
 11
445.517822
 21
-55.459900
  0
LINE
  8
0
 62
     4
 10
414.517822
 20
242.540131
 11
414.517822
 21
6.540100
  0
LINE
  8
0
 62
     4
 10
476.517822
 20
242.540131
 11
476.517822
 21
6.540100
  0
LINE
  8
0
 62
     4
 10
423.017822
 20
287.540131
 11
423.017822
 21
242.540131
  0
LINE
  8
0
 62
     4
 10
468.017822
 20
287.540131
 11
468.017822
 21
242.540131
  0
LINE
  8
0
 62
     4
 10
423.017822
 20
6.540100
 11
423.017822
 21
-38.459900
  0
LINE
  8
0
 62
     4
 10
468.017822
 20
6.540100
 11
468.017822
 21
-38.459900
  0
ARC
  8
0
 10
-441.353424
 20
-167.233368
 40
0.999999
 50
58.297192
 51
147.315308
  0
CIRCLE
  8
0
 10
-410.632782
 20
-186.943604
 40
30.000000
  0
ARC
  8
0
 10
-410.632782
 20
-186.943604
 40
37.500000
 50
0.000000
 51
32.684078
  0
ARC
  8
0
 10
-437.149261
 20
-213.460114
 40
7.000000
 50
0.000000
 51
121.703087
  0
ARC
  8
0
 10
-437.149261
 20
-160.427094
 40
7.000000
 50
0.000000
 51
31.702848
  0
ARC
  8
0
 10
-384.116302
 20
-160.427094
 40
7.000012
 50
148.297150
 51
301.702820
  0
ARC
  8
0
 10
-410.632782
 20
-186.943604
 40
37.500004
 50
57.315922
 51
122.684090
  0
ARC
  8
0
 10
-390.922577
 20
-156.222992
 40
1.000012
 50
328.297638
 51
57.315781
  0
ARC
  8
0
 10
-379.912140
 20
-167.233368
 40
0.999987
 50
32.684692
 51
121.702805
  0
ARC
  8
0
 10
-410.632782
 20
-186.943604
 40
37.499996
 50
327.315948
 51
0.000000
  0
ARC
  8
0
 10
-384.116302
 20
-213.460114
 40
7.000007
 50
58.296978
 51
211.702850
  0
ARC
  8
0
 10
-379.912140
 20
-206.653839
 40
0.999999
 50
238.297195
 51
327.316254
  0
ARC
  8
0
 10
-390.922577
 20
-217.664230
 40
1.000000
 50
302.684235
 51
31.703268
  0
ARC
  8
0
 10
-410.632782
 20
-186.943604
 40
37.499992
 50
237.315903
 51
302.684082
  0
ARC
  8
0
 10
-437.149261
 20
-213.460114
 40
6.999986
 50
328.297028
 51
0.000000
  0
ARC
  8
0
 10
-430.342987
 20
-217.664230
 40
1.000012
 50
148.297653
 51
237.315781
  0
ARC
  8
0
 10
-441.353424
 20
-206.653839
 40
1.000013
 50
212.683746
 51
301.702820
  0
ARC
  8
0
 10
-410.632782
 20
-186.943604
 40
37.499996
 50
147.315948
 51
212.684021
  0
ARC
  8
0
 10
-437.149261
 20
-160.427094
 40
6.999994
 50
238.296921
 51
0.000000
  0
ARC
  8
0
 10
-430.342987
 20
-156.222992
 40
1.000000
 50
122.684219
 51
211.703262
  0
CIRCLE
  8
0
 10
-410.632782
 20
-186.943604
 40
45.000000
  0
CIRCLE
  8
0
 10
-437.149261
 20
-213.460114
 40
6.500000
  0
CIRCLE
  8
0
 10
-384.116302
 20
-213.460114
 40
6.500000
  0
CIRCLE
  8
0
 10
-384.116302
 20
-160.427094
 40
6.500000
  0
CIRCLE
  8
0
 10
-437.149261
 20
-160.427094
 40
6.500000
  0
CIRCLE
  8
0
 10
-482.632782
 20
-258.943604
 40
8.000000
  0
CIRCLE
  8
0
 10
-338.632782
 20
-258.943604
 40
8.000000
  0
CIRCLE
  8
0
 10
-338.632782
 20
-114.943604
 40
8.000000
  0
CIRCLE
  8
0
 10
-482.632782
 20
-114.943604
 40
8.000000
  0
CIRCLE
  8
0
 10
-482.632782
 20
-258.943604
 40
11.500000
  0
CIRCLE
  8
0
 10
-482.632782
 20
-114.943604
 40
11.500000
  0
CIRCLE
  8
0
 10
-338.632782
 20
-114.943604
 40
11.500000
  0
CIRCLE
  8
0
 10
-338.632782
 20
-258.943604
 40
11.500000
  0
CIRCLE
  8
0
 10
-410.632782
 20
-186.943604
 40
20.000000
  0
CIRCLE
  8
0
 10
-410.632782
 20
-186.943604
 40
18.000000
  0
CIRCLE
  8
0
 62
     2
 10
-482.632782
 20
-258.943604
 40
5.400000
  0
CIRCLE
  8
0
 62
     2
 10
-482.632782
 20
-114.943604
 40
5.400000
  0
CIRCLE
  8
0
 62
     2
 10
-410.632782
 20
-186.943604
 40
15.400000
  0
CIRCLE
  8
0
 62
     2
 10
-338.632782
 20
-114.943604
 40
5.400000
  0
CIRCLE
  8
0
 62
     2
 10
-338.632782
 20
-258.943604
 40
5.400000
  0
CIRCLE
  8
0
 10
162.767822
 20
-218.137970
 40
57.500000
  0
ARC
  8
0
 10
196.001801
 20
-251.372040
 40
10.000008
 50
56.944412
 51
213.055389
  0
CIRCLE
  8
0
 10
196.001801
 20
-251.372040
 40
8.000000
  0
CIRCLE
  8
0
 10
196.001892
 20
-184.903992
 40
8.000000
  0
CIRCLE
  8
0
 10
129.533813
 20
-184.903900
 40
8.000000
  0
CIRCLE
  8
0
 10
129.533752
 20
-251.371948
 40
8.000000
  0
ARC
  8
0
 10
202.001831
 20
-194.123566
 40
0.999999
 50
31.470844
 51
123.055977
  0
ARC
  8
0
 10
202.001770
 20
-242.152496
 40
1.000009
 50
236.944504
 51
328.530365
  0
ARC
  8
0
 10
162.767822
 20
-218.137970
 40
46.999996
 50
328.529846
 51
31.470057
  0
ARC
  8
0
 10
196.001892
 20
-184.903992
 40
9.999995
 50
146.944366
 51
303.055389
  0
ARC
  8
0
 10
186.782349
 20
-178.904022
 40
1.000009
 50
326.944489
 51
58.530357
  0
ARC
  8
0
 10
162.767822
 20
-218.137970
 40
46.999996
 50
58.529835
 51
121.470055
  0
ARC
  8
0
 10
138.753418
 20
-178.903961
 40
0.999999
 50
121.470840
 51
213.055969
  0
ARC
  8
0
 10
129.533813
 20
-184.903900
 40
10.000004
 50
236.944443
 51
33.055393
  0
ARC
  8
0
 10
123.533875
 20
-194.123459
 40
1.000005
 50
56.944870
 51
148.530136
  0
ARC
  8
0
 10
162.767822
 20
-218.137970
 40
47.000004
 50
148.529846
 51
211.470047
  0
ARC
  8
0
 10
123.533813
 20
-242.152374
 40
1.000006
 50
211.470612
 51
303.055969
  0
ARC
  8
0
 10
129.533752
 20
-251.371948
 40
10.000008
 50
326.944397
 51
123.055397
  0
ARC
  8
0
 10
138.753296
 20
-257.371918
 40
1.000000
 50
146.945236
 51
238.529907
  0
ARC
  8
0
 10
162.767822
 20
-218.137970
 40
47.000011
 50
238.529846
 51
301.470062
  0
ARC
  8
0
 10
186.782227
 20
-257.371979
 40
0.999999
 50
301.470856
 51
33.056705
  0
CIRCLE
  8
0
 10
81.767822
 20
-137.137970
 40
9.000000
  0
CIRCLE
  8
0
 10
81.767822
 20
-137.137970
 40
13.000000
  0
CIRCLE
  8
0
 10
243.767822
 20
-137.137970
 40
9.000000
  0
CIRCLE
  8
0
 10
243.767822
 20
-137.137970
 40
13.000000
  0
CIRCLE
  8
0
 10
243.767822
 20
-299.137970
 40
9.000000
  0
CIRCLE
  8
0
 10
243.767822
 20
-299.137970
 40
13.000000
  0
CIRCLE
  8
0
 10
81.767822
 20
-299.137970
 40
9.000000
  0
CIRCLE
  8
0
 10
81.767822
 20
-299.137970
 40
13.000000
  0
CIRCLE
  8
0
 10
162.767822
 20
-218.137970
 40
20.000000
  0
CIRCLE
  8
0
 10
162.767822
 20
-218.137970
 40
22.500000
  0
CIRCLE
  8
0
 10
162.767822
 20
-218.137970
 40
35.000000
  0
CIRCLE
  8
0
 62
     2
 10
81.767822
 20
-299.137970
 40
6.400000
  0
CIRCLE
  8
0
 62
     2
 10
243.767822
 20
-137.137970
 40
6.400000
  0
CIRCLE
  8
0
 62
     2
 10
243.767822
 20
-299.137970
 40
6.400000
  0
CIRCLE
  8
0
 62
     2
 10
81.767822
 20
-137.137970
 40
6.400000
  0
CIRCLE
  8
0
 62
     2
 10
162.767822
 20
-218.137970
 40
17.400000
  0
CIRCLE
  8
0
 62
     4
 10
-134.882782
 20
-186.943604
 40
20.000000
  0
ARC
  8
0
 62
     4
 10
-410.632782
 20
-186.943604
 40
104.000000
 50
61.044975
 51
118.955048
  0
ARC
  8
0
 62
     4
 10
-410.632782
 20
-186.943604
 40
104.000015
 50
241.044952
 51
298.955017
  0
CIRCLE
  8
0
 62
     4
 10
445.517822
 20
-218.137970
 40
22.500000
  0
TEXT
  8
0
 10
-544.785156
 20
375.250000
 40
12.500000
  1
SD TRUNNION,-11
 50
0.000000
 41
1.052632
 51
0.000000
  7
STANDARD
  0
TEXT
  8
0
 10
18.214844
 20
330.250000
 40
12.500000
  1
BORE:180
 50
0.000000
 41
1.052632
 51
0.000000
  7
STANDARD
  0
TEXT
  8
0
 10
364.214844
 20
375.250000
 40
12.500000
  1
DATE: AUG ,1993
 50
0.000000
 41
1.052632
 51
0.000000
  7
STANDARD
  0
TEXT
  8
0
 10
345.179352
 20
-400.700012
 40
18.000000
  1
KOGANEI CORP.
 50
0.000000
 41
1.052632
 51
0.000000
  7
STANDARD
  0
TEXT
  8
0
 10
-542.285156
 20
330.250000
 40
12.500000
  1
BORE:160
 50
0.000000
 41
1.052632
 51
0.000000
  7
STANDARD
  0
ENDSEC
  0
EOF
