  0
SECTION
  2
HEADER
  0
ENDSEC
  0
SECTION
  2
TABLES
  0
TABLE
  2
LTYPE
 70
     4
  0
LTYPE
  2
CONTINUOUS
 70
    64
  3
Solid line
 72
    65
 73
     0
 40
0.000000
  0
LTYPE
  2
DASHED
 70
    64
  3
__ __ __ __ __ __ __ __ __ __ __ __ __ __ __
 72
    65
 73
     2
 40
3.500000
 49
2.000000
 49
-1.500000
  0
LTYPE
  2
CENTER
 70
    64
  3
____ _ ____ _ ____ _ ____ _ ____ _ ____ _ ____
 72
    65
 73
     4
 40
17.500000
 49
13.000000
 49
-1.500000
 49
1.500000
 49
-1.500000
  0
LTYPE
  2
PHANTOM
 70
    64
  3
_____ _ _ _____ _ _ _____ _ _ _____ _ _ ____  
 72
    65
 73
     6
 40
15.500000
 49
8.000000
 49
-1.500000
 49
1.500000
 49
-1.500000
 49
1.500000
 49
-1.500000
  0
LTYPE
  2
DASHED1
 70
    64
  3
__ __ __ __ __ __ __ __ __ __ __ __ __ __ __
 72
    65
 73
     2
 40
1.500000
 49
1.000000
 49
-0.500000
  0
LTYPE
  2
DASHED2
 70
    64
  3
__ __ __ __ __ __ __ __ __ __ __ __ __ __ __
 72
    65
 73
     2
 40
3.500000
 49
2.500000
 49
-1.000000
  0
LTYPE
  2
DASHED3
 70
    64
  3
__ __ __ __ __ __ __ __ __ __ __ __ __ __ __
 72
    65
 73
     2
 40
6.000000
 49
4.000000
 49
-2.000000
  0
LTYPE
  2
DASHED4
 70
    64
  3
__ __ __ __ __ __ __ __ __ __ __ __ __ __ __
 72
    65
 73
     2
 40
12.000000
 49
10.000000
 49
-2.000000
  0
LTYPE
  2
DASHED5
 70
    64
  3
__ __ __ __ __ __ __ __ __ __ __ __ __ __ __
 72
    65
 73
     2
 40
17.000000
 49
15.000000
 49
-2.000000
  0
LTYPE
  2
DASHED6
 70
    64
  3
__ __ __ __ __ __ __ __ __ __ __ __ __ __ __
 72
    65
 73
     2
 40
29.000000
 49
27.000000
 49
-2.000000
  0
LTYPE
  2
PHANTOM1
 70
    64
  3
_____ _ _ _____ _ _ _____ _ _ _____ _ _ ____  
 72
    65
 73
     6
 40
31.000000
 49
25.000000
 49
-1.500000
 49
1.000000
 49
-1.000000
 49
1.000000
 49
-1.500000
  0
LTYPE
  2
PHANTOM2
 70
    64
  3
_____ _ _ _____ _ _ _____ _ _ _____ _ _ ____  
 72
    65
 73
     6
 40
36.000000
 49
27.000000
 49
-1.500000
 49
2.500000
 49
-1.000000
 49
2.500000
 49
-1.500000
  0
LTYPE
  2
PHANTOM3
 70
    64
  3
_____ _ _ _____ _ _ _____ _ _ _____ _ _ ____  
 72
    65
 73
     6
 40
78.000000
 49
64.000000
 49
-2.000000
 49
4.000000
 49
-2.000000
 49
4.000000
 49
-2.000000
  0
LTYPE
  2
CENTER1
 70
    64
  3
____ _ ____ _ ____ _ ____ _ ____ _ ____ _ ____
 72
    65
 73
     4
 40
19.000000
 49
14.000000
 49
-1.000000
 49
3.000000
 49
-1.000000
  0
LTYPE
  2
CENTER2
 70
    64
  3
____ _ ____ _ ____ _ ____ _ ____ _ ____ _ ____
 72
    65
 73
     4
 40
28.500000
 49
25.000000
 49
-1.000000
 49
1.500000
 49
-1.000000
  0
LTYPE
  2
CENTER3
 70
    64
  3
____ _ ____ _ ____ _ ____ _ ____ _ ____ _ ____
 72
    65
 73
     4
 40
31.500000
 49
27.000000
 49
-1.000000
 49
2.500000
 49
-1.000000
  0
LTYPE
  2
CENTER4
 70
    64
  3
____ _ ____ _ ____ _ ____ _ ____ _ ____ _ ____
 72
    65
 73
     4
 40
50.000000
 49
45.000000
 49
-1.000000
 49
3.000000
 49
-1.000000
  0
LTYPE
  2
CENTER5
 70
    64
  3
____ _ ____ _ ____ _ ____ _ ____ _ ____ _ ____
 72
    65
 73
     4
 40
100.000000
 49
92.000000
 49
-2.000000
 49
4.000000
 49
-2.000000
  0
LTYPE
  2
SBK1
 70
    64
  3
______ _ _ _ ______ _ _ _ ______ _ _ _ _____  
 72
    65
 73
     8
 40
60.500000
 49
45.000000
 49
-2.000000
 49
2.500000
 49
-2.000000
 49
2.500000
 49
-2.000000
 49
2.500000
 49
-2.000000
  0
LTYPE
  2
SBK2
 70
    64
  3
______ _ _ _ ______ _ _ _ ______ _ _ _ _____  
 72
    65
 73
     8
 40
84.000000
 49
64.000000
 49
-2.000000
 49
4.000000
 49
-2.000000
 49
4.000000
 49
-2.000000
 49
4.000000
 49
-2.000000
  0
LTYPE
  2
STCH
 70
    64
  3
__ __ __ __ __ __ __ __ __ __ __ __ __ __ __
 72
    65
 73
     2
 40
3.000000
 49
1.000000
 49
-2.000000
  0
LTYPE
  2
MTCH
 70
    64
  3
_____ _ _ _____ _ _ _____ _ _ _____ _ _ ____  
 72
    65
 73
     6
 40
80.000000
 49
66.000000
 49
-2.000000
 49
4.000000
 49
-2.000000
 49
4.000000
 49
-2.000000
  0
ENDTAB
  0
TABLE
  2
LAYER
 70
     1
  0
LAYER
  2
0
 70
     0
 62
     7
  6
CONTINUOUS
  0
ENDTAB
  0
TABLE
  2
STYLE
 70
     1
  0
STYLE
  2
STANDARD
 70
     0
 40
0.000000
 41
1.000000
 50
0.000000
 71
     0
 42
0.200000
  3
txt
  4
BIGFONT
  0
ENDTAB
  0
TABLE
  2
VIEW
 70
     0
  0
ENDTAB
  0
ENDSEC
  0
SECTION
  2
BLOCKS
  0
ENDSEC
  0
SECTION
  2
ENTITIES
  0
LINE
  8
0
 10
399.799988
 20
276.250000
 11
399.799988
 21
-276.750000
  0
LINE
  8
0
 10
-399.250000
 20
276.250000
 11
-399.250000
 21
-276.750000
  0
LINE
  8
0
 10
-399.250000
 20
276.250000
 11
399.799988
 21
276.250000
  0
LINE
  8
0
 10
-399.250000
 20
-276.750000
 11
399.799988
 21
-276.750000
  0
LINE
  8
0
 10
239.799988
 20
-251.750000
 11
399.799988
 21
-251.750000
  0
LINE
  8
0
 10
239.799988
 20
251.250000
 11
399.799988
 21
251.250000
  0
LINE
  8
0
 10
-399.250000
 20
251.250000
 11
-239.250000
 21
251.250000
  0
LINE
  8
0
 10
239.799988
 20
-251.750000
 11
239.799988
 21
-276.750000
  0
LINE
  8
0
 10
239.799988
 20
251.250000
 11
239.799988
 21
276.250000
  0
LINE
  8
0
 10
-239.250000
 20
276.250000
 11
-239.250000
 21
251.250000
  0
LINE
  8
0
 10
0.000000
 20
0.000000
 11
0.000000
 21
-276.750000
  0
LINE
  8
0
 10
-399.250000
 20
0.000000
 11
399.799988
 21
0.000000
  0
LINE
  8
0
 10
-132.899994
 20
0.000000
 11
-132.899994
 21
276.250000
  0
LINE
  8
0
 10
133.450012
 20
0.000000
 11
133.450012
 21
276.250000
  0
LINE
  8
0
  6
CENTER
 62
     1
 10
-319.344971
 20
162.501480
 11
-319.344971
 21
82.501480
  0
LINE
  8
0
  6
CENTER
 62
     1
 10
-59.629974
 20
162.501480
 11
-59.629974
 21
82.501480
  0
LINE
  8
0
  6
CENTER
 62
     1
 10
206.720016
 20
162.501480
 11
206.720016
 21
82.501480
  0
LINE
  8
0
  6
CENTER
 62
     1
 10
-279.344971
 20
-91.008896
 11
-279.344971
 21
-191.008896
  0
LINE
  8
0
  6
CENTER
 62
     1
 10
106.815033
 20
-81.008896
 11
106.815033
 21
-201.008896
  0
LINE
  8
0
  6
CENTER
 62
     1
 10
46.815033
 20
-141.008896
 11
166.815033
 21
-141.008896
  0
LINE
  8
0
  6
CENTER
 62
     1
 10
-329.344971
 20
-141.008896
 11
-229.344971
 21
-141.008896
  0
LINE
  8
0
  6
CENTER
 62
     1
 10
166.720016
 20
122.501480
 11
246.720016
 21
122.501480
  0
LINE
  8
0
  6
CENTER
 62
     1
 10
-99.629974
 20
122.501480
 11
-19.629974
 21
122.501480
  0
LINE
  8
0
  6
CENTER
 62
     1
 10
-359.344971
 20
122.501480
 11
-279.344971
 21
122.501480
  0
LINE
  8
0
  6
CENTER
 62
     1
 10
-157.669968
 20
-141.008881
 11
-107.669968
 21
-141.008881
  0
LINE
  8
0
  6
CENTER
 62
     1
 10
246.989990
 20
-141.008881
 11
306.989990
 21
-141.008881
  0
LINE
  8
0
  6
CENTER
 62
     1
 10
299.760010
 20
122.501480
 11
349.760010
 21
122.501480
  0
LINE
  8
0
  6
CENTER
 62
     1
 10
32.410027
 20
122.501480
 11
82.410027
 21
122.501480
  0
LINE
  8
0
  6
CENTER
 62
     1
 10
-235.439957
 20
122.501480
 11
-185.439957
 21
122.501480
  0
LINE
  8
0
 62
     4
 10
-342.344971
 20
135.780533
 11
-342.344971
 21
109.222427
  0
LINE
  8
0
 62
     4
 10
-296.344971
 20
135.780533
 11
-296.344971
 21
109.222427
  0
LINE
  8
0
 62
     4
 10
-342.344971
 20
135.780548
 11
-319.344971
 21
149.059601
  0
LINE
  8
0
 62
     4
 10
-319.344971
 20
95.943375
 11
-296.345001
 21
109.222420
  0
LINE
  8
0
 62
     4
 10
-319.344971
 20
149.059616
 11
-296.345001
 21
135.780563
  0
LINE
  8
0
 62
     4
 10
-342.345001
 20
109.222427
 11
-319.345001
 21
95.943375
  0
LINE
  8
0
 62
     4
 10
-203.494217
 20
95.943367
 11
-217.385666
 21
95.943367
  0
LINE
  8
0
 62
     4
 10
-201.439987
 20
99.501503
 11
-203.494263
 21
95.943398
  0
LINE
  8
0
 62
     4
 10
-201.439957
 20
99.501488
 11
-201.439957
 21
145.501480
  0
LINE
  8
0
 62
     4
 10
-203.494232
 20
109.222427
 11
-217.385681
 21
109.222427
  0
LINE
  8
0
 62
     4
 10
-203.494232
 20
135.780533
 11
-217.385681
 21
135.780533
  0
LINE
  8
0
 62
     4
 10
-203.494247
 20
149.059586
 11
-217.385696
 21
149.059586
  0
LINE
  8
0
 62
     4
 10
-201.440002
 20
145.501511
 11
-203.494278
 21
149.059616
  0
LINE
  8
0
 62
     4
 10
-219.440033
 20
145.501541
 11
-217.385757
 21
149.059647
  0
LINE
  8
0
 62
     4
 10
-219.439957
 20
99.501488
 11
-219.439957
 21
145.501495
  0
LINE
  8
0
 62
     4
 10
-219.440002
 20
99.501457
 11
-217.385727
 21
95.943352
  0
LINE
  8
0
 62
     4
 10
-87.129974
 20
138.378616
 11
-87.129974
 21
106.624344
  0
LINE
  8
0
 62
     4
 10
-32.129974
 20
138.378616
 11
-32.129974
 21
106.624344
  0
LINE
  8
0
 62
     4
 10
-87.129974
 20
138.378632
 11
-59.629978
 21
154.255753
  0
LINE
  8
0
 62
     4
 10
-59.629978
 20
90.747223
 11
-32.129974
 21
106.624359
  0
LINE
  8
0
 62
     4
 10
-59.629967
 20
154.255753
 11
-32.129967
 21
138.378616
  0
LINE
  8
0
 62
     4
 10
-87.129974
 20
106.624344
 11
-59.629978
 21
90.747215
  0
LINE
  8
0
 62
     4
 10
65.453827
 20
90.747215
 11
49.366245
 21
90.747215
  0
LINE
  8
0
 62
     4
 10
67.910042
 20
95.001503
 11
65.453842
 21
90.747246
  0
LINE
  8
0
 62
     4
 10
67.910027
 20
95.001488
 11
67.910027
 21
150.001495
  0
LINE
  8
0
 62
     4
 10
65.453827
 20
106.624344
 11
49.366238
 21
106.624344
  0
LINE
  8
0
 62
     4
 10
65.453812
 20
138.378616
 11
49.366230
 21
138.378616
  0
LINE
  8
0
 62
     4
 10
65.453812
 20
154.255737
 11
49.366207
 21
154.255737
  0
LINE
  8
0
 62
     4
 10
67.910027
 20
150.001495
 11
65.453827
 21
154.255753
  0
LINE
  8
0
 62
     4
 10
46.910015
 20
150.001495
 11
49.366215
 21
154.255768
  0
LINE
  8
0
 62
     4
 10
46.910027
 20
95.001480
 11
46.910027
 21
150.001495
  0
LINE
  8
0
 62
     4
 10
46.910030
 20
95.001472
 11
49.366234
 21
90.747215
  0
LINE
  8
0
 62
     4
 10
176.720016
 20
139.821991
 11
176.720016
 21
105.180969
  0
LINE
  8
0
 62
     4
 10
236.720016
 20
139.821991
 11
236.720016
 21
105.180969
  0
LINE
  8
0
 62
     4
 10
176.720032
 20
139.822006
 11
206.720016
 21
157.142517
  0
LINE
  8
0
 62
     4
 10
206.720016
 20
87.860466
 11
236.720032
 21
105.180977
  0
LINE
  8
0
 62
     4
 10
206.720032
 20
157.142502
 11
236.720032
 21
139.821991
  0
LINE
  8
0
 62
     4
 10
176.720016
 20
105.180977
 11
206.720016
 21
87.860474
  0
LINE
  8
0
 62
     4
 10
333.580505
 20
87.860466
 11
315.939514
 21
87.860466
  0
LINE
  8
0
 62
     4
 10
336.260010
 20
92.501488
 11
333.580536
 21
87.860474
  0
LINE
  8
0
 62
     4
 10
336.260010
 20
92.501488
 11
336.260010
 21
152.501480
  0
LINE
  8
0
 62
     4
 10
333.580505
 20
105.180969
 11
315.939514
 21
105.180969
  0
LINE
  8
0
 62
     4
 10
333.580505
 20
139.821991
 11
315.939514
 21
139.821991
  0
LINE
  8
0
 62
     4
 10
333.580505
 20
157.142487
 11
315.939514
 21
157.142487
  0
LINE
  8
0
 62
     4
 10
336.260010
 20
152.501495
 11
333.580505
 21
157.142502
  0
LINE
  8
0
 62
     4
 10
313.260010
 20
152.501511
 11
315.939484
 21
157.142502
  0
LINE
  8
0
 62
     4
 10
313.260010
 20
92.501488
 11
313.260010
 21
152.501495
  0
LINE
  8
0
 62
     4
 10
313.260010
 20
92.501472
 11
315.939484
 21
87.860466
  0
LINE
  8
0
 62
     4
 10
-314.344971
 20
-120.801636
 11
-314.344971
 21
-161.216156
  0
LINE
  8
0
 62
     4
 10
-244.344971
 20
-120.801636
 11
-244.344971
 21
-161.216156
  0
LINE
  8
0
 62
     4
 10
-314.344971
 20
-120.801620
 11
-279.345001
 21
-100.594376
  0
LINE
  8
0
 62
     4
 10
-279.344971
 20
-181.423416
 11
-244.344986
 21
-161.216171
  0
LINE
  8
0
 62
     4
 10
-279.345001
 20
-100.594376
 11
-244.344971
 21
-120.801636
  0
LINE
  8
0
 62
     4
 10
-314.344971
 20
-161.216156
 11
-279.344971
 21
-181.423416
  0
LINE
  8
0
 62
     4
 10
-122.296028
 20
-181.423416
 11
-143.043884
 21
-181.423416
  0
LINE
  8
0
 62
     4
 10
-119.169960
 20
-176.008881
 11
-122.296036
 21
-181.423401
  0
LINE
  8
0
 62
     4
 10
-119.169968
 20
-176.008881
 11
-119.169968
 21
-106.008881
  0
LINE
  8
0
 62
     4
 10
-122.296051
 20
-161.216156
 11
-143.043884
 21
-161.216156
  0
LINE
  8
0
 62
     4
 10
-122.296051
 20
-120.801636
 11
-143.043884
 21
-120.801636
  0
LINE
  8
0
 62
     4
 10
-122.296051
 20
-100.594376
 11
-143.043915
 21
-100.594376
  0
LINE
  8
0
 62
     4
 10
-119.169983
 20
-106.008881
 11
-122.296066
 21
-100.594360
  0
LINE
  8
0
 62
     4
 10
-146.169983
 20
-106.008896
 11
-143.043915
 21
-100.594368
  0
LINE
  8
0
 62
     4
 10
-146.169968
 20
-176.008896
 11
-146.169968
 21
-106.008896
  0
LINE
  8
0
 62
     4
 10
-146.169937
 20
-176.008896
 11
-143.043869
 21
-181.423416
  0
LINE
  8
0
 62
     4
 10
64.315033
 20
-116.471504
 11
64.315033
 21
-165.546280
  0
LINE
  8
0
 62
     4
 10
149.315033
 20
-116.471512
 11
149.315033
 21
-165.546280
  0
LINE
  8
0
 62
     4
 10
64.315041
 20
-116.471504
 11
106.815033
 21
-91.934120
  0
LINE
  8
0
 62
     4
 10
106.815041
 20
-190.083679
 11
149.315048
 21
-165.546295
  0
LINE
  8
0
 62
     4
 10
106.815033
 20
-91.934120
 11
149.315048
 21
-116.471512
  0
LINE
  8
0
 62
     4
 10
64.315033
 20
-165.546295
 11
106.815033
 21
-190.083664
  0
LINE
  8
0
 62
     4
 10
290.194092
 20
-190.083664
 11
263.785950
 21
-190.083664
  0
LINE
  8
0
 62
     4
 10
293.990021
 20
-183.508911
 11
290.194061
 21
-190.083679
  0
LINE
  8
0
 62
     4
 10
293.989990
 20
-183.508881
 11
293.989990
 21
-98.508881
  0
LINE
  8
0
 62
     4
 10
290.194031
 20
-165.546280
 11
263.785950
 21
-165.546280
  0
LINE
  8
0
 62
     4
 10
290.194031
 20
-116.471512
 11
263.785950
 21
-116.471512
  0
LINE
  8
0
 62
     4
 10
290.194031
 20
-91.934128
 11
263.785889
 21
-91.934128
  0
LINE
  8
0
 62
     4
 10
293.989990
 20
-98.508873
 11
290.194031
 21
-91.934105
  0
LINE
  8
0
 62
     4
 10
259.989990
 20
-98.508911
 11
263.785950
 21
-91.934151
  0
LINE
  8
0
 62
     4
 10
259.989990
 20
-183.508911
 11
259.989990
 21
-98.508896
  0
LINE
  8
0
 62
     4
 10
259.989990
 20
-183.508865
 11
263.785950
 21
-190.083664
  0
CIRCLE
  8
0
 62
     4
 10
-319.344971
 20
122.501480
 40
23.000000
  0
CIRCLE
  8
0
 62
     1
 10
-319.344971
 20
122.501480
 40
15.000000
  0
CIRCLE
  8
0
 62
     4
 10
-319.344971
 20
122.501480
 40
14.250000
  0
ARC
  8
0
 62
     4
 10
-213.196732
 20
102.582893
 40
11.756785
 50
334.384277
 51
34.384262
  0
ARC
  8
0
 62
     4
 10
-245.385635
 20
122.501472
 40
43.945679
 50
342.412048
 51
17.587933
  0
ARC
  8
0
 62
     4
 10
-213.196732
 20
142.420074
 40
11.756785
 50
325.615662
 51
25.615616
  0
ARC
  8
0
 62
     4
 10
-207.683182
 20
142.420074
 40
11.756775
 50
154.384216
 51
214.384262
  0
ARC
  8
0
 62
     4
 10
-175.494278
 20
122.501495
 40
43.945683
 50
162.412033
 51
197.587906
  0
ARC
  8
0
 62
     4
 10
-207.683182
 20
102.582901
 40
11.756782
 50
145.615707
 51
205.615677
  0
CIRCLE
  8
0
 62
     4
 10
-59.629974
 20
122.501480
 40
27.500000
  0
CIRCLE
  8
0
 62
     1
 10
-59.629974
 20
122.501480
 40
18.000000
  0
CIRCLE
  8
0
 62
     4
 10
-59.629974
 20
122.501480
 40
17.250000
  0
ARC
  8
0
 62
     4
 10
53.853020
 20
98.685776
 40
14.057010
 50
334.384186
 51
34.384251
  0
ARC
  8
0
 62
     4
 10
15.366264
 20
122.501472
 40
52.543762
 50
342.412048
 51
17.587931
  0
ARC
  8
0
 62
     4
 10
53.853004
 20
146.317184
 40
14.057013
 50
325.615692
 51
25.615728
  0
ARC
  8
0
 62
     4
 10
60.967033
 20
146.317184
 40
14.057010
 50
154.384186
 51
214.384216
  0
ARC
  8
0
 62
     4
 10
99.453789
 20
122.501495
 40
52.543758
 50
162.412033
 51
197.587906
  0
ARC
  8
0
 62
     4
 10
60.967049
 20
98.685776
 40
14.057013
 50
145.615707
 51
205.615768
  0
CIRCLE
  8
0
 62
     4
 10
206.720016
 20
122.501480
 40
30.000000
  0
CIRCLE
  8
0
 62
     1
 10
206.720016
 20
122.501480
 40
20.000000
  0
CIRCLE
  8
0
 62
     4
 10
206.720016
 20
122.501480
 40
19.250000
  0
ARC
  8
0
 62
     4
 10
320.925110
 20
96.520721
 40
15.334909
 50
334.384247
 51
34.384243
  0
ARC
  8
0
 62
     4
 10
278.939514
 20
122.501472
 40
57.320511
 50
342.412048
 51
17.587919
  0
ARC
  8
0
 62
     4
 10
320.925079
 20
148.482239
 40
15.334927
 50
325.615692
 51
25.615629
  0
ARC
  8
0
 62
     4
 10
328.594910
 20
148.482239
 40
15.334913
 50
154.384216
 51
214.384216
  0
ARC
  8
0
 62
     4
 10
370.580505
 20
122.501495
 40
57.320515
 50
162.412048
 51
197.587891
  0
ARC
  8
0
 62
     4
 10
328.594940
 20
96.520729
 40
15.334922
 50
145.615707
 51
205.615738
  0
CIRCLE
  8
0
 62
     4
 10
-279.344971
 20
-141.008896
 40
35.000000
  0
CIRCLE
  8
0
 62
     1
 10
-279.344971
 20
-141.008896
 40
22.500000
  0
CIRCLE
  8
0
 62
     4
 10
-279.344971
 20
-141.008896
 40
21.750000
  0
ARC
  8
0
 62
     4
 10
-137.060699
 20
-171.319778
 40
17.890747
 50
334.384186
 51
34.384239
  0
ARC
  8
0
 62
     4
 10
-186.043869
 20
-141.008911
 40
66.873894
 50
342.412079
 51
17.587915
  0
ARC
  8
0
 62
     4
 10
-137.060730
 20
-110.697998
 40
17.890745
 50
325.615692
 51
25.615696
  0
ARC
  8
0
 62
     4
 10
-128.279236
 20
-110.697998
 40
17.890747
 50
154.384201
 51
214.384216
  0
ARC
  8
0
 62
     4
 10
-79.296066
 20
-141.008881
 40
66.873894
 50
162.412033
 51
197.587891
  0
ARC
  8
0
 62
     4
 10
-128.279205
 20
-171.319778
 40
17.890738
 50
145.615738
 51
205.615738
  0
CIRCLE
  8
0
 62
     4
 10
106.815033
 20
-141.008896
 40
42.500000
  0
CIRCLE
  8
0
 62
     1
 10
106.815033
 20
-141.008896
 40
28.000000
  0
CIRCLE
  8
0
 62
     4
 10
106.815033
 20
-141.008896
 40
27.000000
  0
ARC
  8
0
 62
     4
 10
272.265503
 20
-177.814972
 40
21.724518
 50
334.384247
 51
34.384193
  0
ARC
  8
0
 62
     4
 10
212.785889
 20
-141.008911
 40
81.204109
 50
342.412079
 51
17.587902
  0
ARC
  8
0
 62
     4
 10
272.265472
 20
-104.202820
 40
21.724510
 50
325.615753
 51
25.615667
  0
ARC
  8
0
 62
     4
 10
281.714478
 20
-104.202812
 40
21.724518
 50
154.384247
 51
214.384155
  0
ARC
  8
0
 62
     4
 10
341.194092
 20
-141.008865
 40
81.204117
 50
162.412064
 51
197.587891
  0
ARC
  8
0
 62
     4
 10
281.714508
 20
-177.814972
 40
21.724503
 50
145.615768
 51
205.615692
  0
TEXT
  8
0
 10
-365.285309
 20
256.649994
 40
9.000000
  1
SD NUT,-N_
 50
0.000000
 41
1.052632
 51
0.000000
  7
STANDARD
  0
TEXT
  8
0
 10
242.014816
 20
-274.500000
 40
12.500000
  1
KOGANEI CORP.
 50
0.000000
 41
1.052632
 51
0.000000
  7
STANDARD
  0
TEXT
  8
0
 10
251.264664
 20
256.649994
 40
9.000000
  1
DATE: AUG ,1993
 50
0.000000
 41
1.052632
 51
0.000000
  7
STANDARD
  0
TEXT
  8
0
 10
14.464686
 20
-52.100002
 40
9.000000
  1
MODEL:N-SDZ200
 50
0.000000
 41
1.052632
 51
0.000000
  7
STANDARD
  0
TEXT
  8
0
 10
-384.785309
 20
224.149994
 40
9.000000
  1
MODEL:N-SD125
 50
0.000000
 41
1.052632
 51
0.000000
  7
STANDARD
  0
TEXT
  8
0
 10
-118.435310
 20
224.149994
 40
9.000000
  1
MODEL:N-SD160
 50
0.000000
 41
1.052632
 51
0.000000
  7
STANDARD
  0
TEXT
  8
0
 10
147.914703
 20
224.149994
 40
9.000000
  1
MODEL:N-SD180
 50
0.000000
 41
1.052632
 51
0.000000
  7
STANDARD
  0
TEXT
  8
0
 10
-384.785309
 20
-52.100002
 40
9.000000
  1
MODEL:N-SD200
 50
0.000000
 41
1.052632
 51
0.000000
  7
STANDARD
  0
ENDSEC
  0
EOF
