  0
SECTION
  2
HEADER
  0
ENDSEC
  0
SECTION
  2
TABLES
  0
TABLE
  2
LTYPE
 70
     4
  0
LTYPE
  2
CONTINUOUS
 70
    64
  3
Solid line
 72
    65
 73
     0
 40
0.000000
  0
LTYPE
  2
DASHED
 70
    64
  3
__ __ __ __ __ __ __ __ __ __ __ __ __ __ __
 72
    65
 73
     2
 40
3.500000
 49
2.000000
 49
-1.500000
  0
LTYPE
  2
CENTER
 70
    64
  3
____ _ ____ _ ____ _ ____ _ ____ _ ____ _ ____
 72
    65
 73
     4
 40
17.500000
 49
13.000000
 49
-1.500000
 49
1.500000
 49
-1.500000
  0
LTYPE
  2
PHANTOM
 70
    64
  3
_____ _ _ _____ _ _ _____ _ _ _____ _ _ ____  
 72
    65
 73
     6
 40
15.500000
 49
8.000000
 49
-1.500000
 49
1.500000
 49
-1.500000
 49
1.500000
 49
-1.500000
  0
LTYPE
  2
DASHED1
 70
    64
  3
__ __ __ __ __ __ __ __ __ __ __ __ __ __ __
 72
    65
 73
     2
 40
1.500000
 49
1.000000
 49
-0.500000
  0
LTYPE
  2
DASHED2
 70
    64
  3
__ __ __ __ __ __ __ __ __ __ __ __ __ __ __
 72
    65
 73
     2
 40
3.500000
 49
2.500000
 49
-1.000000
  0
LTYPE
  2
DASHED3
 70
    64
  3
__ __ __ __ __ __ __ __ __ __ __ __ __ __ __
 72
    65
 73
     2
 40
6.000000
 49
4.000000
 49
-2.000000
  0
LTYPE
  2
DASHED4
 70
    64
  3
__ __ __ __ __ __ __ __ __ __ __ __ __ __ __
 72
    65
 73
     2
 40
12.000000
 49
10.000000
 49
-2.000000
  0
LTYPE
  2
DASHED5
 70
    64
  3
__ __ __ __ __ __ __ __ __ __ __ __ __ __ __
 72
    65
 73
     2
 40
17.000000
 49
15.000000
 49
-2.000000
  0
LTYPE
  2
DASHED6
 70
    64
  3
__ __ __ __ __ __ __ __ __ __ __ __ __ __ __
 72
    65
 73
     2
 40
29.000000
 49
27.000000
 49
-2.000000
  0
LTYPE
  2
PHANTOM1
 70
    64
  3
_____ _ _ _____ _ _ _____ _ _ _____ _ _ ____  
 72
    65
 73
     6
 40
31.000000
 49
25.000000
 49
-1.500000
 49
1.000000
 49
-1.000000
 49
1.000000
 49
-1.500000
  0
LTYPE
  2
PHANTOM2
 70
    64
  3
_____ _ _ _____ _ _ _____ _ _ _____ _ _ ____  
 72
    65
 73
     6
 40
36.000000
 49
27.000000
 49
-1.500000
 49
2.500000
 49
-1.000000
 49
2.500000
 49
-1.500000
  0
LTYPE
  2
PHANTOM3
 70
    64
  3
_____ _ _ _____ _ _ _____ _ _ _____ _ _ ____  
 72
    65
 73
     6
 40
78.000000
 49
64.000000
 49
-2.000000
 49
4.000000
 49
-2.000000
 49
4.000000
 49
-2.000000
  0
LTYPE
  2
CENTER1
 70
    64
  3
____ _ ____ _ ____ _ ____ _ ____ _ ____ _ ____
 72
    65
 73
     4
 40
19.000000
 49
14.000000
 49
-1.000000
 49
3.000000
 49
-1.000000
  0
LTYPE
  2
CENTER2
 70
    64
  3
____ _ ____ _ ____ _ ____ _ ____ _ ____ _ ____
 72
    65
 73
     4
 40
28.500000
 49
25.000000
 49
-1.000000
 49
1.500000
 49
-1.000000
  0
LTYPE
  2
CENTER3
 70
    64
  3
____ _ ____ _ ____ _ ____ _ ____ _ ____ _ ____
 72
    65
 73
     4
 40
31.500000
 49
27.000000
 49
-1.000000
 49
2.500000
 49
-1.000000
  0
LTYPE
  2
CENTER4
 70
    64
  3
____ _ ____ _ ____ _ ____ _ ____ _ ____ _ ____
 72
    65
 73
     4
 40
50.000000
 49
45.000000
 49
-1.000000
 49
3.000000
 49
-1.000000
  0
LTYPE
  2
CENTER5
 70
    64
  3
____ _ ____ _ ____ _ ____ _ ____ _ ____ _ ____
 72
    65
 73
     4
 40
100.000000
 49
92.000000
 49
-2.000000
 49
4.000000
 49
-2.000000
  0
LTYPE
  2
SBK1
 70
    64
  3
______ _ _ _ ______ _ _ _ ______ _ _ _ _____  
 72
    65
 73
     8
 40
60.500000
 49
45.000000
 49
-2.000000
 49
2.500000
 49
-2.000000
 49
2.500000
 49
-2.000000
 49
2.500000
 49
-2.000000
  0
LTYPE
  2
SBK2
 70
    64
  3
______ _ _ _ ______ _ _ _ ______ _ _ _ _____  
 72
    65
 73
     8
 40
84.000000
 49
64.000000
 49
-2.000000
 49
4.000000
 49
-2.000000
 49
4.000000
 49
-2.000000
 49
4.000000
 49
-2.000000
  0
LTYPE
  2
STCH
 70
    64
  3
__ __ __ __ __ __ __ __ __ __ __ __ __ __ __
 72
    65
 73
     2
 40
3.000000
 49
1.000000
 49
-2.000000
  0
LTYPE
  2
MTCH
 70
    64
  3
_____ _ _ _____ _ _ _____ _ _ _____ _ _ ____  
 72
    65
 73
     6
 40
80.000000
 49
66.000000
 49
-2.000000
 49
4.000000
 49
-2.000000
 49
4.000000
 49
-2.000000
  0
ENDTAB
  0
TABLE
  2
LAYER
 70
     1
  0
LAYER
  2
0
 70
     0
 62
     7
  6
CONTINUOUS
  0
ENDTAB
  0
TABLE
  2
STYLE
 70
     1
  0
STYLE
  2
STANDARD
 70
     0
 40
0.000000
 41
1.000000
 50
0.000000
 71
     0
 42
0.200000
  3
txt
  4
BIGFONT
  0
ENDTAB
  0
TABLE
  2
VIEW
 70
     0
  0
ENDTAB
  0
ENDSEC
  0
SECTION
  2
BLOCKS
  0
ENDSEC
  0
SECTION
  2
ENTITIES
  0
LINE
  8
0
 10
399.799988
 20
276.250000
 11
399.799988
 21
-276.750000
  0
LINE
  8
0
 10
-399.250000
 20
276.250000
 11
-399.250000
 21
-276.750000
  0
LINE
  8
0
 10
-399.250000
 20
276.250000
 11
399.799988
 21
276.250000
  0
LINE
  8
0
 10
-399.250000
 20
-276.750000
 11
399.799988
 21
-276.750000
  0
LINE
  8
0
 10
239.799988
 20
-251.750000
 11
399.799988
 21
-251.750000
  0
LINE
  8
0
 10
239.799988
 20
251.250000
 11
399.799988
 21
251.250000
  0
LINE
  8
0
 10
-399.250000
 20
251.250000
 11
-239.250000
 21
251.250000
  0
LINE
  8
0
 10
239.799988
 20
-251.750000
 11
239.799988
 21
-276.750000
  0
LINE
  8
0
 10
239.799988
 20
251.250000
 11
239.799988
 21
276.250000
  0
LINE
  8
0
 10
-239.250000
 20
276.250000
 11
-239.250000
 21
251.250000
  0
LINE
  8
0
 10
-11.725006
 20
-276.750000
 11
-11.725006
 21
276.250000
  0
LINE
  8
0
  6
CENTER
 62
     1
 10
-391.909485
 20
-120.308609
 11
-266.809875
 21
-120.308609
  0
LINE
  8
0
 62
     4
 10
-386.909485
 20
-29.308609
 11
-386.909485
 21
-211.308609
  0
LINE
  8
0
 62
     4
 10
-386.909485
 20
-29.308609
 11
-366.909485
 21
-29.308609
  0
LINE
  8
0
 62
     4
 10
-386.909485
 20
-211.308609
 11
-366.909485
 21
-211.308609
  0
LINE
  8
0
 62
     4
 10
-366.909485
 20
-29.308609
 11
-366.909485
 21
-211.308609
  0
LINE
  8
0
  6
CENTER
 62
     1
 10
-306.909485
 20
-74.275970
 11
-306.909485
 21
-166.335312
  0
LINE
  8
0
 62
     4
 10
-364.842102
 20
-177.132462
 11
-295.718750
 21
-154.525101
  0
LINE
  8
0
 62
     4
 10
-364.842041
 20
-63.484772
 11
-295.718689
 21
-86.092133
  0
LINE
  8
0
  6
CENTER
 62
     1
 10
-391.909485
 20
-192.308609
 11
-361.909485
 21
-192.308609
  0
LINE
  8
0
  6
CENTER
 62
     1
 10
-391.909485
 20
-48.308609
 11
-361.909485
 21
-48.308609
  0
LINE
  8
0
  6
CENTER
 62
     1
 10
-227.395218
 20
-120.308609
 11
-29.506653
 21
-120.308609
  0
LINE
  8
0
  6
CENTER
 62
     1
 10
-130.409485
 20
-24.136505
 11
-130.409485
 21
-218.118698
  0
LINE
  8
0
 62
     4
 10
-221.409485
 20
-29.308609
 11
-40.409485
 21
-29.308609
  0
LINE
  8
0
 62
     4
 10
-221.409485
 20
-211.308609
 11
-39.409485
 21
-211.308609
  0
LINE
  8
0
 62
     4
 10
-39.409485
 20
-29.308609
 11
-39.409485
 21
-211.308609
  0
LINE
  8
0
 62
     4
 10
-221.409485
 20
-29.308609
 11
-221.409485
 21
-211.308609
  0
LINE
  8
0
  6
CENTER
 62
     1
 10
-202.409485
 20
-177.521942
 11
-202.409485
 21
-207.335266
  0
LINE
  8
0
  6
CENTER
 62
     1
 10
-216.864929
 20
-192.308609
 11
-188.978943
 21
-192.308609
  0
LINE
  8
0
  6
CENTER
 62
     1
 10
-202.409485
 20
-33.521942
 11
-202.409485
 21
-63.335274
  0
LINE
  8
0
  6
CENTER
 62
     1
 10
-216.864929
 20
-48.308609
 11
-188.978943
 21
-48.308609
  0
LINE
  8
0
  6
CENTER
 62
     1
 10
-58.409485
 20
-33.521942
 11
-58.409485
 21
-63.335274
  0
LINE
  8
0
  6
CENTER
 62
     1
 10
-72.864929
 20
-48.308609
 11
-44.978912
 21
-48.308609
  0
LINE
  8
0
  6
CENTER
 62
     1
 10
-58.409485
 20
-177.521942
 11
-58.409485
 21
-207.335266
  0
LINE
  8
0
  6
CENTER
 62
     1
 10
-72.864929
 20
-192.308609
 11
-44.978912
 21
-192.308609
  0
LINE
  8
0
 62
     4
 10
-110.409485
 20
-84.308609
 11
-110.409485
 21
-156.308609
  0
LINE
  8
0
 62
     4
 10
-150.409485
 20
-84.308609
 11
-150.409485
 21
-156.308609
  0
LINE
  8
0
 62
     4
 10
-113.409485
 20
-65.808609
 11
-113.409485
 21
-82.308609
  0
LINE
  8
0
 62
     4
 10
-147.409485
 20
-65.808609
 11
-147.409485
 21
-82.308609
  0
LINE
  8
0
  6
DASHED
 62
     1
 10
-150.409485
 20
-136.308609
 11
-110.409485
 21
-136.308609
  0
LINE
  8
0
 62
     4
 10
-150.409485
 20
-156.308609
 11
-149.409485
 21
-156.308609
  0
LINE
  8
0
 62
     4
 10
-150.409485
 20
-84.308609
 11
-149.409485
 21
-84.308609
  0
LINE
  8
0
 62
     4
 10
-147.409485
 20
-158.308609
 11
-147.409485
 21
-174.808609
  0
LINE
  8
0
 62
     4
 10
-113.409485
 20
-158.308609
 11
-113.409485
 21
-174.808609
  0
LINE
  8
0
 62
     4
 10
-111.409485
 20
-84.308609
 11
-110.409485
 21
-84.308609
  0
LINE
  8
0
  6
DASHED
 62
     1
 10
-150.409485
 20
-104.308609
 11
-110.409485
 21
-104.308609
  0
LINE
  8
0
 62
     4
 10
-111.409485
 20
-156.308609
 11
-110.409485
 21
-156.308609
  0
LINE
  8
0
 62
     4
 10
-386.909485
 20
208.831802
 11
-386.909485
 21
26.831802
  0
LINE
  8
0
 62
     4
 10
-366.909485
 20
208.831802
 11
-366.909485
 21
26.831802
  0
LINE
  8
0
 62
     4
 10
-386.909485
 20
26.831802
 11
-366.909485
 21
26.831802
  0
LINE
  8
0
 62
     4
 10
-386.909485
 20
208.831802
 11
-366.909485
 21
208.831802
  0
LINE
  8
0
  6
CENTER
 62
     1
 10
-391.909485
 20
117.831802
 11
-266.809875
 21
117.831802
  0
LINE
  8
0
  6
CENTER
 62
     1
 10
-306.909485
 20
167.831802
 11
-306.909485
 21
67.831802
  0
LINE
  8
0
 62
     4
 10
-270.909485
 20
137.831802
 11
-270.909485
 21
97.831802
  0
LINE
  8
0
 62
     4
 10
-342.909485
 20
137.831802
 11
-342.909485
 21
134.831802
  0
LINE
  8
0
 62
     4
 10
-342.909485
 20
137.831802
 11
-270.909485
 21
137.831802
  0
LINE
  8
0
 62
     4
 10
-342.909485
 20
97.831802
 11
-270.909485
 21
97.831802
  0
LINE
  8
0
 62
     4
 10
-363.909485
 20
100.831802
 11
-295.718689
 21
100.831802
  0
LINE
  8
0
 62
     4
 10
-363.909485
 20
134.831802
 11
-295.718689
 21
134.831802
  0
LINE
  8
0
 62
     4
 10
-342.909485
 20
100.831802
 11
-342.909485
 21
97.831802
  0
LINE
  8
0
  6
CENTER
 62
     1
 10
-391.909485
 20
45.831802
 11
-361.909485
 21
45.831802
  0
LINE
  8
0
  6
CENTER
 62
     1
 10
-391.909485
 20
189.831802
 11
-361.909485
 21
189.831802
  0
LINE
  8
0
  6
CENTER
 62
     1
 10
-4.216614
 20
-120.308609
 11
143.504456
 21
-120.308609
  0
LINE
  8
0
 62
     4
 10
3.283386
 20
-18.308609
 11
3.283386
 21
-222.308609
  0
LINE
  8
0
 62
     4
 10
3.283386
 20
-18.308609
 11
28.283386
 21
-18.308609
  0
LINE
  8
0
 62
     4
 10
3.283386
 20
-222.308609
 11
28.283386
 21
-222.308609
  0
LINE
  8
0
 62
     4
 10
28.283386
 20
-18.308609
 11
28.283386
 21
-222.308609
  0
LINE
  8
0
 62
     4
 10
30.318228
 20
-187.117187
 11
107.117142
 21
-161.022568
  0
LINE
  8
0
 62
     4
 10
30.318243
 20
-53.500031
 11
107.117134
 21
-79.594658
  0
LINE
  8
0
  6
CENTER
 62
     1
 10
-4.216614
 20
-39.308609
 11
35.783386
 21
-39.308609
  0
LINE
  8
0
  6
CENTER
 62
     1
 10
-4.216614
 20
-201.308609
 11
35.783386
 21
-201.308609
  0
LINE
  8
0
  6
CENTER
 62
     1
 10
93.283386
 20
-66.402725
 11
93.283386
 21
-173.024384
  0
LINE
  8
0
  6
CENTER
 62
     1
 10
164.763550
 20
-120.308609
 11
394.131165
 21
-120.308609
  0
LINE
  8
0
  6
CENTER
 62
     1
 10
278.783386
 20
-12.140472
 11
278.783386
 21
-229.456100
  0
LINE
  8
0
 62
     4
 10
176.783386
 20
-222.308609
 11
380.783386
 21
-222.308609
  0
LINE
  8
0
 62
     4
 10
176.783386
 20
-18.308609
 11
380.783386
 21
-18.308609
  0
LINE
  8
0
  6
CENTER
 62
     1
 10
359.783386
 20
-21.099625
 11
359.783386
 21
-57.836792
  0
LINE
  8
0
  6
CENTER
 62
     1
 10
342.579163
 20
-39.308609
 11
376.490356
 21
-39.308609
  0
LINE
  8
0
  6
CENTER
 62
     1
 10
359.783386
 20
-183.099625
 11
359.783386
 21
-219.836792
  0
LINE
  8
0
  6
CENTER
 62
     1
 10
342.579163
 20
-201.308609
 11
376.490356
 21
-201.308609
  0
LINE
  8
0
  6
CENTER
 62
     1
 10
197.783386
 20
-21.099625
 11
197.783386
 21
-57.836792
  0
LINE
  8
0
  6
CENTER
 62
     1
 10
214.987610
 20
-39.308609
 11
181.076416
 21
-39.308609
  0
LINE
  8
0
  6
CENTER
 62
     1
 10
197.783386
 20
-183.099625
 11
197.783386
 21
-219.836792
  0
LINE
  8
0
  6
CENTER
 62
     1
 10
214.987610
 20
-201.308609
 11
181.076416
 21
-201.308609
  0
LINE
  8
0
 62
     4
 10
380.783386
 20
-18.308609
 11
380.783386
 21
-222.308609
  0
LINE
  8
0
 62
     4
 10
176.783386
 20
-18.308609
 11
176.783386
 21
-222.308609
  0
LINE
  8
0
 62
     4
 10
253.783386
 20
-77.308609
 11
253.783386
 21
-163.308609
  0
LINE
  8
0
 62
     4
 10
303.783386
 20
-77.308609
 11
303.783386
 21
-163.308609
  0
LINE
  8
0
 62
     4
 10
298.783386
 20
-55.808609
 11
298.783386
 21
-74.308609
  0
LINE
  8
0
 62
     4
 10
258.783386
 20
-55.808609
 11
258.783386
 21
-74.308609
  0
LINE
  8
0
  6
DASHED
 62
     1
 10
253.783386
 20
-140.308609
 11
303.783386
 21
-140.308609
  0
LINE
  8
0
  6
DASHED
 62
     1
 10
253.783386
 20
-100.308609
 11
303.783386
 21
-100.308609
  0
LINE
  8
0
 62
     4
 10
253.783386
 20
-77.308609
 11
255.783386
 21
-77.308609
  0
LINE
  8
0
 62
     4
 10
253.783386
 20
-163.308609
 11
255.783386
 21
-163.308609
  0
LINE
  8
0
 62
     4
 10
301.783386
 20
-77.308609
 11
303.783386
 21
-77.308609
  0
LINE
  8
0
 62
     4
 10
301.783386
 20
-163.308609
 11
303.783386
 21
-163.308609
  0
LINE
  8
0
 62
     4
 10
298.783386
 20
-166.308609
 11
298.783386
 21
-184.808609
  0
LINE
  8
0
 62
     4
 10
258.783386
 20
-166.308609
 11
258.783386
 21
-184.808609
  0
LINE
  8
0
  6
CENTER
 62
     1
 10
93.283386
 20
165.508835
 11
93.283386
 21
58.887192
  0
LINE
  8
0
 62
     4
 10
3.283386
 20
213.602966
 11
3.283386
 21
9.602951
  0
LINE
  8
0
 62
     4
 10
28.283386
 20
213.602966
 11
28.283386
 21
9.602951
  0
LINE
  8
0
 62
     4
 10
50.283386
 20
136.602951
 11
50.283386
 21
131.602951
  0
LINE
  8
0
 62
     4
 10
136.283386
 20
136.602951
 11
136.283386
 21
86.602951
  0
LINE
  8
0
 62
     4
 10
3.283386
 20
9.602951
 11
28.283386
 21
9.602951
  0
LINE
  8
0
 62
     4
 10
3.283386
 20
213.602966
 11
28.283386
 21
213.602966
  0
LINE
  8
0
  6
CENTER
 62
     1
 10
-4.216614
 20
111.602951
 11
143.504456
 21
111.602951
  0
LINE
  8
0
  6
CENTER
 62
     1
 10
-4.216614
 20
192.602951
 11
35.783386
 21
192.602951
  0
LINE
  8
0
  6
CENTER
 62
     1
 10
-4.216614
 20
30.602951
 11
35.783386
 21
30.602951
  0
LINE
  8
0
 62
     4
 10
50.283386
 20
86.602951
 11
136.283386
 21
86.602951
  0
LINE
  8
0
 62
     4
 10
50.283386
 20
136.602951
 11
136.283386
 21
136.602951
  0
LINE
  8
0
 62
     4
 10
31.283386
 20
91.602951
 11
107.117126
 21
91.602951
  0
LINE
  8
0
 62
     4
 10
31.283386
 20
131.602951
 11
107.117126
 21
131.602951
  0
LINE
  8
0
 62
     4
 10
50.283386
 20
91.602951
 11
50.283386
 21
86.602951
  0
CIRCLE
  8
0
 62
     4
 10
-306.909485
 20
-120.308609
 40
36.000000
  0
ARC
  8
0
 62
     4
 10
-363.909485
 20
-60.633408
 40
3.000000
 50
180.000000
 51
251.889389
  0
ARC
  8
0
 62
     4
 10
-363.909485
 20
-179.983810
 40
3.000004
 50
108.110558
 51
180.000000
  0
CIRCLE
  8
0
 62
     4
 10
-306.909485
 20
-120.308609
 40
16.000000
  0
CIRCLE
  8
0
 62
     1
 10
-202.409485
 20
-192.308609
 40
8.000000
  0
CIRCLE
  8
0
 62
     1
 10
-58.409485
 20
-192.308609
 40
8.000000
  0
CIRCLE
  8
0
 62
     1
 10
-58.409485
 20
-48.308609
 40
8.000000
  0
CIRCLE
  8
0
 62
     1
 10
-202.409485
 20
-48.308609
 40
8.000000
  0
CIRCLE
  8
0
 62
     4
 10
-202.409485
 20
-192.308609
 40
6.600000
  0
CIRCLE
  8
0
 62
     4
 10
-58.409485
 20
-192.308609
 40
6.600000
  0
CIRCLE
  8
0
 62
     4
 10
-58.409485
 20
-48.308609
 40
6.600000
  0
CIRCLE
  8
0
 62
     4
 10
-202.409485
 20
-48.308609
 40
6.600000
  0
ARC
  8
0
 62
     4
 10
-150.409485
 20
-174.808609
 40
3.000000
 50
270.000000
 51
0.000000
  0
ARC
  8
0
 62
     4
 10
-110.409485
 20
-174.808609
 40
3.000000
 50
180.000000
 51
270.000000
  0
ARC
  8
0
 62
     4
 10
-110.409485
 20
-65.808609
 40
3.000000
 50
90.000000
 51
180.000000
  0
ARC
  8
0
 62
     4
 10
-150.409485
 20
-65.808609
 40
3.000000
 50
0.000000
 51
90.000000
  0
ARC
  8
0
 62
     4
 10
-149.409485
 20
-158.308609
 40
2.000000
 50
0.000000
 51
90.000000
  0
ARC
  8
0
 62
     4
 10
-111.409485
 20
-158.308609
 40
2.000000
 50
90.000000
 51
180.000000
  0
ARC
  8
0
 62
     4
 10
-111.409485
 20
-82.308609
 40
2.000000
 50
180.000000
 51
270.000000
  0
ARC
  8
0
 62
     4
 10
-149.409485
 20
-82.308609
 40
2.000000
 50
270.000000
 51
0.000000
  0
ARC
  8
0
 62
     4
 10
-363.909485
 20
137.831802
 40
3.000000
 50
180.000000
 51
270.000000
  0
ARC
  8
0
 62
     4
 10
-363.909485
 20
97.831802
 40
3.000000
 50
90.000000
 51
180.000000
  0
CIRCLE
  8
0
 62
     4
 10
93.283386
 20
-120.308609
 40
43.000000
  0
CIRCLE
  8
0
 62
     4
 10
93.283386
 20
-120.308609
 40
20.000000
  0
ARC
  8
0
 62
     4
 10
31.283386
 20
-189.957718
 40
3.000005
 50
108.766609
 51
180.000000
  0
ARC
  8
0
 62
     4
 10
31.283386
 20
-50.659500
 40
3.000000
 50
180.000000
 51
251.233276
  0
CIRCLE
  8
0
 62
     1
 10
359.783386
 20
-39.308609
 40
9.000000
  0
CIRCLE
  8
0
 62
     1
 10
359.783386
 20
-201.308609
 40
9.000000
  0
CIRCLE
  8
0
 62
     1
 10
197.783386
 20
-39.308609
 40
9.000000
  0
CIRCLE
  8
0
 62
     1
 10
197.783386
 20
-201.308609
 40
9.000000
  0
CIRCLE
  8
0
 62
     4
 10
197.783386
 20
-201.308609
 40
6.400000
  0
CIRCLE
  8
0
 62
     4
 10
197.783386
 20
-39.308609
 40
6.400000
  0
CIRCLE
  8
0
 62
     4
 10
359.783386
 20
-39.308609
 40
6.400000
  0
CIRCLE
  8
0
 62
     4
 10
359.783386
 20
-201.308609
 40
6.400000
  0
ARC
  8
0
 62
     4
 10
255.783386
 20
-55.808609
 40
3.000000
 50
0.000000
 51
90.000000
  0
ARC
  8
0
 62
     4
 10
301.783386
 20
-55.808609
 40
3.000000
 50
90.000000
 51
180.000000
  0
ARC
  8
0
 62
     4
 10
301.783386
 20
-184.808609
 40
3.000000
 50
180.000000
 51
270.000000
  0
ARC
  8
0
 62
     4
 10
255.783386
 20
-184.808609
 40
3.000000
 50
270.000000
 51
0.000000
  0
ARC
  8
0
 62
     4
 10
255.783386
 20
-166.308609
 40
3.000000
 50
0.000000
 51
90.000000
  0
ARC
  8
0
 62
     4
 10
301.783386
 20
-166.308609
 40
3.000000
 50
90.000000
 51
180.000000
  0
ARC
  8
0
 62
     4
 10
301.783386
 20
-74.308609
 40
3.000000
 50
180.000000
 51
270.000000
  0
ARC
  8
0
 62
     4
 10
255.783386
 20
-74.308609
 40
3.000000
 50
270.000000
 51
0.000000
  0
ARC
  8
0
 62
     4
 10
31.283386
 20
134.602951
 40
3.000000
 50
180.000000
 51
270.000000
  0
ARC
  8
0
 62
     4
 10
31.283386
 20
88.602951
 40
3.000000
 50
90.000000
 51
180.000000
  0
TEXT
  8
0
 10
-374.285309
 20
256.649994
 40
9.000000
  1
SD I-TYPE,-8
 50
0.000000
 41
1.052632
 51
0.000000
  7
STANDARD
  0
TEXT
  8
0
 10
242.014816
 20
-274.500000
 40
12.500000
  1
KOGANEI CORP.
 50
0.000000
 41
1.052632
 51
0.000000
  7
STANDARD
  0
TEXT
  8
0
 10
251.264664
 20
256.649994
 40
9.000000
  1
DATE: AUG ,1993
 50
0.000000
 41
1.052632
 51
0.000000
  7
STANDARD
  0
TEXT
  8
0
 10
2.739680
 20
224.149994
 40
9.000000
  1
BORE:180
 50
0.000000
 41
1.052632
 51
0.000000
  7
STANDARD
  0
TEXT
  8
0
 10
-384.785309
 20
224.149994
 40
9.000000
  1
BORE:160
 50
0.000000
 41
1.052632
 51
0.000000
  7
STANDARD
  0
ENDSEC
  0
EOF
