  0
SECTION
  2
HEADER
  0
ENDSEC
  0
SECTION
  2
TABLES
  0
TABLE
  2
LTYPE
 70
     4
  0
LTYPE
  2
CONTINUOUS
 70
    64
  3
Solid line
 72
    65
 73
     0
 40
0.000000
  0
LTYPE
  2
DASHED
 70
    64
  3
__ __ __ __ __ __ __ __ __ __ __ __ __ __ __
 72
    65
 73
     2
 40
3.500000
 49
2.000000
 49
-1.500000
  0
LTYPE
  2
CENTER
 70
    64
  3
____ _ ____ _ ____ _ ____ _ ____ _ ____ _ ____
 72
    65
 73
     4
 40
17.500000
 49
13.000000
 49
-1.500000
 49
1.500000
 49
-1.500000
  0
LTYPE
  2
PHANTOM
 70
    64
  3
_____ _ _ _____ _ _ _____ _ _ _____ _ _ ____  
 72
    65
 73
     6
 40
15.500000
 49
8.000000
 49
-1.500000
 49
1.500000
 49
-1.500000
 49
1.500000
 49
-1.500000
  0
LTYPE
  2
DASHED1
 70
    64
  3
__ __ __ __ __ __ __ __ __ __ __ __ __ __ __
 72
    65
 73
     2
 40
1.500000
 49
1.000000
 49
-0.500000
  0
LTYPE
  2
DASHED2
 70
    64
  3
__ __ __ __ __ __ __ __ __ __ __ __ __ __ __
 72
    65
 73
     2
 40
3.500000
 49
2.500000
 49
-1.000000
  0
LTYPE
  2
DASHED3
 70
    64
  3
__ __ __ __ __ __ __ __ __ __ __ __ __ __ __
 72
    65
 73
     2
 40
6.000000
 49
4.000000
 49
-2.000000
  0
LTYPE
  2
DASHED4
 70
    64
  3
__ __ __ __ __ __ __ __ __ __ __ __ __ __ __
 72
    65
 73
     2
 40
12.000000
 49
10.000000
 49
-2.000000
  0
LTYPE
  2
DASHED5
 70
    64
  3
__ __ __ __ __ __ __ __ __ __ __ __ __ __ __
 72
    65
 73
     2
 40
17.000000
 49
15.000000
 49
-2.000000
  0
LTYPE
  2
DASHED6
 70
    64
  3
__ __ __ __ __ __ __ __ __ __ __ __ __ __ __
 72
    65
 73
     2
 40
29.000000
 49
27.000000
 49
-2.000000
  0
LTYPE
  2
PHANTOM1
 70
    64
  3
_____ _ _ _____ _ _ _____ _ _ _____ _ _ ____  
 72
    65
 73
     6
 40
31.000000
 49
25.000000
 49
-1.500000
 49
1.000000
 49
-1.000000
 49
1.000000
 49
-1.500000
  0
LTYPE
  2
PHANTOM2
 70
    64
  3
_____ _ _ _____ _ _ _____ _ _ _____ _ _ ____  
 72
    65
 73
     6
 40
36.000000
 49
27.000000
 49
-1.500000
 49
2.500000
 49
-1.000000
 49
2.500000
 49
-1.500000
  0
LTYPE
  2
PHANTOM3
 70
    64
  3
_____ _ _ _____ _ _ _____ _ _ _____ _ _ ____  
 72
    65
 73
     6
 40
78.000000
 49
64.000000
 49
-2.000000
 49
4.000000
 49
-2.000000
 49
4.000000
 49
-2.000000
  0
LTYPE
  2
CENTER1
 70
    64
  3
____ _ ____ _ ____ _ ____ _ ____ _ ____ _ ____
 72
    65
 73
     4
 40
19.000000
 49
14.000000
 49
-1.000000
 49
3.000000
 49
-1.000000
  0
LTYPE
  2
CENTER2
 70
    64
  3
____ _ ____ _ ____ _ ____ _ ____ _ ____ _ ____
 72
    65
 73
     4
 40
28.500000
 49
25.000000
 49
-1.000000
 49
1.500000
 49
-1.000000
  0
LTYPE
  2
CENTER3
 70
    64
  3
____ _ ____ _ ____ _ ____ _ ____ _ ____ _ ____
 72
    65
 73
     4
 40
31.500000
 49
27.000000
 49
-1.000000
 49
2.500000
 49
-1.000000
  0
LTYPE
  2
CENTER4
 70
    64
  3
____ _ ____ _ ____ _ ____ _ ____ _ ____ _ ____
 72
    65
 73
     4
 40
50.000000
 49
45.000000
 49
-1.000000
 49
3.000000
 49
-1.000000
  0
LTYPE
  2
CENTER5
 70
    64
  3
____ _ ____ _ ____ _ ____ _ ____ _ ____ _ ____
 72
    65
 73
     4
 40
100.000000
 49
92.000000
 49
-2.000000
 49
4.000000
 49
-2.000000
  0
LTYPE
  2
SBK1
 70
    64
  3
______ _ _ _ ______ _ _ _ ______ _ _ _ _____  
 72
    65
 73
     8
 40
60.500000
 49
45.000000
 49
-2.000000
 49
2.500000
 49
-2.000000
 49
2.500000
 49
-2.000000
 49
2.500000
 49
-2.000000
  0
LTYPE
  2
SBK2
 70
    64
  3
______ _ _ _ ______ _ _ _ ______ _ _ _ _____  
 72
    65
 73
     8
 40
84.000000
 49
64.000000
 49
-2.000000
 49
4.000000
 49
-2.000000
 49
4.000000
 49
-2.000000
 49
4.000000
 49
-2.000000
  0
LTYPE
  2
STCH
 70
    64
  3
__ __ __ __ __ __ __ __ __ __ __ __ __ __ __
 72
    65
 73
     2
 40
3.000000
 49
1.000000
 49
-2.000000
  0
LTYPE
  2
MTCH
 70
    64
  3
_____ _ _ _____ _ _ _____ _ _ _____ _ _ ____  
 72
    65
 73
     6
 40
80.000000
 49
66.000000
 49
-2.000000
 49
4.000000
 49
-2.000000
 49
4.000000
 49
-2.000000
  0
ENDTAB
  0
TABLE
  2
LAYER
 70
     1
  0
LAYER
  2
0
 70
     0
 62
     7
  6
CONTINUOUS
  0
ENDTAB
  0
TABLE
  2
STYLE
 70
     1
  0
STYLE
  2
STANDARD
 70
     0
 40
0.000000
 41
1.000000
 50
0.000000
 71
     0
 42
0.200000
  3
txt
  4
BIGFONT
  0
ENDTAB
  0
TABLE
  2
VIEW
 70
     0
  0
ENDTAB
  0
ENDSEC
  0
SECTION
  2
BLOCKS
  0
ENDSEC
  0
SECTION
  2
ENTITIES
  0
LINE
  8
0
 10
574.500000
 20
400.500000
 11
574.500000
 21
-400.500000
  0
LINE
  8
0
 10
-564.500000
 20
400.500000
 11
574.500000
 21
400.500000
  0
LINE
  8
0
 10
-564.500000
 20
-400.500000
 11
574.500000
 21
-400.500000
  0
LINE
  8
0
 10
-564.500000
 20
400.500000
 11
-564.500000
 21
-400.500000
  0
LINE
  8
0
 10
-564.500000
 20
370.500000
 11
-334.500000
 21
370.500000
  0
LINE
  8
0
 10
344.500000
 20
370.500000
 11
574.500000
 21
370.500000
  0
LINE
  8
0
 10
344.500000
 20
-370.500000
 11
574.500000
 21
-370.500000
  0
LINE
  8
0
 10
344.500000
 20
-370.500000
 11
344.500000
 21
-400.500000
  0
LINE
  8
0
 10
344.500000
 20
400.500000
 11
344.500000
 21
370.500000
  0
LINE
  8
0
 10
-334.500000
 20
400.500000
 11
-334.500000
 21
370.500000
  0
LINE
  8
0
 10
-7.000000
 20
-400.500000
 11
-7.000000
 21
400.500000
  0
LINE
  8
0
 62
     4
 10
-495.786377
 20
-95.359039
 11
-495.786377
 21
-277.359039
  0
LINE
  8
0
 62
     4
 10
-515.786377
 20
-277.359039
 11
-495.786377
 21
-277.359039
  0
LINE
  8
0
 62
     4
 10
-515.786377
 20
-95.359039
 11
-495.786377
 21
-95.359039
  0
LINE
  8
0
 62
     4
 10
-515.786377
 20
-95.359039
 11
-515.786377
 21
-277.359039
  0
LINE
  8
0
  6
CENTER
 62
     1
 10
-525.786377
 20
-186.359039
 11
-485.786377
 21
-186.359039
  0
LINE
  8
0
  6
CENTER
 62
     1
 10
-525.786377
 20
-114.359039
 11
-485.786377
 21
-114.359039
  0
LINE
  8
0
  6
CENTER
 62
     1
 10
-525.786377
 20
-258.359039
 11
-485.786377
 21
-258.359039
  0
LINE
  8
0
  6
CENTER
 62
     1
 10
-525.786377
 20
-127.359039
 11
-485.786377
 21
-127.359039
  0
LINE
  8
0
  6
CENTER
 62
     1
 10
-525.786377
 20
-245.359039
 11
-485.786377
 21
-245.359039
  0
LINE
  8
0
  6
CENTER
 62
     1
 10
-394.947968
 20
-186.359039
 11
-105.565216
 21
-186.359039
  0
LINE
  8
0
  6
CENTER
 62
     1
 10
-250.786346
 20
-90.186935
 11
-250.786346
 21
-284.169128
  0
LINE
  8
0
 62
     4
 10
-388.286346
 20
-95.359039
 11
-113.286346
 21
-95.359039
  0
LINE
  8
0
 62
     4
 10
-388.286346
 20
-277.359039
 11
-113.286346
 21
-277.359039
  0
LINE
  8
0
  6
CENTER
 62
     1
 10
-322.786346
 20
-243.572372
 11
-322.786346
 21
-273.385712
  0
LINE
  8
0
  6
CENTER
 62
     1
 10
-337.241821
 20
-258.359039
 11
-309.355774
 21
-258.359039
  0
LINE
  8
0
  6
CENTER
 62
     1
 10
-322.786346
 20
-99.572372
 11
-322.786346
 21
-129.385712
  0
LINE
  8
0
  6
CENTER
 62
     1
 10
-337.241821
 20
-114.359039
 11
-309.355774
 21
-114.359039
  0
LINE
  8
0
  6
CENTER
 62
     1
 10
-178.786346
 20
-99.572372
 11
-178.786346
 21
-129.385712
  0
LINE
  8
0
  6
CENTER
 62
     1
 10
-193.241821
 20
-114.359039
 11
-165.355774
 21
-114.359039
  0
LINE
  8
0
 62
     1
 10
-178.786346
 20
-243.572372
 11
-178.786346
 21
-273.385712
  0
LINE
  8
0
  6
CENTER
 62
     1
 10
-193.241821
 20
-258.359039
 11
-165.355774
 21
-258.359039
  0
LINE
  8
0
 62
     4
 10
-113.286346
 20
-95.359039
 11
-113.286346
 21
-277.359039
  0
LINE
  8
0
 62
     4
 10
-388.286346
 20
-95.359039
 11
-388.286346
 21
-277.359039
  0
LINE
  8
0
  6
CENTER
 62
     1
 10
-383.491455
 20
-245.359039
 11
-355.486664
 21
-245.359039
  0
LINE
  8
0
  6
CENTER
 62
     1
 10
-147.148071
 20
-245.359039
 11
-119.567612
 21
-245.359039
  0
LINE
  8
0
  6
CENTER
 62
     1
 10
-132.786346
 20
-231.600159
 11
-132.786346
 21
-258.756317
  0
LINE
  8
0
  6
CENTER
 62
     1
 10
-132.786346
 20
-112.791992
 11
-132.786346
 21
-142.069733
  0
LINE
  8
0
  6
CENTER
 62
     1
 10
-146.299438
 20
-127.359039
 11
-119.991928
 21
-127.359039
  0
LINE
  8
0
  6
CENTER
 62
     1
 10
-368.786346
 20
-112.791992
 11
-368.786346
 21
-141.221100
  0
LINE
  8
0
  6
CENTER
 62
     1
 10
-382.642822
 20
-127.359039
 11
-355.486664
 21
-127.359039
  0
LINE
  8
0
  6
CENTER
 62
     1
 10
-368.786346
 20
-231.175842
 11
-368.786346
 21
-260.453583
  0
LINE
  8
0
 62
     4
 10
-515.786377
 20
-0.359039
 11
-495.786377
 21
-0.359039
  0
LINE
  8
0
 62
     4
 10
-515.786377
 20
274.640961
 11
-495.786377
 21
274.640961
  0
LINE
  8
0
 62
     4
 10
-515.786377
 20
274.640961
 11
-515.786377
 21
-0.359039
  0
LINE
  8
0
 62
     4
 10
-495.786377
 20
-0.359039
 11
-495.786377
 21
274.640961
  0
LINE
  8
0
  6
CENTER
 62
     1
 10
-525.786377
 20
255.140961
 11
-485.786377
 21
255.140961
  0
LINE
  8
0
  6
CENTER
 62
     1
 10
-525.786377
 20
209.140961
 11
-485.786377
 21
209.140961
  0
LINE
  8
0
  6
CENTER
 62
     1
 10
-525.786377
 20
137.140961
 11
-485.786377
 21
137.140961
  0
LINE
  8
0
  6
CENTER
 62
     1
 10
-525.786377
 20
65.140961
 11
-485.786377
 21
65.140961
  0
LINE
  8
0
  6
CENTER
 62
     1
 10
-525.786377
 20
19.140961
 11
-485.786377
 21
19.140961
  0
LINE
  8
0
 62
     4
 10
51.744812
 20
-82.459930
 11
51.744812
 21
-286.459930
  0
LINE
  8
0
 62
     4
 10
26.744812
 20
-82.459930
 11
51.744812
 21
-82.459930
  0
LINE
  8
0
 62
     4
 10
26.744812
 20
-286.459930
 11
51.744812
 21
-286.459930
  0
LINE
  8
0
 62
     4
 10
26.744812
 20
-82.459930
 11
26.744812
 21
-286.459930
  0
LINE
  8
0
  6
CENTER
 62
     1
 10
19.244812
 20
-265.459930
 11
59.244812
 21
-265.459930
  0
LINE
  8
0
  6
CENTER
 62
     1
 10
19.244812
 20
-250.459930
 11
59.244812
 21
-250.459930
  0
LINE
  8
0
  6
CENTER
 62
     1
 10
19.244812
 20
-184.459930
 11
59.244812
 21
-184.459930
  0
LINE
  8
0
  6
CENTER
 62
     1
 10
19.244812
 20
-118.459930
 11
59.244812
 21
-118.459930
  0
LINE
  8
0
  6
CENTER
 62
     1
 10
19.244812
 20
-103.459930
 11
59.244812
 21
-103.459930
  0
LINE
  8
0
  6
CENTER
 62
     1
 10
146.230408
 20
-184.459930
 11
478.782410
 21
-184.459930
  0
LINE
  8
0
  6
CENTER
 62
     1
 10
312.744812
 20
-76.291794
 11
312.744812
 21
-293.607422
  0
LINE
  8
0
 62
     4
 10
152.744812
 20
-286.459930
 11
472.744812
 21
-286.459930
  0
LINE
  8
0
 62
     4
 10
152.744812
 20
-82.459930
 11
472.744812
 21
-82.459930
  0
LINE
  8
0
  6
CENTER
 62
     1
 10
393.744812
 20
-85.250946
 11
393.744812
 21
-121.988113
  0
LINE
  8
0
  6
CENTER
 62
     1
 10
376.540558
 20
-103.459930
 11
410.451782
 21
-103.459930
  0
LINE
  8
0
  6
CENTER
 62
     1
 10
393.744812
 20
-247.250946
 11
393.744812
 21
-283.988098
  0
LINE
  8
0
  6
CENTER
 62
     1
 10
376.540558
 20
-265.459930
 11
410.451782
 21
-265.459930
  0
LINE
  8
0
 62
     4
 10
472.744812
 20
-82.459930
 11
472.744812
 21
-286.459930
  0
LINE
  8
0
  6
CENTER
 62
     1
 10
445.244812
 20
-100.507721
 11
445.244812
 21
-135.189728
  0
LINE
  8
0
  6
CENTER
 62
     1
 10
426.941132
 20
-250.459930
 11
462.535828
 21
-250.459930
  0
LINE
  8
0
  6
CENTER
 62
     1
 10
427.853821
 20
-118.459930
 11
463.448486
 21
-118.459930
  0
LINE
  8
0
  6
CENTER
 62
     1
 10
445.244812
 20
-233.303284
 11
445.244812
 21
-267.528961
  0
LINE
  8
0
  6
CENTER
 62
     1
 10
231.744812
 20
-85.250946
 11
231.744812
 21
-121.988113
  0
LINE
  8
0
  6
CENTER
 62
     1
 10
248.949066
 20
-103.459930
 11
215.037842
 21
-103.459930
  0
LINE
  8
0
  6
CENTER
 62
     1
 10
231.744812
 20
-247.250946
 11
231.744812
 21
-283.988098
  0
LINE
  8
0
  6
CENTER
 62
     1
 10
248.949066
 20
-265.459930
 11
215.037842
 21
-265.459930
  0
LINE
  8
0
 62
     4
 10
152.744812
 20
-82.459930
 11
152.744812
 21
-286.459930
  0
LINE
  8
0
  6
CENTER
 62
     1
 10
180.244812
 20
-100.507721
 11
180.244812
 21
-135.189728
  0
LINE
  8
0
  6
CENTER
 62
     1
 10
198.548523
 20
-250.459930
 11
162.953796
 21
-250.459930
  0
LINE
  8
0
  6
CENTER
 62
     1
 10
197.635803
 20
-118.459930
 11
162.041138
 21
-118.459930
  0
LINE
  8
0
  6
CENTER
 62
     1
 10
180.244812
 20
-233.303284
 11
180.244812
 21
-267.528961
  0
LINE
  8
0
 62
     4
 10
26.744812
 20
-22.459930
 11
51.744812
 21
-22.459930
  0
LINE
  8
0
 62
     4
 10
26.744812
 20
297.540070
 11
51.744812
 21
297.540070
  0
LINE
  8
0
 62
     4
 10
26.744812
 20
-22.459930
 11
26.744812
 21
297.540070
  0
LINE
  8
0
 62
     4
 10
51.744812
 20
297.540070
 11
51.744812
 21
-22.459930
  0
LINE
  8
0
  6
CENTER
 62
     1
 10
19.244812
 20
137.540070
 11
59.244812
 21
137.540070
  0
LINE
  8
0
  6
CENTER
 62
     1
 10
19.244812
 20
218.540070
 11
59.244812
 21
218.540070
  0
LINE
  8
0
  6
CENTER
 62
     1
 10
19.244812
 20
56.540070
 11
59.244812
 21
56.540070
  0
LINE
  8
0
  6
CENTER
 62
     1
 10
19.244812
 20
270.040070
 11
59.244812
 21
270.040070
  0
LINE
  8
0
  6
CENTER
 62
     1
 10
19.244812
 20
5.040070
 11
59.244812
 21
5.040070
  0
CIRCLE
  8
0
 62
     4
 10
-250.786346
 20
-186.359039
 40
45.000000
  0
CIRCLE
  8
0
 62
     1
 10
-322.786346
 20
-258.359039
 40
8.000000
  0
CIRCLE
  8
0
 62
     1
 10
-178.786346
 20
-258.359039
 40
8.000000
  0
CIRCLE
  8
0
 62
     1
 10
-178.786346
 20
-114.359039
 40
8.000000
  0
CIRCLE
  8
0
 62
     1
 10
-322.786346
 20
-114.359039
 40
8.000000
  0
CIRCLE
  8
0
 62
     4
 10
-322.786346
 20
-258.359039
 40
6.600000
  0
CIRCLE
  8
0
 62
     4
 10
-178.786346
 20
-258.359039
 40
6.600000
  0
CIRCLE
  8
0
 62
     4
 10
-178.786346
 20
-114.359039
 40
6.600000
  0
CIRCLE
  8
0
 62
     4
 10
-322.786346
 20
-114.359039
 40
6.600000
  0
CIRCLE
  8
0
 62
     4
 10
-132.786346
 20
-127.359039
 40
9.500000
  0
CIRCLE
  8
0
 62
     4
 10
-132.786346
 20
-245.359039
 40
9.500000
  0
CIRCLE
  8
0
 62
     4
 10
-368.786346
 20
-245.359039
 40
9.500000
  0
CIRCLE
  8
0
 62
     4
 10
-368.786346
 20
-127.359039
 40
9.500000
  0
CIRCLE
  8
0
 62
     4
 10
312.744812
 20
-184.459930
 40
57.500000
  0
CIRCLE
  8
0
 62
     1
 10
393.744812
 20
-103.459930
 40
9.000000
  0
CIRCLE
  8
0
 62
     1
 10
393.744812
 20
-265.459930
 40
9.000000
  0
CIRCLE
  8
0
 62
     4
 10
445.244812
 20
-118.459930
 40
12.000000
  0
CIRCLE
  8
0
 62
     4
 10
445.244812
 20
-250.459930
 40
12.000000
  0
CIRCLE
  8
0
 62
     1
 10
231.744812
 20
-103.459930
 40
9.000000
  0
CIRCLE
  8
0
 62
     4
 10
180.244812
 20
-250.459930
 40
12.000000
  0
CIRCLE
  8
0
 62
     1
 10
231.744812
 20
-265.459930
 40
9.000000
  0
CIRCLE
  8
0
 62
     4
 10
180.244812
 20
-118.459930
 40
12.000000
  0
CIRCLE
  8
0
 62
     4
 10
231.744812
 20
-265.459930
 40
6.400000
  0
CIRCLE
  8
0
 62
     4
 10
231.744812
 20
-103.459930
 40
6.400000
  0
CIRCLE
  8
0
 62
     4
 10
393.744812
 20
-103.459930
 40
6.400000
  0
CIRCLE
  8
0
 62
     4
 10
393.744812
 20
-265.459930
 40
6.400000
  0
TEXT
  8
0
 10
-538.535156
 20
375.250000
 40
12.500000
  1
SD H-FRANGE,-5
 50
0.000000
 41
1.052632
 51
0.000000
  7
STANDARD
  0
TEXT
  8
0
 10
15.214844
 20
330.250000
 40
12.500000
  1
BORE:180
 50
0.000000
 41
1.052632
 51
0.000000
  7
STANDARD
  0
TEXT
  8
0
 10
364.214844
 20
375.250000
 40
12.500000
  1
DATE: AUG ,1993
 50
0.000000
 41
1.052632
 51
0.000000
  7
STANDARD
  0
TEXT
  8
0
 10
345.179352
 20
-400.700012
 40
18.000000
  1
KOGANEI CORP.
 50
0.000000
 41
1.052632
 51
0.000000
  7
STANDARD
  0
TEXT
  8
0
 10
-542.285156
 20
330.250000
 40
12.500000
  1
BORE:160
 50
0.000000
 41
1.052632
 51
0.000000
  7
STANDARD
  0
ENDSEC
  0
EOF
