  0
SECTION
  2
HEADER
  9
$ACADVER
  1
AC1002
  9
$INSBASE
 10
0.0
 20
0.0
  9
$EXTMIN
 10
-370.8736
 20
-254.5585
  9
$EXTMAX
 10
370.8736
 20
254.5585
  9
$LIMMIN
 10
0.0
 20
0.0
  9
$LIMMAX
 10
12.0
 20
9.0
  9
$VIEWCTR
 10
28.6093211
 20
0.0
  9
$VIEWSIZE
 40
509.117
  9
$SNAPMODE
 70
     0
  9
$SNAPUNIT
 10
1.0
 20
1.0
  9
$SNAPBASE
 10
0.0
 20
0.0
  9
$SNAPANG
 50
0.0
  9
$SNAPSTYLE
 70
     0
  9
$SNAPISOPAIR
 70
     0
  9
$GRIDMODE
 70
     0
  9
$GRIDUNIT
 10
0.0
 20
0.0
  9
$ORTHOMODE
 70
     0
  9
$REGENMODE
 70
     1
  9
$FILLMODE
 70
     1
  9
$QTEXTMODE
 70
     0
  9
$DRAGMODE
 70
     2
  9
$LTSCALE
 40
1.0
  9
$OSMODE
 70
     0
  9
$ATTMODE
 70
     1
  9
$TEXTSIZE
 40
0.2
  9
$TRACEWID
 40
0.05
  9
$TEXTSTYLE
  7
AAA
  9
$CLAYER
  8
0
  9
$CELTYPE
  6
BYLAYER
  9
$CECOLOR
 62
   256
  9
$DIMSCALE
 40
1.0
  9
$DIMASZ
 40
0.18
  9
$DIMEXO
 40
0.0625
  9
$DIMDLI
 40
0.38
  9
$DIMRND
 40
0.0
  9
$DIMDLE
 40
0.0
  9
$DIMEXE
 40
0.18
  9
$DIMTP
 40
0.0
  9
$DIMTM
 40
0.0
  9
$DIMTXT
 40
0.18
  9
$DIMCEN
 40
0.09
  9
$DIMTSZ
 40
0.0
  9
$DIMTOL
 70
     0
  9
$DIMLIM
 70
     0
  9
$DIMTIH
 70
     1
  9
$DIMTOH
 70
     1
  9
$DIMSE1
 70
     0
  9
$DIMSE2
 70
     0
  9
$DIMTAD
 70
     0
  9
$DIMZIN
 70
     0
  9
$DIMBLK
  1

  9
$LUNITS
 70
     2
  9
$LUPREC
 70
     4
  9
$AXISMODE
 70
     0
  9
$AXISUNIT
 10
0.0
 20
0.0
  9
$SKETCHINC
 40
0.1
  9
$FILLETRAD
 40
0.0
  9
$AUNITS
 70
     0
  9
$AUPREC
 70
     0
  9
$MENU
  1
ACAD
  9
$ELEVATION
 40
0.0
  9
$THICKNESS
 40
0.0
  9
$VIEWDIR
 10
0.0
 20
0.0
 30
1.0
  9
$LIMCHECK
 70
     0
  9
$BLIPMODE
 70
     1
  9
$CHAMFERA
 40
0.0
  9
$CHAMFERB
 40
0.0
  9
$FASTZOOM
 70
     1
  9
$SKPOLY
 70
     0
  9
$TDCREATE
 40
2447820.6988426420
  9
$TDUPDATE
 40
2447820.6988426420
  9
$TDINDWG
 40
0.0021412037
  9
$TDUSRTIMER
 40
0.0021412037
  9
$USRTIMER
 70
     1
  9
$ANGBASE
 50
0.0
  9
$ANGDIR
 70
     0
  9
$PDMODE
 70
     0
  9
$PDSIZE
 40
0.0
  9
$PLINEWID
 40
0.0
  9
$COORDS
 70
     0
  9
$USERI1
 70
     0
  9
$USERI2
 70
     0
  9
$USERI3
 70
     0
  9
$USERI4
 70
     0
  9
$USERI5
 70
     0
  9
$USERR1
 40
0.0
  9
$USERR2
 40
0.0
  9
$USERR3
 40
0.0
  9
$USERR4
 40
0.0
  9
$USERR5
 40
0.0
  0
ENDSEC
  0
SECTION
  2
TABLES
  0
TABLE
  2
LTYPE
 70
     2
  0
LTYPE
  2
CONTINUOUS
 70
    64
  3
SOLID
 72
    65
 73
     0
 40
0.0
  0
LTYPE
  2
CENTER
 70
    64
  3
CENTER
 72
    65
 73
     4
 40
2.0
 49
1.25
 49
-0.25
 49
0.25
 49
-0.25
  0
ENDTAB
  0
TABLE
  2
LAYER
 70
     1
  0
LAYER
  2
0
 70
    64
 62
     7
  6
CONTINUOUS
  0
ENDTAB
  0
TABLE
  2
STYLE
 70
     2
  0
STYLE
  2
AAA
 70
     0
 40
0.0
 41
1.0
 50
0.0
 71
     0
 42
0.2
  3
TXT
  4

  0
STYLE
  2
STANDARD
 70
    64
 40
0.0
 41
1.0
 50
0.0
 71
     0
 42
0.2
  3
TXT
  4
BIGFONT
  0
ENDTAB
  0
TABLE
  2
VIEW
 70
     0
  0
ENDTAB
  0
ENDSEC
  0
SECTION
  2
BLOCKS
  0
ENDSEC
  0
SECTION
  2
ENTITIES
  0
POINT
  8
0
  6
CONTINUOUS
 62
     7
 10
-269.0814
 20
172.5585
  0
POINT
  8
0
  6
CONTINUOUS
 62
     7
 10
-179.0815
 20
92.55843
  0
POINT
  8
0
  6
CONTINUOUS
 62
     7
 10
-269.0815
 20
92.55846
  0
POINT
  8
0
  6
CONTINUOUS
 62
     7
 10
-269.0815
 20
29.55844
  0
POINT
  8
0
  6
CONTINUOUS
 62
     7
 10
-324.0815
 20
92.55843
  0
POINT
  8
0
  6
CONTINUOUS
 62
     7
 10
-269.0814
 20
-50.00002
  0
POINT
  8
0
  6
CONTINUOUS
 62
     7
 10
-248.2814
 20
-49.99997
  0
POINT
  8
0
  6
CONTINUOUS
 62
     7
 10
-269.0814
 20
-130.0
  0
POINT
  8
0
  6
CONTINUOUS
 62
     7
 10
-324.0814
 20
-130.0
  0
POINT
  8
0
  6
CONTINUOUS
 62
     7
 10
-318.0814
 20
-130.0
  0
POINT
  8
0
  6
CONTINUOUS
 62
     7
 10
-269.0815
 20
-193.0
  0
POINT
  8
0
  6
CONTINUOUS
 62
     7
 10
-248.2814
 20
-193.0
  0
POINT
  8
0
  6
CONTINUOUS
 62
     7
 10
-173.0814
 20
-130.0
  0
POINT
  8
0
  6
CONTINUOUS
 62
     7
 10
-179.0815
 20
-130.0
  0
POINT
  8
0
  6
CONTINUOUS
 62
     7
 10
-76.83241
 20
-130.0
  0
POINT
  8
0
  6
CONTINUOUS
 62
     7
 10
-70.83238
 20
-130.0
  0
POINT
  8
0
  6
CONTINUOUS
 62
     7
 10
-21.83241
 20
-193.0
  0
POINT
  8
0
  6
CONTINUOUS
 62
     7
 10
-21.83241
 20
-130.0
  0
POINT
  8
0
  6
CONTINUOUS
 62
     7
 10
68.16759
 20
-130.0
  0
POINT
  8
0
  6
CONTINUOUS
 62
     7
 10
74.16766
 20
-130.0
  0
POINT
  8
0
  6
CONTINUOUS
 62
     7
 10
-21.83241
 20
-50.00003
  0
POINT
  8
0
  6
CONTINUOUS
 62
     7
 10
-21.83242
 20
29.55845
  0
POINT
  8
0
  6
CONTINUOUS
 62
     7
 10
-76.83241
 20
92.55845
  0
POINT
  8
0
  6
CONTINUOUS
 62
     7
 10
-21.8324
 20
92.55846
  0
POINT
  8
0
  6
CONTINUOUS
 62
     7
 10
68.1676
 20
92.55848
  0
POINT
  8
0
  6
CONTINUOUS
 62
     7
 10
-21.8324
 20
172.5584
  0
POINT
  8
0
  6
CONTINUOUS
 62
     7
 10
225.4167
 20
172.5585
  0
POINT
  8
0
  6
CONTINUOUS
 62
     7
 10
315.4168
 20
92.55846
  0
POINT
  8
0
  6
CONTINUOUS
 62
     7
 10
225.4167
 20
92.55849
  0
POINT
  8
0
  6
CONTINUOUS
 62
     7
 10
170.4166
 20
92.5585
  0
POINT
  8
0
  6
CONTINUOUS
 62
     7
 10
225.4167
 20
29.5585
  0
POINT
  8
0
  6
CONTINUOUS
 62
     7
 10
225.4167
 20
-50.0
  0
POINT
  8
0
  6
CONTINUOUS
 62
     7
 10
265.4167
 20
-49.99998
  0
POINT
  8
0
  6
CONTINUOUS
 62
     7
 10
315.4167
 20
-130.0
  0
POINT
  8
0
  6
CONTINUOUS
 62
     7
 10
323.4167
 20
-130.0
  0
POINT
  8
0
  6
CONTINUOUS
 62
     7
 10
265.4167
 20
-130.0
  0
POINT
  8
0
  6
CONTINUOUS
 62
     7
 10
225.4167
 20
-130.0
  0
POINT
  8
0
  6
CONTINUOUS
 62
     7
 10
170.4167
 20
-130.0
  0
POINT
  8
0
  6
CONTINUOUS
 62
     7
 10
178.4167
 20
-130.0
  0
POINT
  8
0
  6
CONTINUOUS
 62
     7
 10
225.4167
 20
-193.0
  0
POINT
  8
0
  6
CONTINUOUS
 62
     7
 10
265.4167
 20
-193.0
  0
POINT
  8
0
  6
CONTINUOUS
 62
     7
 10
-269.0815
 20
92.55846
  0
POINT
  8
0
  6
CONTINUOUS
 62
     7
 10
-246.0815
 20
92.55846
  0
POINT
  8
0
  6
CONTINUOUS
 62
     7
 10
-269.0814
 20
172.5585
  0
POINT
  8
0
  6
CONTINUOUS
 62
     7
 10
-246.0814
 20
172.5585
  0
POINT
  8
0
  6
CONTINUOUS
 62
     7
 10
-324.0815
 20
92.55843
  0
POINT
  8
0
  6
CONTINUOUS
 62
     7
 10
-318.0815
 20
92.55843
  0
POINT
  8
0
  6
CONTINUOUS
 62
     7
 10
-179.0815
 20
92.55843
  0
POINT
  8
0
  6
CONTINUOUS
 62
     7
 10
-173.0815
 20
92.55843
  0
POINT
  8
0
  6
CONTINUOUS
 62
     7
 10
-269.0814
 20
-130.0
  0
POINT
  8
0
  6
CONTINUOUS
 62
     7
 10
-269.0815
 20
29.55844
  0
POINT
  8
0
  6
CONTINUOUS
 62
     7
 10
-246.0815
 20
29.55844
  0
POINT
  8
0
  6
CONTINUOUS
 62
     7
 10
-269.0814
 20
-130.0
  0
POINT
  8
0
  6
CONTINUOUS
 62
     7
 10
-248.2814
 20
-130.0
  0
POINT
  8
0
  6
CONTINUOUS
 62
     7
 10
-269.0814
 20
-50.00002
  0
POINT
  8
0
  6
CONTINUOUS
 62
     7
 10
-248.2814
 20
-50.00002
  0
POINT
  8
0
  6
CONTINUOUS
 62
     7
 10
-324.0814
 20
-130.0
  0
POINT
  8
0
  6
CONTINUOUS
 62
     7
 10
-318.0814
 20
-130.0
  0
POINT
  8
0
  6
CONTINUOUS
 62
     7
 10
-179.0815
 20
-130.0
  0
POINT
  8
0
  6
CONTINUOUS
 62
     7
 10
-173.0815
 20
-130.0
  0
POINT
  8
0
  6
CONTINUOUS
 62
     7
 10
-269.0815
 20
-193.0
  0
POINT
  8
0
  6
CONTINUOUS
 62
     7
 10
-248.2814
 20
-193.0
  0
POINT
  8
0
  6
CONTINUOUS
 62
     7
 10
5.9676
 20
92.55846
  0
POINT
  8
0
  6
CONTINUOUS
 62
     7
 10
-21.8324
 20
92.55846
  0
POINT
  8
0
  6
CONTINUOUS
 62
     7
 10
5.9676
 20
172.5584
  0
POINT
  8
0
  6
CONTINUOUS
 62
     7
 10
-21.8324
 20
172.5584
  0
POINT
  8
0
  6
CONTINUOUS
 62
     7
 10
-76.83241
 20
92.55845
  0
POINT
  8
0
  6
CONTINUOUS
 62
     7
 10
-70.83241
 20
92.55845
  0
POINT
  8
0
  6
CONTINUOUS
 62
     7
 10
68.1676
 20
92.55848
  0
POINT
  8
0
  6
CONTINUOUS
 62
     7
 10
74.1676
 20
92.55848
  0
POINT
  8
0
  6
CONTINUOUS
 62
     7
 10
-21.83242
 20
29.55845
  0
POINT
  8
0
  6
CONTINUOUS
 62
     7
 10
5.96758
 20
29.55845
  0
POINT
  8
0
  6
CONTINUOUS
 62
     7
 10
5.96759
 20
-130.0
  0
POINT
  8
0
  6
CONTINUOUS
 62
     7
 10
-21.83241
 20
-130.0
  0
POINT
  8
0
  6
CONTINUOUS
 62
     7
 10
-21.83241
 20
-50.00003
  0
POINT
  8
0
  6
CONTINUOUS
 62
     7
 10
-76.83241
 20
-130.0
  0
POINT
  8
0
  6
CONTINUOUS
 62
     7
 10
-70.83241
 20
-130.0
  0
POINT
  8
0
  6
CONTINUOUS
 62
     7
 10
68.16759
 20
-130.0
  0
POINT
  8
0
  6
CONTINUOUS
 62
     7
 10
74.16759
 20
-130.0
  0
POINT
  8
0
  6
CONTINUOUS
 62
     7
 10
-21.83241
 20
-193.0
  0
POINT
  8
0
  6
CONTINUOUS
 62
     7
 10
225.4167
 20
92.55849
  0
POINT
  8
0
  6
CONTINUOUS
 62
     7
 10
257.4167
 20
92.55849
  0
POINT
  8
0
  6
CONTINUOUS
 62
     7
 10
225.4167
 20
172.5585
  0
POINT
  8
0
  6
CONTINUOUS
 62
     7
 10
257.4167
 20
172.5585
  0
POINT
  8
0
  6
CONTINUOUS
 62
     7
 10
170.4166
 20
92.5585
  0
POINT
  8
0
  6
CONTINUOUS
 62
     7
 10
176.9166
 20
92.5585
  0
POINT
  8
0
  6
CONTINUOUS
 62
     7
 10
315.4168
 20
92.55846
  0
POINT
  8
0
  6
CONTINUOUS
 62
     7
 10
321.9168
 20
92.55846
  0
POINT
  8
0
  6
CONTINUOUS
 62
     7
 10
225.4167
 20
29.5585
  0
POINT
  8
0
  6
CONTINUOUS
 62
     7
 10
257.4167
 20
29.5585
  0
POINT
  8
0
  6
CONTINUOUS
 62
     7
 10
225.4167
 20
-130.0
  0
POINT
  8
0
  6
CONTINUOUS
 62
     7
 10
265.4167
 20
-130.0
  0
POINT
  8
0
  6
CONTINUOUS
 62
     7
 10
225.4167
 20
-50.0
  0
POINT
  8
0
  6
CONTINUOUS
 62
     7
 10
265.4167
 20
-50.0
  0
POINT
  8
0
  6
CONTINUOUS
 62
     7
 10
170.4167
 20
-130.0
  0
POINT
  8
0
  6
CONTINUOUS
 62
     7
 10
178.4167
 20
-130.0
  0
POINT
  8
0
  6
CONTINUOUS
 62
     7
 10
315.4167
 20
-130.0
  0
POINT
  8
0
  6
CONTINUOUS
 62
     7
 10
323.4167
 20
-130.0
  0
POINT
  8
0
  6
CONTINUOUS
 62
     7
 10
225.4167
 20
-193.0
  0
POINT
  8
0
  6
CONTINUOUS
 62
     7
 10
265.4167
 20
-193.0
  0
POINT
  8
0
  6
CONTINUOUS
 62
     7
 10
-246.0815
 20
92.55846
  0
POINT
  8
0
  6
CONTINUOUS
 62
     7
 10
-269.0815
 20
92.55846
  0
POINT
  8
0
  6
CONTINUOUS
 62
     7
 10
-246.0814
 20
172.5585
  0
POINT
  8
0
  6
CONTINUOUS
 62
     7
 10
-269.0814
 20
172.5585
  0
POINT
  8
0
  6
CONTINUOUS
 62
     7
 10
-173.0815
 20
92.55843
  0
POINT
  8
0
  6
CONTINUOUS
 62
     7
 10
-246.0815
 20
29.55844
  0
POINT
  8
0
  6
CONTINUOUS
 62
     7
 10
-179.0815
 20
92.55843
  0
POINT
  8
0
  6
CONTINUOUS
 62
     7
 10
-269.0815
 20
29.55844
  0
POINT
  8
0
  6
CONTINUOUS
 62
     7
 10
-324.0815
 20
92.55843
  0
POINT
  8
0
  6
CONTINUOUS
 62
     7
 10
-318.0815
 20
92.55843
  0
POINT
  8
0
  6
CONTINUOUS
 62
     7
 10
-21.83242
 20
29.55845
  0
POINT
  8
0
  6
CONTINUOUS
 62
     7
 10
5.96758
 20
29.55845
  0
POINT
  8
0
  6
CONTINUOUS
 62
     7
 10
-21.8324
 20
92.55846
  0
POINT
  8
0
  6
CONTINUOUS
 62
     7
 10
5.9676
 20
92.55846
  0
POINT
  8
0
  6
CONTINUOUS
 62
     7
 10
-21.8324
 20
172.5584
  0
POINT
  8
0
  6
CONTINUOUS
 62
     7
 10
5.9676
 20
172.5584
  0
POINT
  8
0
  6
CONTINUOUS
 62
     7
 10
-76.83241
 20
92.55845
  0
POINT
  8
0
  6
CONTINUOUS
 62
     7
 10
-70.83241
 20
92.55845
  0
POINT
  8
0
  6
CONTINUOUS
 62
     7
 10
68.1676
 20
92.55848
  0
POINT
  8
0
  6
CONTINUOUS
 62
     7
 10
74.1676
 20
92.55848
  0
POINT
  8
0
  6
CONTINUOUS
 62
     7
 10
225.4167
 20
92.55849
  0
POINT
  8
0
  6
CONTINUOUS
 62
     7
 10
257.4167
 20
92.55849
  0
POINT
  8
0
  6
CONTINUOUS
 62
     7
 10
225.4167
 20
172.5585
  0
POINT
  8
0
  6
CONTINUOUS
 62
     7
 10
257.4167
 20
172.5585
  0
POINT
  8
0
  6
CONTINUOUS
 62
     7
 10
225.4167
 20
29.5585
  0
POINT
  8
0
  6
CONTINUOUS
 62
     7
 10
257.4167
 20
29.5585
  0
POINT
  8
0
  6
CONTINUOUS
 62
     7
 10
170.4166
 20
92.5585
  0
POINT
  8
0
  6
CONTINUOUS
 62
     7
 10
176.9166
 20
92.5585
  0
POINT
  8
0
  6
CONTINUOUS
 62
     7
 10
315.4168
 20
92.55846
  0
POINT
  8
0
  6
CONTINUOUS
 62
     7
 10
321.9168
 20
92.55846
  0
POINT
  8
0
  6
CONTINUOUS
 62
     7
 10
225.4167
 20
29.5585
  0
POINT
  8
0
  6
CONTINUOUS
 62
     7
 10
257.4167
 20
29.5585
  0
POINT
  8
0
  6
CONTINUOUS
 62
     7
 10
265.4167
 20
-49.99998
  0
POINT
  8
0
  6
CONTINUOUS
 62
     7
 10
225.4167
 20
-50.0
  0
POINT
  8
0
  6
CONTINUOUS
 62
     7
 10
225.4167
 20
-130.0
  0
POINT
  8
0
  6
CONTINUOUS
 62
     7
 10
265.4167
 20
-130.0
  0
POINT
  8
0
  6
CONTINUOUS
 62
     7
 10
315.4167
 20
-130.0
  0
POINT
  8
0
  6
CONTINUOUS
 62
     7
 10
323.4167
 20
-130.0
  0
POINT
  8
0
  6
CONTINUOUS
 62
     7
 10
265.4167
 20
-193.0
  0
POINT
  8
0
  6
CONTINUOUS
 62
     7
 10
225.4167
 20
-193.0
  0
POINT
  8
0
  6
CONTINUOUS
 62
     7
 10
178.4167
 20
-130.0
  0
POINT
  8
0
  6
CONTINUOUS
 62
     7
 10
170.4167
 20
-130.0
  0
POINT
  8
0
  6
CONTINUOUS
 62
     7
 10
-21.83241
 20
-50.00003
  0
POINT
  8
0
  6
CONTINUOUS
 62
     7
 10
68.16759
 20
-130.0
  0
POINT
  8
0
  6
CONTINUOUS
 62
     7
 10
74.16766
 20
-130.0
  0
POINT
  8
0
  6
CONTINUOUS
 62
     7
 10
-21.83241
 20
-130.0
  0
POINT
  8
0
  6
CONTINUOUS
 62
     7
 10
-21.83241
 20
-193.0
  0
POINT
  8
0
  6
CONTINUOUS
 62
     7
 10
-76.83241
 20
-130.0
  0
POINT
  8
0
  6
CONTINUOUS
 62
     7
 10
-70.83238
 20
-130.0
  0
POINT
  8
0
  6
CONTINUOUS
 62
     7
 10
-179.0815
 20
-130.0
  0
POINT
  8
0
  6
CONTINUOUS
 62
     7
 10
-173.0814
 20
-130.0
  0
POINT
  8
0
  6
CONTINUOUS
 62
     7
 10
-248.2814
 20
-193.0
  0
POINT
  8
0
  6
CONTINUOUS
 62
     7
 10
-269.0815
 20
-193.0
  0
POINT
  8
0
  6
CONTINUOUS
 62
     7
 10
-269.0814
 20
-130.0
  0
POINT
  8
0
  6
CONTINUOUS
 62
     7
 10
-248.2814
 20
-130.0
  0
POINT
  8
0
  6
CONTINUOUS
 62
     7
 10
-248.2814
 20
-49.99997
  0
POINT
  8
0
  6
CONTINUOUS
 62
     7
 10
-269.0814
 20
-50.00002
  0
POINT
  8
0
  6
CONTINUOUS
 62
     7
 10
-324.0814
 20
-130.0
  0
POINT
  8
0
  6
CONTINUOUS
 62
     7
 10
-318.0814
 20
-130.0
  0
POINT
  8
0
  6
CONTINUOUS
 62
     7
 10
16.9676
 20
-50.00003
  0
POINT
  8
0
  6
CONTINUOUS
 62
     7
 10
16.9676
 20
-50.00003
  0
POINT
  8
0
  6
CONTINUOUS
 62
     7
 10
5.96759
 20
-130.0
  0
POINT
  8
0
  6
CONTINUOUS
 62
     7
 10
16.9676
 20
-193.0
  0
POINT
  8
0
  6
CONTINUOUS
 62
     7
 10
16.9676
 20
-193.0
  0
LINE
  8
0
  6
CONTINUOUS
 62
     7
 10
218.3292
 20
-225.9564
 11
370.8736
 21
-225.9564
  0
LINE
  8
0
  6
CONTINUOUS
 62
     7
 10
-218.3292
 20
225.9564
 11
-218.3292
 21
254.5585
  0
LINE
  8
0
  6
CONTINUOUS
 62
     7
 10
-370.8736
 20
225.9564
 11
-218.3292
 21
225.9564
  0
LINE
  8
0
  6
CONTINUOUS
 62
     7
 10
-370.8736
 20
254.5585
 11
370.8736
 21
254.5585
  0
LINE
  8
0
  6
CONTINUOUS
 62
     7
 10
-370.8736
 20
-254.5585
 11
370.8736
 21
-254.5585
  0
LINE
  8
0
  6
CONTINUOUS
 62
     7
 10
370.8736
 20
254.5585
 11
370.8736
 21
-254.5585
  0
LINE
  8
0
  6
CONTINUOUS
 62
     7
 10
-370.8736
 20
-254.5585
 11
-370.8736
 21
254.5585
  0
LINE
  8
0
  6
CONTINUOUS
 62
     7
 10
218.3292
 20
-225.9564
 11
218.3292
 21
-254.5585
  0
LINE
  8
0
  6
CONTINUOUS
 62
     7
 10
218.3292
 20
254.5585
 11
218.3292
 21
225.9564
  0
LINE
  8
0
  6
CONTINUOUS
 62
     7
 10
218.3292
 20
225.9564
 11
370.8736
 21
225.9564
  0
LINE
  8
0
  6
CONTINUOUS
 62
     7
 10
258.3816
 20
-232.8337
 11
258.3816
 21
-236.1516
  0
LINE
  8
0
  6
CONTINUOUS
 62
     7
 10
258.3816
 20
-236.1516
 11
270.8235
 21
-236.1516
  0
LINE
  8
0
  6
CONTINUOUS
 62
     7
 10
258.3816
 20
-249.1465
 11
275.2473
 21
-249.1465
  0
LINE
  8
0
  6
CONTINUOUS
 62
     7
 10
258.3816
 20
-245.8286
 11
270.8235
 21
-245.8286
  0
LINE
  8
0
  6
CONTINUOUS
 62
     7
 10
258.3816
 20
-232.8337
 11
273.0354
 21
-232.8337
  0
LINE
  8
0
  6
CONTINUOUS
 62
     7
 10
270.8235
 20
-236.1516
 11
270.8235
 21
-245.8286
  0
LINE
  8
0
  6
CONTINUOUS
 62
     7
 10
275.2473
 20
-235.0457
 11
275.2473
 21
-249.1465
  0
LINE
  8
0
  6
CONTINUOUS
 62
     7
 10
258.3816
 20
-245.8286
 11
258.3816
 21
-249.1465
  0
LINE
  8
0
  6
CONTINUOUS
 62
     7
 10
293.4954
 20
-236.1516
 11
293.4954
 21
-246.9346
  0
LINE
  8
0
  6
CONTINUOUS
 62
     7
 10
277.7357
 20
-232.8337
 11
277.7357
 21
-236.1516
  0
LINE
  8
0
  6
CONTINUOUS
 62
     7
 10
293.9378
 20
-232.585
 11
295.5138
 21
-232.585
  0
LINE
  8
0
  6
CONTINUOUS
 62
     7
 10
293.9378
 20
-230.373
 11
295.5138
 21
-230.373
  0
LINE
  8
0
  6
CONTINUOUS
 62
     7
 10
295.5138
 20
-230.373
 11
295.5138
 21
-232.585
  0
LINE
  8
0
  6
CONTINUOUS
 62
     7
 10
293.9378
 20
-230.373
 11
293.9378
 21
-232.585
  0
LINE
  8
0
  6
CONTINUOUS
 62
     7
 10
293.1083
 20
-230.373
 11
293.1083
 21
-232.585
  0
LINE
  8
0
  6
CONTINUOUS
 62
     7
 10
282.7661
 20
-230.373
 11
286.2009
 21
-230.373
  0
LINE
  8
0
  6
CONTINUOUS
 62
     7
 10
285.5413
 20
-232.8335
 11
286.2006
 21
-230.3727
  0
LINE
  8
0
  6
CONTINUOUS
 62
     7
 10
282.1067
 20
-232.8337
 11
282.766
 21
-230.373
  0
LINE
  8
0
  6
CONTINUOUS
 62
     7
 10
285.5416
 20
-232.8337
 11
290.1776
 21
-232.8337
  0
LINE
  8
0
  6
CONTINUOUS
 62
     7
 10
284.6526
 20
-236.1516
 11
289.0716
 21
-236.1516
  0
LINE
  8
0
  6
CONTINUOUS
 62
     7
 10
286.6429
 20
-249.1465
 11
291.2836
 21
-249.1465
  0
LINE
  8
0
  6
CONTINUOUS
 62
     7
 10
285.7537
 20
-245.8286
 11
286.6427
 21
-249.1463
  0
LINE
  8
0
  6
CONTINUOUS
 62
     7
 10
285.7538
 20
-245.8286
 11
289.0716
 21
-245.8286
  0
LINE
  8
0
  6
CONTINUOUS
 62
     7
 10
281.1707
 20
-249.1466
 11
284.6527
 21
-236.1517
  0
LINE
  8
0
  6
CONTINUOUS
 62
     7
 10
277.7357
 20
-236.1516
 11
281.2177
 21
-236.1516
  0
LINE
  8
0
  6
CONTINUOUS
 62
     7
 10
277.7354
 20
-249.1462
 11
281.2175
 21
-236.1513
  0
LINE
  8
0
  6
CONTINUOUS
 62
     7
 10
277.7357
 20
-249.1465
 11
281.1706
 21
-249.1465
  0
LINE
  8
0
  6
CONTINUOUS
 62
     7
 10
277.7357
 20
-232.8337
 11
282.1067
 21
-232.8337
  0
LINE
  8
0
  6
CONTINUOUS
 62
     7
 10
289.0716
 20
-236.1516
 11
289.0716
 21
-245.8286
  0
LINE
  8
0
  6
CONTINUOUS
 62
     7
 10
291.5323
 20
-230.373
 11
293.1083
 21
-230.373
  0
LINE
  8
0
  6
CONTINUOUS
 62
     7
 10
291.5323
 20
-232.585
 11
293.1083
 21
-232.585
  0
LINE
  8
0
  6
CONTINUOUS
 62
     7
 10
291.5323
 20
-230.373
 11
291.5323
 21
-232.585
  0
LINE
  8
0
  6
CONTINUOUS
 62
     7
 10
301.5135
 20
-230.373
 11
305.9373
 21
-230.373
  0
LINE
  8
0
  6
CONTINUOUS
 62
     7
 10
308.3423
 20
-240.1951
 11
311.2962
 21
-238.8176
  0
LINE
  8
0
  6
CONTINUOUS
 62
     7
 10
305.9373
 20
-242.7344
 11
305.9373
 21
-249.1465
  0
LINE
  8
0
  6
CONTINUOUS
 62
     7
 10
301.5135
 20
-243.379
 11
301.5135
 21
-249.1465
  0
LINE
  8
0
  6
CONTINUOUS
 62
     7
 10
305.9373
 20
-232.8337
 11
310.3611
 21
-232.8337
  0
LINE
  8
0
  6
CONTINUOUS
 62
     7
 10
305.9373
 20
-230.373
 11
305.9373
 21
-232.8337
  0
LINE
  8
0
  6
CONTINUOUS
 62
     7
 10
301.5135
 20
-230.373
 11
301.5135
 21
-232.8337
  0
LINE
  8
0
  6
CONTINUOUS
 62
     7
 10
312.573
 20
-235.0457
 11
312.573
 21
-236.8128
  0
LINE
  8
0
  6
CONTINUOUS
 62
     7
 10
308.3424
 20
-240.195
 11
312.5734
 21
-242.168
  0
LINE
  8
0
  6
CONTINUOUS
 62
     7
 10
305.9373
 20
-242.7343
 11
312.5731
 21
-245.8286
  0
LINE
  8
0
  6
CONTINUOUS
 62
     7
 10
296.2603
 20
-242.1678
 11
296.2603
 21
-245.8286
  0
LINE
  8
0
  6
CONTINUOUS
 62
     7
 10
296.2607
 20
-242.1682
 11
309.1626
 21
-236.1519
  0
LINE
  8
0
  6
CONTINUOUS
 62
     7
 10
296.2603
 20
-245.8286
 11
301.5136
 21
-243.3789
  0
LINE
  8
0
  6
CONTINUOUS
 62
     7
 10
312.573
 20
-242.1678
 11
312.573
 21
-245.8286
  0
LINE
  8
0
  6
CONTINUOUS
 62
     7
 10
296.2603
 20
-232.8337
 11
296.2603
 21
-236.1516
  0
LINE
  8
0
  6
CONTINUOUS
 62
     7
 10
301.5135
 20
-249.1465
 11
305.9373
 21
-249.1465
  0
LINE
  8
0
  6
CONTINUOUS
 62
     7
 10
296.2603
 20
-236.1516
 11
309.1621
 21
-236.1516
  0
LINE
  8
0
  6
CONTINUOUS
 62
     7
 10
296.2603
 20
-232.8337
 11
301.5135
 21
-232.8337
  0
LINE
  8
0
  6
CONTINUOUS
 62
     7
 10
327.504
 20
-236.4047
 11
328.73
 21
-235.9171
  0
LINE
  8
0
  6
CONTINUOUS
 62
     7
 10
327.5034
 20
-236.4044
 11
327.5034
 21
-249.1465
  0
LINE
  8
0
  6
CONTINUOUS
 62
     7
 10
323.0795
 20
-249.1465
 11
327.5034
 21
-249.1465
  0
LINE
  8
0
  6
CONTINUOUS
 62
     7
 10
313.9553
 20
-241.7925
 11
323.0794
 21
-238.1637
  0
LINE
  8
0
  6
CONTINUOUS
 62
     7
 10
313.9555
 20
-238.222
 11
326.8062
 21
-233.1111
  0
LINE
  8
0
  6
CONTINUOUS
 62
     7
 10
323.0795
 20
-238.1638
 11
323.0795
 21
-249.1465
  0
LINE
  8
0
  6
CONTINUOUS
 62
     7
 10
327.5034
 20
-231.3684
 11
327.5034
 21
-232.0834
  0
LINE
  8
0
  6
CONTINUOUS
 62
     7
 10
330.8211
 20
-231.3684
 11
330.8211
 21
-232.8338
  0
LINE
  8
0
  6
CONTINUOUS
 62
     7
 10
313.9554
 20
-238.2219
 11
313.9554
 21
-241.7925
  0
LINE
  8
0
  6
CONTINUOUS
 62
     7
 10
327.5034
 20
-231.3684
 11
330.8211
 21
-231.3684
  0
LINE
  8
0
  6
CONTINUOUS
 62
     7
 10
-370.8736
 20
0.0
 11
370.8736
 21
0.0
  0
LINE
  8
0
  6
CONTINUOUS
 62
     7
 10
-123.6245
 20
254.5585
 11
-123.6245
 21
-254.5585
  0
LINE
  8
0
  6
CONTINUOUS
 62
     7
 10
123.6245
 20
254.5585
 11
123.6245
 21
-254.5585
  0
LINE
  8
0
  6
CENTER
 62
     2
 10
-272.6749
 20
92.55846
 11
-241.5874
 21
92.55846
  0
LINE
  8
0
  6
CONTINUOUS
 62
     7
 10
-265.0815
 20
87.55846
 11
-246.0815
 21
87.55846
  0
LINE
  8
0
  6
CONTINUOUS
 62
     7
 10
-265.0815
 20
102.5585
 11
-246.0815
 21
102.5585
  0
LINE
  8
0
  6
CONTINUOUS
 62
     7
 10
-246.0815
 20
102.5585
 11
-246.0815
 21
87.55846
  0
LINE
  8
0
  6
CONTINUOUS
 62
     7
 10
-265.0815
 20
102.5585
 11
-265.0815
 21
87.55846
  0
LINE
  8
0
  6
CENTER
 62
     2
 10
-249.0815
 20
101.0585
 11
-249.0815
 21
96.05846
  0
LINE
  8
0
  6
CENTER
 62
     2
 10
-263.5815
 20
98.55846
 11
-258.5815
 21
98.55846
  0
LINE
  8
0
  6
CENTER
 62
     2
 10
-251.5815
 20
98.55846
 11
-246.5815
 21
98.55846
  0
LINE
  8
0
  6
CENTER
 62
     2
 10
-261.0815
 20
101.0585
 11
-261.0815
 21
96.05846
  0
LINE
  8
0
  6
CENTER
 62
     2
 10
-254.0815
 20
118.2251
 11
-254.0815
 21
84.48477
  0
LINE
  8
0
  6
CONTINUOUS
 62
     7
 10
-259.0815
 20
104.0585
 11
-249.0815
 21
104.0585
  0
LINE
  8
0
  6
CONTINUOUS
 62
     7
 10
-258.0815
 20
113.5585
 11
-250.0815
 21
113.5585
  0
LINE
  8
0
  6
CONTINUOUS
 62
     7
 10
-249.5815
 20
113.0585
 11
-249.5815
 21
106.5585
  0
LINE
  8
0
  6
CONTINUOUS
 62
     7
 10
-258.5815
 20
113.0585
 11
-258.5815
 21
106.5585
  0
LINE
  8
0
  6
CONTINUOUS
 62
     7
 10
-258.5815
 20
113.0585
 11
-249.5815
 21
113.0585
  0
LINE
  8
0
  6
CONTINUOUS
 62
     7
 10
-258.5815
 20
106.5585
 11
-249.5815
 21
106.5585
  0
LINE
  8
0
  6
CONTINUOUS
 62
     7
 10
-258.5815
 20
113.0585
 11
-258.0815
 21
113.5585
  0
LINE
  8
0
  6
CONTINUOUS
 62
     7
 10
-250.0815
 20
106.0585
 11
-249.5815
 21
106.5585
  0
LINE
  8
0
  6
CONTINUOUS
 62
     7
 10
-250.0815
 20
113.5584
 11
-249.5815
 21
113.0585
  0
LINE
  8
0
  6
CONTINUOUS
 62
     7
 10
-258.5815
 20
106.5584
 11
-258.0815
 21
106.0584
  0
LINE
  8
0
  6
CONTINUOUS
 62
     7
 10
-258.5815
 20
113.0584
 11
-255.0815
 21
111.0377
  0
LINE
  8
0
  6
CONTINUOUS
 62
     7
 10
-258.5815
 20
112.4811
 11
-257.5815
 21
113.0585
  0
LINE
  8
0
  6
CONTINUOUS
 62
     7
 10
-258.5815
 20
111.9038
 11
-256.5815
 21
113.0585
  0
LINE
  8
0
  6
CONTINUOUS
 62
     7
 10
-258.5815
 20
111.3264
 11
-255.5815
 21
113.0585
  0
LINE
  8
0
  6
CONTINUOUS
 62
     7
 10
-258.5815
 20
110.7491
 11
-254.5815
 21
113.0585
  0
LINE
  8
0
  6
CONTINUOUS
 62
     7
 10
-258.5815
 20
110.1717
 11
-253.5815
 21
113.0585
  0
LINE
  8
0
  6
CONTINUOUS
 62
     7
 10
-258.5815
 20
109.5944
 11
-252.5815
 21
113.0585
  0
LINE
  8
0
  6
CONTINUOUS
 62
     7
 10
-258.5815
 20
112.4811
 11
-255.5815
 21
110.7491
  0
LINE
  8
0
  6
CONTINUOUS
 62
     7
 10
-258.5815
 20
111.9038
 11
-256.0815
 21
110.4604
  0
LINE
  8
0
  6
CONTINUOUS
 62
     7
 10
-258.5815
 20
111.3264
 11
-256.5815
 21
110.1717
  0
LINE
  8
0
  6
CONTINUOUS
 62
     7
 10
-258.5815
 20
110.7491
 11
-257.0815
 21
109.883
  0
LINE
  8
0
  6
CONTINUOUS
 62
     7
 10
-258.5815
 20
110.1717
 11
-257.5815
 21
109.5944
  0
LINE
  8
0
  6
CONTINUOUS
 62
     7
 10
-258.5815
 20
109.5944
 11
-258.0815
 21
109.3057
  0
LINE
  8
0
  6
CONTINUOUS
 62
     7
 10
-257.5815
 20
113.0584
 11
-254.5815
 21
111.3264
  0
LINE
  8
0
  6
CONTINUOUS
 62
     7
 10
-256.5815
 20
113.0584
 11
-254.0815
 21
111.6151
  0
LINE
  8
0
  6
CONTINUOUS
 62
     7
 10
-255.5815
 20
113.0584
 11
-253.5815
 21
111.9037
  0
LINE
  8
0
  6
CONTINUOUS
 62
     7
 10
-254.5815
 20
113.0584
 11
-253.0815
 21
112.1924
  0
LINE
  8
0
  6
CONTINUOUS
 62
     7
 10
-253.5815
 20
113.0584
 11
-252.5815
 21
112.4811
  0
LINE
  8
0
  6
CONTINUOUS
 62
     7
 10
-249.0815
 20
104.0585
 11
-249.0815
 21
102.5585
  0
LINE
  8
0
  6
CONTINUOUS
 62
     7
 10
-259.0815
 20
104.0585
 11
-259.0815
 21
102.5585
  0
LINE
  8
0
  6
CONTINUOUS
 62
     7
 10
-269.0815
 20
96.55847
 11
-268.5815
 21
97.05847
  0
LINE
  8
0
  6
CONTINUOUS
 62
     7
 10
-269.0815
 20
96.55846
 11
-269.0815
 21
88.55846
  0
LINE
  8
0
  6
CONTINUOUS
 62
     7
 10
-268.5815
 20
88.05846
 11
-265.0815
 21
88.05846
  0
LINE
  8
0
  6
CONTINUOUS
 62
     7
 10
-268.5815
 20
97.05846
 11
-265.0815
 21
97.05846
  0
LINE
  8
0
  6
CONTINUOUS
 62
     7
 10
-268.5815
 20
97.05846
 11
-268.5815
 21
88.05846
  0
LINE
  8
0
  6
CONTINUOUS
 62
     7
 10
-269.0815
 20
88.55846
 11
-268.5815
 21
88.05845
  0
LINE
  8
0
  6
CONTINUOUS
 62
     7
 10
-258.0815
 20
106.0584
 11
-250.0815
 21
106.0584
  0
LINE
  8
0
  6
CONTINUOUS
 62
     7
 10
-252.0815
 20
106.0584
 11
-252.0815
 21
104.0585
  0
LINE
  8
0
  6
CONTINUOUS
 62
     7
 10
-256.0815
 20
106.0584
 11
-256.0815
 21
104.0585
  0
LINE
  8
0
  6
CONTINUOUS
 62
     7
 10
-252.4605
 20
106.0584
 11
-252.4605
 21
104.0585
  0
LINE
  8
0
  6
CONTINUOUS
 62
     7
 10
-255.7025
 20
106.0584
 11
-255.7025
 21
104.0585
  0
LINE
  8
0
  6
CONTINUOUS
 62
     7
 10
-269.0814
 20
176.5585
 11
-269.0814
 21
168.5585
  0
LINE
  8
0
  6
CONTINUOUS
 62
     7
 10
-268.5814
 20
168.0585
 11
-265.0814
 21
168.0585
  0
LINE
  8
0
  6
CONTINUOUS
 62
     7
 10
-268.5814
 20
177.0585
 11
-265.0814
 21
177.0585
  0
LINE
  8
0
  6
CONTINUOUS
 62
     7
 10
-268.5814
 20
177.0585
 11
-268.5814
 21
168.0585
  0
LINE
  8
0
  6
CONTINUOUS
 62
     7
 10
-269.0815
 20
168.5585
 11
-268.5815
 21
168.0585
  0
LINE
  8
0
  6
CONTINUOUS
 62
     7
 10
-269.0815
 20
176.5585
 11
-268.5815
 21
177.0585
  0
LINE
  8
0
  6
CONTINUOUS
 62
     7
 10
-265.0814
 20
166.5585
 11
-246.0814
 21
166.5585
  0
LINE
  8
0
  6
CONTINUOUS
 62
     7
 10
-265.0814
 20
178.5585
 11
-246.0814
 21
178.5585
  0
LINE
  8
0
  6
CONTINUOUS
 62
     7
 10
-246.0814
 20
178.5585
 11
-246.0814
 21
166.5585
  0
LINE
  8
0
  6
CONTINUOUS
 62
     7
 10
-265.0814
 20
166.5585
 11
-265.0814
 21
178.5585
  0
LINE
  8
0
  6
CENTER
 62
     2
 10
-272.5921
 20
172.5585
 11
-243.4921
 21
172.5585
  0
LINE
  8
0
  6
CENTER
 62
     2
 10
-254.0814
 20
180.0585
 11
-254.0814
 21
165.0585
  0
LINE
  8
0
  6
CONTINUOUS
 62
     7
 10
-253.5814
 20
174.495
 11
-253.5814
 21
170.622
  0
LINE
  8
0
  6
CONTINUOUS
 62
     7
 10
-254.5814
 20
174.495
 11
-254.5814
 21
170.622
  0
LINE
  8
0
  6
CENTER
 62
     2
 10
-324.0815
 20
118.2251
 11
-324.0815
 21
84.31364
  0
LINE
  8
0
  6
CONTINUOUS
 62
     7
 10
-329.0815
 20
104.0584
 11
-319.0815
 21
104.0584
  0
LINE
  8
0
  6
CONTINUOUS
 62
     7
 10
-328.0815
 20
113.5584
 11
-320.0815
 21
113.5584
  0
LINE
  8
0
  6
CONTINUOUS
 62
     7
 10
-319.5815
 20
113.0584
 11
-319.5815
 21
106.5584
  0
LINE
  8
0
  6
CONTINUOUS
 62
     7
 10
-328.5815
 20
113.0584
 11
-328.5815
 21
106.5584
  0
LINE
  8
0
  6
CONTINUOUS
 62
     7
 10
-328.5815
 20
113.0584
 11
-319.5815
 21
113.0584
  0
LINE
  8
0
  6
CONTINUOUS
 62
     7
 10
-328.5815
 20
106.5584
 11
-319.5815
 21
106.5584
  0
LINE
  8
0
  6
CONTINUOUS
 62
     7
 10
-328.5815
 20
113.0584
 11
-328.0815
 21
113.5584
  0
LINE
  8
0
  6
CONTINUOUS
 62
     7
 10
-320.0815
 20
106.0584
 11
-319.5815
 21
106.5584
  0
LINE
  8
0
  6
CONTINUOUS
 62
     7
 10
-320.0815
 20
113.5584
 11
-319.5815
 21
113.0584
  0
LINE
  8
0
  6
CONTINUOUS
 62
     7
 10
-328.5815
 20
106.5584
 11
-328.0815
 21
106.0584
  0
LINE
  8
0
  6
CONTINUOUS
 62
     7
 10
-328.5815
 20
113.0584
 11
-325.0815
 21
111.0377
  0
LINE
  8
0
  6
CONTINUOUS
 62
     7
 10
-328.5815
 20
112.4811
 11
-327.5815
 21
113.0584
  0
LINE
  8
0
  6
CONTINUOUS
 62
     7
 10
-328.5815
 20
111.9037
 11
-326.5815
 21
113.0584
  0
LINE
  8
0
  6
CONTINUOUS
 62
     7
 10
-328.5815
 20
111.3264
 11
-325.5815
 21
113.0584
  0
LINE
  8
0
  6
CONTINUOUS
 62
     7
 10
-328.5815
 20
110.749
 11
-324.5815
 21
113.0584
  0
LINE
  8
0
  6
CONTINUOUS
 62
     7
 10
-328.5815
 20
110.1717
 11
-323.5815
 21
113.0584
  0
LINE
  8
0
  6
CONTINUOUS
 62
     7
 10
-328.5815
 20
109.5943
 11
-322.5815
 21
113.0584
  0
LINE
  8
0
  6
CONTINUOUS
 62
     7
 10
-328.5815
 20
112.4811
 11
-325.5815
 21
110.749
  0
LINE
  8
0
  6
CONTINUOUS
 62
     7
 10
-328.5815
 20
111.9037
 11
-326.0815
 21
110.4603
  0
LINE
  8
0
  6
CONTINUOUS
 62
     7
 10
-328.5815
 20
111.3263
 11
-326.5815
 21
110.1717
  0
LINE
  8
0
  6
CONTINUOUS
 62
     7
 10
-328.5815
 20
110.749
 11
-327.0815
 21
109.883
  0
LINE
  8
0
  6
CONTINUOUS
 62
     7
 10
-328.5815
 20
110.1717
 11
-327.5815
 21
109.5943
  0
LINE
  8
0
  6
CONTINUOUS
 62
     7
 10
-328.5815
 20
109.5943
 11
-328.0815
 21
109.3057
  0
LINE
  8
0
  6
CONTINUOUS
 62
     7
 10
-327.5815
 20
113.0584
 11
-324.5815
 21
111.3264
  0
LINE
  8
0
  6
CONTINUOUS
 62
     7
 10
-326.5815
 20
113.0584
 11
-324.0815
 21
111.615
  0
LINE
  8
0
  6
CONTINUOUS
 62
     7
 10
-325.5815
 20
113.0584
 11
-323.5815
 21
111.9037
  0
LINE
  8
0
  6
CONTINUOUS
 62
     7
 10
-324.5815
 20
113.0584
 11
-323.0815
 21
112.1924
  0
LINE
  8
0
  6
CONTINUOUS
 62
     7
 10
-323.5815
 20
113.0584
 11
-322.5815
 21
112.4811
  0
LINE
  8
0
  6
CONTINUOUS
 62
     7
 10
-319.0815
 20
104.0584
 11
-319.0815
 21
102.5584
  0
LINE
  8
0
  6
CONTINUOUS
 62
     7
 10
-329.0815
 20
104.0584
 11
-329.0815
 21
102.5584
  0
LINE
  8
0
  6
CONTINUOUS
 62
     7
 10
-330.0815
 20
102.5584
 11
-330.0815
 21
87.55843
  0
LINE
  8
0
  6
CONTINUOUS
 62
     7
 10
-318.0815
 20
102.5584
 11
-318.0815
 21
87.55843
  0
LINE
  8
0
  6
CONTINUOUS
 62
     7
 10
-330.0815
 20
87.55843
 11
-318.0815
 21
87.55843
  0
LINE
  8
0
  6
CONTINUOUS
 62
     7
 10
-330.0815
 20
102.5584
 11
-318.0815
 21
102.5584
  0
LINE
  8
0
  6
CENTER
 62
     2
 10
-331.5815
 20
92.55843
 11
-316.5815
 21
92.55843
  0
LINE
  8
0
  6
CONTINUOUS
 62
     7
 10
-328.0815
 20
106.0584
 11
-320.0815
 21
106.0584
  0
LINE
  8
0
  6
CONTINUOUS
 62
     7
 10
-322.0815
 20
106.0584
 11
-322.0815
 21
104.0584
  0
LINE
  8
0
  6
CONTINUOUS
 62
     7
 10
-326.0815
 20
106.0584
 11
-326.0815
 21
104.0584
  0
LINE
  8
0
  6
CONTINUOUS
 62
     7
 10
-322.4605
 20
106.0584
 11
-322.4605
 21
104.0584
  0
LINE
  8
0
  6
CONTINUOUS
 62
     7
 10
-325.7025
 20
106.0584
 11
-325.7025
 21
104.0584
  0
LINE
  8
0
  6
CENTER
 62
     2
 10
-179.0815
 20
118.2251
 11
-179.0815
 21
84.31364
  0
LINE
  8
0
  6
CONTINUOUS
 62
     7
 10
-184.0815
 20
104.0584
 11
-174.0815
 21
104.0584
  0
LINE
  8
0
  6
CONTINUOUS
 62
     7
 10
-183.0815
 20
113.5584
 11
-175.0815
 21
113.5584
  0
LINE
  8
0
  6
CONTINUOUS
 62
     7
 10
-174.5815
 20
113.0584
 11
-174.5815
 21
106.5584
  0
LINE
  8
0
  6
CONTINUOUS
 62
     7
 10
-183.5815
 20
113.0584
 11
-183.5815
 21
106.5584
  0
LINE
  8
0
  6
CONTINUOUS
 62
     7
 10
-183.5815
 20
113.0584
 11
-174.5815
 21
113.0584
  0
LINE
  8
0
  6
CONTINUOUS
 62
     7
 10
-183.5815
 20
106.5584
 11
-174.5815
 21
106.5584
  0
LINE
  8
0
  6
CONTINUOUS
 62
     7
 10
-183.5815
 20
113.0584
 11
-183.0815
 21
113.5585
  0
LINE
  8
0
  6
CONTINUOUS
 62
     7
 10
-175.0815
 20
106.0585
 11
-174.5815
 21
106.5585
  0
LINE
  8
0
  6
CONTINUOUS
 62
     7
 10
-175.0815
 20
113.5584
 11
-174.5815
 21
113.0584
  0
LINE
  8
0
  6
CONTINUOUS
 62
     7
 10
-183.5815
 20
106.5584
 11
-183.0815
 21
106.0584
  0
LINE
  8
0
  6
CONTINUOUS
 62
     7
 10
-183.5815
 20
113.0584
 11
-180.0815
 21
111.0377
  0
LINE
  8
0
  6
CONTINUOUS
 62
     7
 10
-183.5815
 20
112.4811
 11
-182.5815
 21
113.0584
  0
LINE
  8
0
  6
CONTINUOUS
 62
     7
 10
-183.5815
 20
111.9037
 11
-181.5815
 21
113.0584
  0
LINE
  8
0
  6
CONTINUOUS
 62
     7
 10
-183.5815
 20
111.3264
 11
-180.5815
 21
113.0584
  0
LINE
  8
0
  6
CONTINUOUS
 62
     7
 10
-183.5815
 20
110.749
 11
-179.5815
 21
113.0584
  0
LINE
  8
0
  6
CONTINUOUS
 62
     7
 10
-183.5815
 20
110.1717
 11
-178.5815
 21
113.0584
  0
LINE
  8
0
  6
CONTINUOUS
 62
     7
 10
-183.5815
 20
109.5943
 11
-177.5815
 21
113.0584
  0
LINE
  8
0
  6
CONTINUOUS
 62
     7
 10
-183.5815
 20
112.4811
 11
-180.5815
 21
110.749
  0
LINE
  8
0
  6
CONTINUOUS
 62
     7
 10
-183.5815
 20
111.9037
 11
-181.0815
 21
110.4604
  0
LINE
  8
0
  6
CONTINUOUS
 62
     7
 10
-183.5815
 20
111.3264
 11
-181.5815
 21
110.1717
  0
LINE
  8
0
  6
CONTINUOUS
 62
     7
 10
-183.5815
 20
110.749
 11
-182.0815
 21
109.883
  0
LINE
  8
0
  6
CONTINUOUS
 62
     7
 10
-183.5815
 20
110.1717
 11
-182.5815
 21
109.5943
  0
LINE
  8
0
  6
CONTINUOUS
 62
     7
 10
-183.5815
 20
109.5943
 11
-183.0815
 21
109.3056
  0
LINE
  8
0
  6
CONTINUOUS
 62
     7
 10
-182.5815
 20
113.0584
 11
-179.5815
 21
111.3264
  0
LINE
  8
0
  6
CONTINUOUS
 62
     7
 10
-181.5815
 20
113.0584
 11
-179.0815
 21
111.615
  0
LINE
  8
0
  6
CONTINUOUS
 62
     7
 10
-180.5815
 20
113.0584
 11
-178.5815
 21
111.9037
  0
LINE
  8
0
  6
CONTINUOUS
 62
     7
 10
-179.5815
 20
113.0584
 11
-178.0815
 21
112.1924
  0
LINE
  8
0
  6
CONTINUOUS
 62
     7
 10
-178.5815
 20
113.0584
 11
-177.5815
 21
112.4811
  0
LINE
  8
0
  6
CONTINUOUS
 62
     7
 10
-174.0815
 20
104.0584
 11
-174.0815
 21
102.5584
  0
LINE
  8
0
  6
CONTINUOUS
 62
     7
 10
-184.0815
 20
104.0584
 11
-184.0815
 21
102.5584
  0
LINE
  8
0
  6
CONTINUOUS
 62
     7
 10
-185.0815
 20
102.5584
 11
-185.0815
 21
87.55843
  0
LINE
  8
0
  6
CONTINUOUS
 62
     7
 10
-173.0815
 20
102.5584
 11
-173.0815
 21
87.55843
  0
LINE
  8
0
  6
CONTINUOUS
 62
     7
 10
-185.0815
 20
87.55843
 11
-173.0815
 21
87.55843
  0
LINE
  8
0
  6
CONTINUOUS
 62
     7
 10
-185.0815
 20
102.5584
 11
-173.0815
 21
102.5584
  0
LINE
  8
0
  6
CENTER
 62
     2
 10
-186.5815
 20
92.55843
 11
-171.5815
 21
92.55843
  0
LINE
  8
0
  6
CONTINUOUS
 62
     7
 10
-183.0815
 20
106.0584
 11
-175.0815
 21
106.0584
  0
LINE
  8
0
  6
CONTINUOUS
 62
     7
 10
-177.0815
 20
106.0584
 11
-177.0815
 21
104.0584
  0
LINE
  8
0
  6
CONTINUOUS
 62
     7
 10
-181.0815
 20
106.0584
 11
-181.0815
 21
104.0584
  0
LINE
  8
0
  6
CONTINUOUS
 62
     7
 10
-177.4605
 20
106.0584
 11
-177.4605
 21
104.0584
  0
LINE
  8
0
  6
CONTINUOUS
 62
     7
 10
-180.7025
 20
106.0584
 11
-180.7025
 21
104.0584
  0
LINE
  8
0
  6
CONTINUOUS
 62
     7
 10
-269.0815
 20
33.55844
 11
-269.0815
 21
25.55844
  0
LINE
  8
0
  6
CONTINUOUS
 62
     7
 10
-268.5815
 20
25.05844
 11
-265.0815
 21
25.05844
  0
LINE
  8
0
  6
CONTINUOUS
 62
     7
 10
-268.5815
 20
34.05844
 11
-265.0815
 21
34.05844
  0
LINE
  8
0
  6
CONTINUOUS
 62
     7
 10
-268.5815
 20
34.05844
 11
-268.5815
 21
25.05844
  0
LINE
  8
0
  6
CONTINUOUS
 62
     7
 10
-269.0815
 20
25.55841
 11
-268.5815
 21
25.05841
  0
LINE
  8
0
  6
CONTINUOUS
 62
     7
 10
-269.0815
 20
33.55845
 11
-268.5815
 21
34.05845
  0
LINE
  8
0
  6
CONTINUOUS
 62
     7
 10
-265.0815
 20
23.55844
 11
-246.0815
 21
23.55844
  0
LINE
  8
0
  6
CONTINUOUS
 62
     7
 10
-265.0815
 20
35.55844
 11
-246.0815
 21
35.55844
  0
LINE
  8
0
  6
CONTINUOUS
 62
     7
 10
-246.0815
 20
35.55844
 11
-246.0815
 21
23.55844
  0
LINE
  8
0
  6
CONTINUOUS
 62
     7
 10
-265.0815
 20
23.55844
 11
-265.0815
 21
35.55844
  0
LINE
  8
0
  6
CENTER
 62
     2
 10
-272.5922
 20
29.55844
 11
-243.4922
 21
29.55844
  0
LINE
  8
0
  6
CENTER
 62
     2
 10
-276.527
 20
-130.0
 11
-243.7873
 21
-130.0
  0
LINE
  8
0
  6
CONTINUOUS
 62
     7
 10
-267.2814
 20
-135.0
 11
-248.2814
 21
-135.0
  0
LINE
  8
0
  6
CONTINUOUS
 62
     7
 10
-267.2814
 20
-120.0
 11
-248.2814
 21
-120.0
  0
LINE
  8
0
  6
CONTINUOUS
 62
     7
 10
-248.2814
 20
-120.0
 11
-248.2814
 21
-135.0
  0
LINE
  8
0
  6
CONTINUOUS
 62
     7
 10
-267.2814
 20
-120.0
 11
-267.2814
 21
-135.0
  0
LINE
  8
0
  6
CENTER
 62
     2
 10
-251.2814
 20
-121.5
 11
-251.2814
 21
-126.5
  0
LINE
  8
0
  6
CENTER
 62
     2
 10
-265.7814
 20
-124.0
 11
-260.7814
 21
-124.0
  0
LINE
  8
0
  6
CENTER
 62
     2
 10
-253.7814
 20
-124.0
 11
-248.7814
 21
-124.0
  0
LINE
  8
0
  6
CENTER
 62
     2
 10
-263.2814
 20
-121.5
 11
-263.2814
 21
-126.5
  0
LINE
  8
0
  6
CENTER
 62
     2
 10
-256.2814
 20
-104.3334
 11
-256.2814
 21
-138.0737
  0
LINE
  8
0
  6
CONTINUOUS
 62
     7
 10
-261.2814
 20
-118.5
 11
-251.2814
 21
-118.5
  0
LINE
  8
0
  6
CONTINUOUS
 62
     7
 10
-260.2814
 20
-109.0
 11
-252.2814
 21
-109.0
  0
LINE
  8
0
  6
CONTINUOUS
 62
     7
 10
-251.7814
 20
-109.5
 11
-251.7814
 21
-116.0
  0
LINE
  8
0
  6
CONTINUOUS
 62
     7
 10
-260.7814
 20
-109.5
 11
-260.7814
 21
-116.0
  0
LINE
  8
0
  6
CONTINUOUS
 62
     7
 10
-260.7814
 20
-109.5
 11
-251.7814
 21
-109.5
  0
LINE
  8
0
  6
CONTINUOUS
 62
     7
 10
-260.7814
 20
-116.0
 11
-251.7814
 21
-116.0
  0
LINE
  8
0
  6
CONTINUOUS
 62
     7
 10
-260.7814
 20
-109.5
 11
-260.2814
 21
-109.0
  0
LINE
  8
0
  6
CONTINUOUS
 62
     7
 10
-252.2815
 20
-116.5001
 11
-251.7814
 21
-116.0001
  0
LINE
  8
0
  6
CONTINUOUS
 62
     7
 10
-252.2814
 20
-109.0
 11
-251.7814
 21
-109.5
  0
LINE
  8
0
  6
CONTINUOUS
 62
     7
 10
-260.7814
 20
-116.0001
 11
-260.2814
 21
-116.5001
  0
LINE
  8
0
  6
CONTINUOUS
 62
     7
 10
-260.7815
 20
-109.5
 11
-257.2814
 21
-111.5208
  0
LINE
  8
0
  6
CONTINUOUS
 62
     7
 10
-260.7814
 20
-110.0774
 11
-259.7814
 21
-109.5001
  0
LINE
  8
0
  6
CONTINUOUS
 62
     7
 10
-260.7814
 20
-110.6547
 11
-258.7814
 21
-109.5001
  0
LINE
  8
0
  6
CONTINUOUS
 62
     7
 10
-260.7814
 20
-111.2321
 11
-257.7814
 21
-109.5
  0
LINE
  8
0
  6
CONTINUOUS
 62
     7
 10
-260.7814
 20
-111.8094
 11
-256.7814
 21
-109.5
  0
LINE
  8
0
  6
CONTINUOUS
 62
     7
 10
-260.7814
 20
-112.3868
 11
-255.7814
 21
-109.5
  0
LINE
  8
0
  6
CONTINUOUS
 62
     7
 10
-260.7814
 20
-112.9641
 11
-254.7814
 21
-109.5
  0
LINE
  8
0
  6
CONTINUOUS
 62
     7
 10
-260.7814
 20
-110.0774
 11
-257.7815
 21
-111.8094
  0
LINE
  8
0
  6
CONTINUOUS
 62
     7
 10
-260.7815
 20
-110.6547
 11
-258.2814
 21
-112.0981
  0
LINE
  8
0
  6
CONTINUOUS
 62
     7
 10
-260.7814
 20
-111.2321
 11
-258.7814
 21
-112.3868
  0
LINE
  8
0
  6
CONTINUOUS
 62
     7
 10
-260.7814
 20
-111.8094
 11
-259.2814
 21
-112.6755
  0
LINE
  8
0
  6
CONTINUOUS
 62
     7
 10
-260.7814
 20
-112.3868
 11
-259.7814
 21
-112.9641
  0
LINE
  8
0
  6
CONTINUOUS
 62
     7
 10
-260.7814
 20
-112.9641
 11
-260.2814
 21
-113.2528
  0
LINE
  8
0
  6
CONTINUOUS
 62
     7
 10
-259.7815
 20
-109.5
 11
-256.7815
 21
-111.2321
  0
LINE
  8
0
  6
CONTINUOUS
 62
     7
 10
-258.7814
 20
-109.5
 11
-256.2815
 21
-110.9434
  0
LINE
  8
0
  6
CONTINUOUS
 62
     7
 10
-257.7814
 20
-109.5
 11
-255.7814
 21
-110.6547
  0
LINE
  8
0
  6
CONTINUOUS
 62
     7
 10
-256.7814
 20
-109.5001
 11
-255.2814
 21
-110.3661
  0
LINE
  8
0
  6
CONTINUOUS
 62
     7
 10
-255.7814
 20
-109.5
 11
-254.7814
 21
-110.0774
  0
LINE
  8
0
  6
CONTINUOUS
 62
     7
 10
-251.2814
 20
-118.5
 11
-251.2814
 21
-120.0
  0
LINE
  8
0
  6
CONTINUOUS
 62
     7
 10
-261.2814
 20
-118.5
 11
-261.2814
 21
-120.0
  0
LINE
  8
0
  6
CONTINUOUS
 62
     7
 10
-269.0814
 20
-126.1
 11
-269.0814
 21
-133.9
  0
LINE
  8
0
  6
CONTINUOUS
 62
     7
 10
-272.7814
 20
-127.5
 11
-272.7814
 21
-132.5
  0
LINE
  8
0
  6
CONTINUOUS
 62
     7
 10
-270.2814
 20
-128.0
 11
-269.0814
 21
-128.0
  0
LINE
  8
0
  6
CONTINUOUS
 62
     7
 10
-270.2814
 20
-132.0
 11
-269.0814
 21
-132.0
  0
LINE
  8
0
  6
CONTINUOUS
 62
     7
 10
-272.7814
 20
-127.5
 11
-270.2814
 21
-127.5
  0
LINE
  8
0
  6
CONTINUOUS
 62
     7
 10
-272.7814
 20
-132.5
 11
-270.2814
 21
-132.5
  0
LINE
  8
0
  6
CONTINUOUS
 62
     7
 10
-272.7814
 20
-127.933
 11
-270.2814
 21
-127.933
  0
LINE
  8
0
  6
CONTINUOUS
 62
     7
 10
-272.7814
 20
-132.067
 11
-270.2814
 21
-132.067
  0
LINE
  8
0
  6
CONTINUOUS
 62
     7
 10
-270.2814
 20
-127.5
 11
-270.2814
 21
-132.5
  0
LINE
  8
0
  6
CONTINUOUS
 62
     7
 10
-268.7814
 20
-126.1
 11
-268.7814
 21
-133.9
  0
LINE
  8
0
  6
CONTINUOUS
 62
     7
 10
-269.0814
 20
-126.1
 11
-267.2814
 21
-126.1
  0
LINE
  8
0
  6
CONTINUOUS
 62
     7
 10
-269.0814
 20
-133.9
 11
-267.2814
 21
-133.9
  0
LINE
  8
0
  6
CONTINUOUS
 62
     7
 10
-260.2814
 20
-116.5
 11
-252.2814
 21
-116.5
  0
LINE
  8
0
  6
CONTINUOUS
 62
     7
 10
-254.2814
 20
-116.5
 11
-254.2814
 21
-118.5
  0
LINE
  8
0
  6
CONTINUOUS
 62
     7
 10
-258.2814
 20
-116.5
 11
-258.2814
 21
-118.5
  0
LINE
  8
0
  6
CONTINUOUS
 62
     7
 10
-254.6604
 20
-116.5
 11
-254.6604
 21
-118.5
  0
LINE
  8
0
  6
CONTINUOUS
 62
     7
 10
-257.9024
 20
-116.5
 11
-257.9024
 21
-118.5
  0
LINE
  8
0
  6
CONTINUOUS
 62
     7
 10
-267.2814
 20
-56.00002
 11
-248.2814
 21
-56.00002
  0
LINE
  8
0
  6
CONTINUOUS
 62
     7
 10
-267.2814
 20
-44.00002
 11
-248.2814
 21
-44.00002
  0
LINE
  8
0
  6
CONTINUOUS
 62
     7
 10
-248.2814
 20
-44.00002
 11
-248.2814
 21
-56.00002
  0
LINE
  8
0
  6
CONTINUOUS
 62
     7
 10
-267.2814
 20
-56.00002
 11
-267.2814
 21
-44.00002
  0
LINE
  8
0
  6
CENTER
 62
     2
 10
-256.2814
 20
-42.50002
 11
-256.2814
 21
-57.50002
  0
LINE
  8
0
  6
CONTINUOUS
 62
     7
 10
-255.7814
 20
-48.06353
 11
-255.7814
 21
-51.93651
  0
LINE
  8
0
  6
CONTINUOUS
 62
     7
 10
-256.7814
 20
-48.06353
 11
-256.7814
 21
-51.93651
  0
LINE
  8
0
  6
CONTINUOUS
 62
     7
 10
-272.7814
 20
-47.50002
 11
-272.7814
 21
-52.50002
  0
LINE
  8
0
  6
CONTINUOUS
 62
     7
 10
-270.2814
 20
-48.00002
 11
-269.0814
 21
-48.00002
  0
LINE
  8
0
  6
CONTINUOUS
 62
     7
 10
-270.2814
 20
-52.00002
 11
-269.0814
 21
-52.00002
  0
LINE
  8
0
  6
CONTINUOUS
 62
     7
 10
-272.7814
 20
-47.50002
 11
-270.2814
 21
-47.50002
  0
LINE
  8
0
  6
CONTINUOUS
 62
     7
 10
-272.7814
 20
-52.50002
 11
-270.2814
 21
-52.50002
  0
LINE
  8
0
  6
CONTINUOUS
 62
     7
 10
-272.7814
 20
-47.93302
 11
-270.2814
 21
-47.93302
  0
LINE
  8
0
  6
CONTINUOUS
 62
     7
 10
-272.7814
 20
-52.06702
 11
-270.2814
 21
-52.06702
  0
LINE
  8
0
  6
CONTINUOUS
 62
     7
 10
-270.2814
 20
-47.50002
 11
-270.2814
 21
-52.50002
  0
LINE
  8
0
  6
CENTER
 62
     2
 10
-275.6937
 20
-50.00002
 11
-245.3714
 21
-50.00002
  0
LINE
  8
0
  6
CONTINUOUS
 62
     7
 10
-268.7814
 20
-46.10002
 11
-268.7814
 21
-53.90002
  0
LINE
  8
0
  6
CONTINUOUS
 62
     7
 10
-269.0814
 20
-46.10002
 11
-267.2814
 21
-46.10002
  0
LINE
  8
0
  6
CONTINUOUS
 62
     7
 10
-269.0814
 20
-53.90002
 11
-267.2814
 21
-53.90002
  0
LINE
  8
0
  6
CONTINUOUS
 62
     7
 10
-269.0814
 20
-46.10002
 11
-269.0814
 21
-53.90002
  0
LINE
  8
0
  6
CENTER
 62
     2
 10
-324.0814
 20
-104.3334
 11
-324.0814
 21
-138.2448
  0
LINE
  8
0
  6
CONTINUOUS
 62
     7
 10
-329.0814
 20
-118.5
 11
-319.0814
 21
-118.5
  0
LINE
  8
0
  6
CONTINUOUS
 62
     7
 10
-328.0814
 20
-109.0
 11
-320.0814
 21
-109.0
  0
LINE
  8
0
  6
CONTINUOUS
 62
     7
 10
-319.5814
 20
-109.5
 11
-319.5814
 21
-116.0
  0
LINE
  8
0
  6
CONTINUOUS
 62
     7
 10
-328.5814
 20
-109.5
 11
-328.5814
 21
-116.0
  0
LINE
  8
0
  6
CONTINUOUS
 62
     7
 10
-328.5814
 20
-109.5
 11
-319.5814
 21
-109.5
  0
LINE
  8
0
  6
CONTINUOUS
 62
     7
 10
-328.5814
 20
-116.0
 11
-319.5814
 21
-116.0
  0
LINE
  8
0
  6
CONTINUOUS
 62
     7
 10
-328.5815
 20
-109.5
 11
-328.0814
 21
-109.0
  0
LINE
  8
0
  6
CONTINUOUS
 62
     7
 10
-320.0815
 20
-116.5
 11
-319.5814
 21
-116.0
  0
LINE
  8
0
  6
CONTINUOUS
 62
     7
 10
-320.0814
 20
-109.0
 11
-319.5814
 21
-109.5
  0
LINE
  8
0
  6
CONTINUOUS
 62
     7
 10
-328.5815
 20
-116.0
 11
-328.0815
 21
-116.5
  0
LINE
  8
0
  6
CONTINUOUS
 62
     7
 10
-328.5814
 20
-109.5
 11
-325.0814
 21
-111.5208
  0
LINE
  8
0
  6
CONTINUOUS
 62
     7
 10
-328.5815
 20
-110.0774
 11
-327.5815
 21
-109.5
  0
LINE
  8
0
  6
CONTINUOUS
 62
     7
 10
-328.5815
 20
-110.6547
 11
-326.5815
 21
-109.5
  0
LINE
  8
0
  6
CONTINUOUS
 62
     7
 10
-328.5814
 20
-111.2321
 11
-325.5814
 21
-109.5
  0
LINE
  8
0
  6
CONTINUOUS
 62
     7
 10
-328.5815
 20
-111.8094
 11
-324.5815
 21
-109.5
  0
LINE
  8
0
  6
CONTINUOUS
 62
     7
 10
-328.5815
 20
-112.3868
 11
-323.5815
 21
-109.5
  0
LINE
  8
0
  6
CONTINUOUS
 62
     7
 10
-328.5815
 20
-112.9641
 11
-322.5815
 21
-109.5
  0
LINE
  8
0
  6
CONTINUOUS
 62
     7
 10
-328.5814
 20
-110.0774
 11
-325.5814
 21
-111.8094
  0
LINE
  8
0
  6
CONTINUOUS
 62
     7
 10
-328.5814
 20
-110.6547
 11
-326.0814
 21
-112.0981
  0
LINE
  8
0
  6
CONTINUOUS
 62
     7
 10
-328.5814
 20
-111.2321
 11
-326.5814
 21
-112.3868
  0
LINE
  8
0
  6
CONTINUOUS
 62
     7
 10
-328.5814
 20
-111.8094
 11
-327.0814
 21
-112.6755
  0
LINE
  8
0
  6
CONTINUOUS
 62
     7
 10
-328.5814
 20
-112.3868
 11
-327.5814
 21
-112.9641
  0
LINE
  8
0
  6
CONTINUOUS
 62
     7
 10
-328.5814
 20
-112.9641
 11
-328.0814
 21
-113.2528
  0
LINE
  8
0
  6
CONTINUOUS
 62
     7
 10
-327.5814
 20
-109.5
 11
-324.5814
 21
-111.2321
  0
LINE
  8
0
  6
CONTINUOUS
 62
     7
 10
-326.5814
 20
-109.5
 11
-324.0814
 21
-110.9434
  0
LINE
  8
0
  6
CONTINUOUS
 62
     7
 10
-325.5814
 20
-109.5
 11
-323.5814
 21
-110.6547
  0
LINE
  8
0
  6
CONTINUOUS
 62
     7
 10
-324.5814
 20
-109.5
 11
-323.0814
 21
-110.3661
  0
LINE
  8
0
  6
CONTINUOUS
 62
     7
 10
-323.5814
 20
-109.5
 11
-322.5814
 21
-110.0774
  0
LINE
  8
0
  6
CONTINUOUS
 62
     7
 10
-319.0814
 20
-118.5
 11
-319.0814
 21
-120.0
  0
LINE
  8
0
  6
CONTINUOUS
 62
     7
 10
-329.0814
 20
-118.5
 11
-329.0814
 21
-120.0
  0
LINE
  8
0
  6
CONTINUOUS
 62
     7
 10
-330.0814
 20
-120.0
 11
-330.0814
 21
-135.0
  0
LINE
  8
0
  6
CONTINUOUS
 62
     7
 10
-318.0814
 20
-120.0
 11
-318.0814
 21
-135.0
  0
LINE
  8
0
  6
CONTINUOUS
 62
     7
 10
-330.0814
 20
-135.0
 11
-318.0814
 21
-135.0
  0
LINE
  8
0
  6
CONTINUOUS
 62
     7
 10
-330.0814
 20
-120.0
 11
-318.0814
 21
-120.0
  0
LINE
  8
0
  6
CENTER
 62
     2
 10
-331.5814
 20
-130.0
 11
-316.5814
 21
-130.0
  0
LINE
  8
0
  6
CONTINUOUS
 62
     7
 10
-328.0815
 20
-116.5
 11
-320.0814
 21
-116.5
  0
LINE
  8
0
  6
CONTINUOUS
 62
     7
 10
-322.0814
 20
-116.5
 11
-322.0814
 21
-118.5
  0
LINE
  8
0
  6
CONTINUOUS
 62
     7
 10
-326.0814
 20
-116.5
 11
-326.0814
 21
-118.5
  0
LINE
  8
0
  6
CONTINUOUS
 62
     7
 10
-322.4604
 20
-116.5
 11
-322.4604
 21
-118.5
  0
LINE
  8
0
  6
CONTINUOUS
 62
     7
 10
-325.7024
 20
-116.5
 11
-325.7024
 21
-118.5
  0
LINE
  8
0
  6
CENTER
 62
     2
 10
-179.0815
 20
-104.3334
 11
-179.0815
 21
-138.2448
  0
LINE
  8
0
  6
CONTINUOUS
 62
     7
 10
-184.0815
 20
-118.5
 11
-174.0815
 21
-118.5
  0
LINE
  8
0
  6
CONTINUOUS
 62
     7
 10
-183.0815
 20
-109.0
 11
-175.0815
 21
-109.0
  0
LINE
  8
0
  6
CONTINUOUS
 62
     7
 10
-174.5815
 20
-109.5
 11
-174.5815
 21
-116.0
  0
LINE
  8
0
  6
CONTINUOUS
 62
     7
 10
-183.5815
 20
-109.5
 11
-183.5815
 21
-116.0
  0
LINE
  8
0
  6
CONTINUOUS
 62
     7
 10
-183.5815
 20
-109.5
 11
-174.5815
 21
-109.5
  0
LINE
  8
0
  6
CONTINUOUS
 62
     7
 10
-183.5815
 20
-116.0
 11
-174.5815
 21
-116.0
  0
LINE
  8
0
  6
CONTINUOUS
 62
     7
 10
-183.5815
 20
-109.5001
 11
-183.0815
 21
-109.0001
  0
LINE
  8
0
  6
CONTINUOUS
 62
     7
 10
-175.0814
 20
-116.5
 11
-174.5814
 21
-116.0
  0
LINE
  8
0
  6
CONTINUOUS
 62
     7
 10
-175.0815
 20
-109.0
 11
-174.5815
 21
-109.5
  0
LINE
  8
0
  6
CONTINUOUS
 62
     7
 10
-183.5815
 20
-116.0
 11
-183.0815
 21
-116.5
  0
LINE
  8
0
  6
CONTINUOUS
 62
     7
 10
-183.5815
 20
-109.5
 11
-180.0815
 21
-111.5208
  0
LINE
  8
0
  6
CONTINUOUS
 62
     7
 10
-183.5815
 20
-110.0774
 11
-182.5814
 21
-109.5
  0
LINE
  8
0
  6
CONTINUOUS
 62
     7
 10
-183.5815
 20
-110.6547
 11
-181.5815
 21
-109.5
  0
LINE
  8
0
  6
CONTINUOUS
 62
     7
 10
-183.5815
 20
-111.2321
 11
-180.5815
 21
-109.5001
  0
LINE
  8
0
  6
CONTINUOUS
 62
     7
 10
-183.5815
 20
-111.8095
 11
-179.5815
 21
-109.5001
  0
LINE
  8
0
  6
CONTINUOUS
 62
     7
 10
-183.5815
 20
-112.3868
 11
-178.5815
 21
-109.5
  0
LINE
  8
0
  6
CONTINUOUS
 62
     7
 10
-183.5815
 20
-112.9641
 11
-177.5815
 21
-109.5
  0
LINE
  8
0
  6
CONTINUOUS
 62
     7
 10
-183.5815
 20
-110.0774
 11
-180.5815
 21
-111.8094
  0
LINE
  8
0
  6
CONTINUOUS
 62
     7
 10
-183.5815
 20
-110.6547
 11
-181.0815
 21
-112.0981
  0
LINE
  8
0
  6
CONTINUOUS
 62
     7
 10
-183.5815
 20
-111.2321
 11
-181.5815
 21
-112.3868
  0
LINE
  8
0
  6
CONTINUOUS
 62
     7
 10
-183.5815
 20
-111.8094
 11
-182.0815
 21
-112.6755
  0
LINE
  8
0
  6
CONTINUOUS
 62
     7
 10
-183.5815
 20
-112.3868
 11
-182.5815
 21
-112.9641
  0
LINE
  8
0
  6
CONTINUOUS
 62
     7
 10
-183.5815
 20
-112.9641
 11
-183.0815
 21
-113.2528
  0
LINE
  8
0
  6
CONTINUOUS
 62
     7
 10
-182.5815
 20
-109.5
 11
-179.5815
 21
-111.2321
  0
LINE
  8
0
  6
CONTINUOUS
 62
     7
 10
-181.5815
 20
-109.5
 11
-179.0815
 21
-110.9434
  0
LINE
  8
0
  6
CONTINUOUS
 62
     7
 10
-180.5815
 20
-109.5
 11
-178.5815
 21
-110.6547
  0
LINE
  8
0
  6
CONTINUOUS
 62
     7
 10
-179.5815
 20
-109.5
 11
-178.0815
 21
-110.3661
  0
LINE
  8
0
  6
CONTINUOUS
 62
     7
 10
-178.5815
 20
-109.5
 11
-177.5815
 21
-110.0774
  0
LINE
  8
0
  6
CONTINUOUS
 62
     7
 10
-174.0815
 20
-118.5
 11
-174.0815
 21
-120.0
  0
LINE
  8
0
  6
CONTINUOUS
 62
     7
 10
-184.0815
 20
-118.5
 11
-184.0815
 21
-120.0
  0
LINE
  8
0
  6
CONTINUOUS
 62
     7
 10
-185.0815
 20
-120.0
 11
-185.0815
 21
-135.0
  0
LINE
  8
0
  6
CONTINUOUS
 62
     7
 10
-173.0815
 20
-120.0
 11
-173.0815
 21
-135.0
  0
LINE
  8
0
  6
CONTINUOUS
 62
     7
 10
-185.0815
 20
-135.0
 11
-173.0815
 21
-135.0
  0
LINE
  8
0
  6
CONTINUOUS
 62
     7
 10
-185.0815
 20
-120.0
 11
-173.0815
 21
-120.0
  0
LINE
  8
0
  6
CENTER
 62
     2
 10
-186.5815
 20
-130.0
 11
-171.5815
 21
-130.0
  0
LINE
  8
0
  6
CONTINUOUS
 62
     7
 10
-183.0814
 20
-116.5
 11
-175.0814
 21
-116.5
  0
LINE
  8
0
  6
CONTINUOUS
 62
     7
 10
-177.0815
 20
-116.5
 11
-177.0815
 21
-118.5
  0
LINE
  8
0
  6
CONTINUOUS
 62
     7
 10
-181.0815
 20
-116.5
 11
-181.0815
 21
-118.5
  0
LINE
  8
0
  6
CONTINUOUS
 62
     7
 10
-177.4604
 20
-116.5
 11
-177.4604
 21
-118.5
  0
LINE
  8
0
  6
CONTINUOUS
 62
     7
 10
-180.7025
 20
-116.5
 11
-180.7025
 21
-118.5
  0
LINE
  8
0
  6
CONTINUOUS
 62
     7
 10
-267.2815
 20
-199.0
 11
-248.2814
 21
-199.0
  0
LINE
  8
0
  6
CONTINUOUS
 62
     7
 10
-267.2815
 20
-187.0
 11
-248.2814
 21
-187.0
  0
LINE
  8
0
  6
CONTINUOUS
 62
     7
 10
-248.2814
 20
-187.0
 11
-248.2814
 21
-199.0
  0
LINE
  8
0
  6
CONTINUOUS
 62
     7
 10
-267.2815
 20
-199.0
 11
-267.2815
 21
-187.0
  0
LINE
  8
0
  6
CONTINUOUS
 62
     7
 10
-272.7815
 20
-190.5
 11
-272.7815
 21
-195.5
  0
LINE
  8
0
  6
CONTINUOUS
 62
     7
 10
-270.2815
 20
-191.0
 11
-269.0815
 21
-191.0
  0
LINE
  8
0
  6
CONTINUOUS
 62
     7
 10
-270.2815
 20
-195.0
 11
-269.0815
 21
-195.0
  0
LINE
  8
0
  6
CONTINUOUS
 62
     7
 10
-272.7815
 20
-190.5
 11
-270.2815
 21
-190.5
  0
LINE
  8
0
  6
CONTINUOUS
 62
     7
 10
-272.7815
 20
-195.5
 11
-270.2815
 21
-195.5
  0
LINE
  8
0
  6
CONTINUOUS
 62
     7
 10
-272.7815
 20
-190.933
 11
-270.2815
 21
-190.933
  0
LINE
  8
0
  6
CONTINUOUS
 62
     7
 10
-272.7815
 20
-195.067
 11
-270.2815
 21
-195.067
  0
LINE
  8
0
  6
CONTINUOUS
 62
     7
 10
-270.2815
 20
-190.5
 11
-270.2815
 21
-195.5
  0
LINE
  8
0
  6
CENTER
 62
     2
 10
-275.6937
 20
-193.0
 11
-245.3714
 21
-193.0
  0
LINE
  8
0
  6
CONTINUOUS
 62
     7
 10
-268.7815
 20
-189.1
 11
-268.7815
 21
-196.9
  0
LINE
  8
0
  6
CONTINUOUS
 62
     7
 10
-269.0815
 20
-189.1
 11
-267.2815
 21
-189.1
  0
LINE
  8
0
  6
CONTINUOUS
 62
     7
 10
-269.0815
 20
-196.9
 11
-267.2815
 21
-196.9
  0
LINE
  8
0
  6
CONTINUOUS
 62
     7
 10
-269.0815
 20
-189.1
 11
-269.0815
 21
-196.9
  0
LINE
  8
0
  6
CENTER
 62
     2
 10
-27.10229
 20
92.55846
 11
8.30481
 21
92.55846
  0
LINE
  8
0
  6
CONTINUOUS
 62
     7
 10
-13.0324
 20
87.55846
 11
5.9676
 21
87.55846
  0
LINE
  8
0
  6
CONTINUOUS
 62
     7
 10
-13.0324
 20
102.5585
 11
5.9676
 21
102.5585
  0
LINE
  8
0
  6
CONTINUOUS
 62
     7
 10
5.9676
 20
102.5585
 11
5.9676
 21
87.55846
  0
LINE
  8
0
  6
CONTINUOUS
 62
     7
 10
-13.0324
 20
102.5585
 11
-13.0324
 21
87.55846
  0
LINE
  8
0
  6
CENTER
 62
     2
 10
2.9676
 20
101.0585
 11
2.9676
 21
96.05846
  0
LINE
  8
0
  6
CENTER
 62
     2
 10
-11.5324
 20
98.55846
 11
-6.5324
 21
98.55846
  0
LINE
  8
0
  6
CENTER
 62
     2
 10
0.4676
 20
98.55846
 11
5.4676
 21
98.55846
  0
LINE
  8
0
  6
CENTER
 62
     2
 10
-9.0324
 20
101.0585
 11
-9.0324
 21
96.05846
  0
LINE
  8
0
  6
CENTER
 62
     2
 10
-2.0324
 20
115.95
 11
-2.0324
 21
84.48478
  0
LINE
  8
0
  6
CONTINUOUS
 62
     7
 10
-7.0324
 20
104.0585
 11
2.9676
 21
104.0585
  0
LINE
  8
0
  6
CONTINUOUS
 62
     7
 10
-6.0324
 20
113.5585
 11
1.9676
 21
113.5585
  0
LINE
  8
0
  6
CONTINUOUS
 62
     7
 10
2.4676
 20
113.0585
 11
2.4676
 21
106.5585
  0
LINE
  8
0
  6
CONTINUOUS
 62
     7
 10
-6.5324
 20
113.0585
 11
-6.5324
 21
106.5585
  0
LINE
  8
0
  6
CONTINUOUS
 62
     7
 10
-6.5324
 20
113.0585
 11
2.4676
 21
113.0585
  0
LINE
  8
0
  6
CONTINUOUS
 62
     7
 10
-6.5324
 20
106.5585
 11
2.4676
 21
106.5585
  0
LINE
  8
0
  6
CONTINUOUS
 62
     7
 10
-6.53244
 20
113.0585
 11
-6.03244
 21
113.5585
  0
LINE
  8
0
  6
CONTINUOUS
 62
     7
 10
1.96757
 20
106.0585
 11
2.46757
 21
106.5585
  0
LINE
  8
0
  6
CONTINUOUS
 62
     7
 10
1.9676
 20
113.5585
 11
2.4676
 21
113.0585
  0
LINE
  8
0
  6
CONTINUOUS
 62
     7
 10
-6.53241
 20
106.5585
 11
-6.03242
 21
106.0585
  0
LINE
  8
0
  6
CONTINUOUS
 62
     7
 10
-6.53238
 20
113.0585
 11
-3.03238
 21
111.0377
  0
LINE
  8
0
  6
CONTINUOUS
 62
     7
 10
-6.53241
 20
112.4811
 11
-5.53242
 21
113.0585
  0
LINE
  8
0
  6
CONTINUOUS
 62
     7
 10
-6.53242
 20
111.9038
 11
-4.53242
 21
113.0585
  0
LINE
  8
0
  6
CONTINUOUS
 62
     7
 10
-6.53241
 20
111.3265
 11
-3.5324
 21
113.0585
  0
LINE
  8
0
  6
CONTINUOUS
 62
     7
 10
-6.5324
 20
110.7491
 11
-2.5324
 21
113.0585
  0
LINE
  8
0
  6
CONTINUOUS
 62
     7
 10
-6.53243
 20
110.1718
 11
-1.53243
 21
113.0585
  0
LINE
  8
0
  6
CONTINUOUS
 62
     7
 10
-6.53244
 20
109.5944
 11
-0.53243
 21
113.0585
  0
LINE
  8
0
  6
CONTINUOUS
 62
     7
 10
-6.53238
 20
112.4811
 11
-3.53239
 21
110.7491
  0
LINE
  8
0
  6
CONTINUOUS
 62
     7
 10
-6.53238
 20
111.9038
 11
-4.03238
 21
110.4604
  0
LINE
  8
0
  6
CONTINUOUS
 62
     7
 10
-6.53239
 20
111.3264
 11
-4.53237
 21
110.1717
  0
LINE
  8
0
  6
CONTINUOUS
 62
     7
 10
-6.53237
 20
110.7491
 11
-5.03238
 21
109.883
  0
LINE
  8
0
  6
CONTINUOUS
 62
     7
 10
-6.53238
 20
110.1717
 11
-5.53237
 21
109.5944
  0
LINE
  8
0
  6
CONTINUOUS
 62
     7
 10
-6.53238
 20
109.5944
 11
-6.03238
 21
109.3057
  0
LINE
  8
0
  6
CONTINUOUS
 62
     7
 10
-5.53239
 20
113.0585
 11
-2.53238
 21
111.3264
  0
LINE
  8
0
  6
CONTINUOUS
 62
     7
 10
-4.53237
 20
113.0585
 11
-2.03237
 21
111.6151
  0
LINE
  8
0
  6
CONTINUOUS
 62
     7
 10
-3.53239
 20
113.0585
 11
-1.53239
 21
111.9038
  0
LINE
  8
0
  6
CONTINUOUS
 62
     7
 10
-2.5324
 20
113.0585
 11
-1.03239
 21
112.1924
  0
LINE
  8
0
  6
CONTINUOUS
 62
     7
 10
-1.5324
 20
113.0585
 11
-0.53239
 21
112.4811
  0
LINE
  8
0
  6
CONTINUOUS
 62
     7
 10
2.9676
 20
104.0585
 11
2.9676
 21
102.5585
  0
LINE
  8
0
  6
CONTINUOUS
 62
     7
 10
-7.0324
 20
104.0585
 11
-7.0324
 21
102.5585
  0
LINE
  8
0
  6
CONTINUOUS
 62
     7
 10
-25.5324
 20
95.05846
 11
-25.5324
 21
90.05846
  0
LINE
  8
0
  6
CONTINUOUS
 62
     7
 10
-21.5324
 20
97.55846
 11
-21.5324
 21
87.55846
  0
LINE
  8
0
  6
CONTINUOUS
 62
     7
 10
-19.5324
 20
98.90932
 11
-14.0324
 21
98.90932
  0
LINE
  8
0
  6
CONTINUOUS
 62
     7
 10
-19.5324
 20
95.73389
 11
-14.0324
 21
95.73389
  0
LINE
  8
0
  6
CONTINUOUS
 62
     7
 10
-19.5324
 20
89.38303
 11
-14.0324
 21
89.38303
  0
LINE
  8
0
  6
CONTINUOUS
 62
     7
 10
-19.5324
 20
86.20761
 11
-14.0324
 21
86.20761
  0
LINE
  8
0
  6
CONTINUOUS
 62
     7
 10
-21.5324
 20
87.55846
 11
-20.0324
 21
87.55846
  0
LINE
  8
0
  6
CONTINUOUS
 62
     7
 10
-21.5324
 20
97.55846
 11
-20.0324
 21
97.55846
  0
LINE
  8
0
  6
CONTINUOUS
 62
     7
 10
-21.8324
 20
96.55846
 11
-21.8324
 21
88.55846
  0
LINE
  8
0
  6
CONTINUOUS
 62
     7
 10
-21.8324
 20
96.55846
 11
-21.5324
 21
96.55846
  0
LINE
  8
0
  6
CONTINUOUS
 62
     7
 10
-21.8324
 20
88.55846
 11
-21.5324
 21
88.55846
  0
LINE
  8
0
  6
CONTINUOUS
 62
     7
 10
-23.0324
 20
94.55846
 11
-21.8324
 21
94.55846
  0
LINE
  8
0
  6
CONTINUOUS
 62
     7
 10
-23.0324
 20
90.55846
 11
-21.8324
 21
90.55846
  0
LINE
  8
0
  6
CONTINUOUS
 62
     7
 10
-25.5324
 20
95.05846
 11
-23.0324
 21
95.05846
  0
LINE
  8
0
  6
CONTINUOUS
 62
     7
 10
-25.5324
 20
90.05846
 11
-23.0324
 21
90.05846
  0
LINE
  8
0
  6
CONTINUOUS
 62
     7
 10
-25.5324
 20
94.62547
 11
-23.0324
 21
94.62547
  0
LINE
  8
0
  6
CONTINUOUS
 62
     7
 10
-25.5324
 20
90.49146
 11
-23.0324
 21
90.49146
  0
LINE
  8
0
  6
CONTINUOUS
 62
     7
 10
-13.5324
 20
97.3216
 11
-13.5324
 21
87.55846
  0
LINE
  8
0
  6
CONTINUOUS
 62
     7
 10
-20.0324
 20
97.55846
 11
-20.0324
 21
87.55846
  0
LINE
  8
0
  6
CONTINUOUS
 62
     7
 10
-23.0324
 20
95.05846
 11
-23.0324
 21
90.05846
  0
LINE
  8
0
  6
CONTINUOUS
 62
     7
 10
-13.5324
 20
97.05846
 11
-13.0324
 21
97.05846
  0
LINE
  8
0
  6
CONTINUOUS
 62
     7
 10
-13.5324
 20
88.05846
 11
-13.0324
 21
88.05846
  0
LINE
  8
0
  6
CONTINUOUS
 62
     7
 10
-21.5324
 20
96.12918
 11
-20.0324
 21
96.12918
  0
LINE
  8
0
  6
CONTINUOUS
 62
     7
 10
-21.5324
 20
88.98775
 11
-20.0324
 21
88.98775
  0
LINE
  8
0
  6
CONTINUOUS
 62
     7
 10
-21.53234
 20
96.12916
 11
-20.03234
 21
88.98773
  0
LINE
  8
0
  6
CONTINUOUS
 62
     7
 10
-20.03229
 20
96.12916
 11
-21.53229
 21
88.98772
  0
LINE
  8
0
  6
CONTINUOUS
 62
     7
 10
-6.03242
 20
106.0585
 11
1.96754
 21
106.0585
  0
LINE
  8
0
  6
CONTINUOUS
 62
     7
 10
-0.0324
 20
106.0585
 11
-0.0324
 21
104.0585
  0
LINE
  8
0
  6
CONTINUOUS
 62
     7
 10
-4.0324
 20
106.0585
 11
-4.0324
 21
104.0585
  0
LINE
  8
0
  6
CONTINUOUS
 62
     7
 10
-0.4114
 20
106.0585
 11
-0.4114
 21
104.0585
  0
LINE
  8
0
  6
CONTINUOUS
 62
     7
 10
-3.6534
 20
106.0585
 11
-3.6534
 21
104.0585
  0
LINE
  8
0
  6
CONTINUOUS
 62
     7
 10
-13.0324
 20
166.5584
 11
5.9676
 21
166.5584
  0
LINE
  8
0
  6
CONTINUOUS
 62
     7
 10
-13.0324
 20
178.5584
 11
5.9676
 21
178.5584
  0
LINE
  8
0
  6
CONTINUOUS
 62
     7
 10
5.9676
 20
178.5584
 11
5.9676
 21
166.5584
  0
LINE
  8
0
  6
CONTINUOUS
 62
     7
 10
-13.0324
 20
166.5584
 11
-13.0324
 21
178.5584
  0
LINE
  8
0
  6
CENTER
 62
     2
 10
-2.0324
 20
180.0584
 11
-2.0324
 21
165.0584
  0
LINE
  8
0
  6
CONTINUOUS
 62
     7
 10
-1.5324
 20
174.4949
 11
-1.5324
 21
170.6219
  0
LINE
  8
0
  6
CONTINUOUS
 62
     7
 10
-2.5324
 20
174.4949
 11
-2.5324
 21
170.6219
  0
LINE
  8
0
  6
CONTINUOUS
 62
     7
 10
-25.5324
 20
175.1034
 11
-25.5324
 21
170.1034
  0
LINE
  8
0
  6
CONTINUOUS
 62
     7
 10
-21.5324
 20
176.6034
 11
-21.5324
 21
168.6034
  0
LINE
  8
0
  6
CONTINUOUS
 62
     7
 10
-19.5324
 20
178.9543
 11
-14.0324
 21
178.9543
  0
LINE
  8
0
  6
CONTINUOUS
 62
     7
 10
-19.5324
 20
166.2525
 11
-14.0324
 21
166.2525
  0
LINE
  8
0
  6
CONTINUOUS
 62
     7
 10
-21.8324
 20
176.6034
 11
-21.8324
 21
168.6034
  0
LINE
  8
0
  6
CONTINUOUS
 62
     7
 10
-21.8324
 20
176.6034
 11
-21.5324
 21
176.6034
  0
LINE
  8
0
  6
CONTINUOUS
 62
     7
 10
-21.8324
 20
168.6034
 11
-21.5324
 21
168.6034
  0
LINE
  8
0
  6
CONTINUOUS
 62
     7
 10
-23.0324
 20
174.6034
 11
-21.8324
 21
174.6034
  0
LINE
  8
0
  6
CONTINUOUS
 62
     7
 10
-23.0324
 20
170.6034
 11
-21.8324
 21
170.6034
  0
LINE
  8
0
  6
CONTINUOUS
 62
     7
 10
-25.5324
 20
175.1034
 11
-23.0324
 21
175.1034
  0
LINE
  8
0
  6
CONTINUOUS
 62
     7
 10
-25.5324
 20
170.1034
 11
-23.0324
 21
170.1034
  0
LINE
  8
0
  6
CONTINUOUS
 62
     7
 10
-25.5324
 20
174.6704
 11
-23.0324
 21
174.6704
  0
LINE
  8
0
  6
CONTINUOUS
 62
     7
 10
-25.5324
 20
170.5364
 11
-23.0324
 21
170.5364
  0
LINE
  8
0
  6
CONTINUOUS
 62
     7
 10
-13.5324
 20
175.7563
 11
-13.5324
 21
169.4055
  0
LINE
  8
0
  6
CONTINUOUS
 62
     7
 10
-20.0324
 20
175.7563
 11
-20.0324
 21
169.4055
  0
LINE
  8
0
  6
CONTINUOUS
 62
     7
 10
-23.0324
 20
175.1034
 11
-23.0324
 21
170.1034
  0
LINE
  8
0
  6
CONTINUOUS
 62
     7
 10
-13.5324
 20
177.1034
 11
-13.0324
 21
177.1034
  0
LINE
  8
0
  6
CONTINUOUS
 62
     7
 10
-13.5324
 20
168.1034
 11
-13.0324
 21
168.1034
  0
LINE
  8
0
  6
CONTINUOUS
 62
     7
 10
-21.5324
 20
176.1034
 11
-20.0324
 21
176.1034
  0
LINE
  8
0
  6
CONTINUOUS
 62
     7
 10
-21.5324
 20
169.1034
 11
-20.0324
 21
169.1034
  0
LINE
  8
0
  6
CONTINUOUS
 62
     7
 10
-19.5324
 20
172.5584
 11
-14.0324
 21
172.5584
  0
LINE
  8
0
  6
CENTER
 62
     2
 10
-27.98372
 20
172.5584
 11
8.87763
 21
172.5584
  0
LINE
  8
0
  6
CENTER
 62
     2
 10
-76.83241
 20
118.2251
 11
-76.83241
 21
84.31367
  0
LINE
  8
0
  6
CONTINUOUS
 62
     7
 10
-81.83241
 20
104.0584
 11
-71.83241
 21
104.0584
  0
LINE
  8
0
  6
CONTINUOUS
 62
     7
 10
-80.83241
 20
113.5584
 11
-72.83241
 21
113.5584
  0
LINE
  8
0
  6
CONTINUOUS
 62
     7
 10
-72.33241
 20
113.0584
 11
-72.33241
 21
106.5584
  0
LINE
  8
0
  6
CONTINUOUS
 62
     7
 10
-81.33241
 20
113.0584
 11
-81.33241
 21
106.5584
  0
LINE
  8
0
  6
CONTINUOUS
 62
     7
 10
-81.33241
 20
113.0584
 11
-72.33241
 21
113.0584
  0
LINE
  8
0
  6
CONTINUOUS
 62
     7
 10
-81.33241
 20
106.5584
 11
-72.33241
 21
106.5584
  0
LINE
  8
0
  6
CONTINUOUS
 62
     7
 10
-81.33243
 20
113.0585
 11
-80.83243
 21
113.5585
  0
LINE
  8
0
  6
CONTINUOUS
 62
     7
 10
-72.83242
 20
106.0585
 11
-72.33242
 21
106.5585
  0
LINE
  8
0
  6
CONTINUOUS
 62
     7
 10
-72.83244
 20
113.5584
 11
-72.33242
 21
113.0584
  0
LINE
  8
0
  6
CONTINUOUS
 62
     7
 10
-81.33241
 20
106.5584
 11
-80.83241
 21
106.0584
  0
LINE
  8
0
  6
CONTINUOUS
 62
     7
 10
-81.33243
 20
113.0585
 11
-77.83241
 21
111.0377
  0
LINE
  8
0
  6
CONTINUOUS
 62
     7
 10
-81.33242
 20
112.4811
 11
-80.33241
 21
113.0585
  0
LINE
  8
0
  6
CONTINUOUS
 62
     7
 10
-81.33241
 20
111.9038
 11
-79.33243
 21
113.0585
  0
LINE
  8
0
  6
CONTINUOUS
 62
     7
 10
-81.33242
 20
111.3264
 11
-78.33243
 21
113.0585
  0
LINE
  8
0
  6
CONTINUOUS
 62
     7
 10
-81.33242
 20
110.7491
 11
-77.33242
 21
113.0585
  0
LINE
  8
0
  6
CONTINUOUS
 62
     7
 10
-81.33241
 20
110.1717
 11
-76.33242
 21
113.0585
  0
LINE
  8
0
  6
CONTINUOUS
 62
     7
 10
-81.33242
 20
109.5944
 11
-75.33241
 21
113.0585
  0
LINE
  8
0
  6
CONTINUOUS
 62
     7
 10
-81.33241
 20
112.4811
 11
-78.33243
 21
110.7491
  0
LINE
  8
0
  6
CONTINUOUS
 62
     7
 10
-81.33241
 20
111.9038
 11
-78.83241
 21
110.4604
  0
LINE
  8
0
  6
CONTINUOUS
 62
     7
 10
-81.33242
 20
111.3264
 11
-79.33241
 21
110.1717
  0
LINE
  8
0
  6
CONTINUOUS
 62
     7
 10
-81.33241
 20
110.749
 11
-79.83243
 21
109.883
  0
LINE
  8
0
  6
CONTINUOUS
 62
     7
 10
-81.33241
 20
110.1717
 11
-80.33242
 21
109.5944
  0
LINE
  8
0
  6
CONTINUOUS
 62
     7
 10
-81.33242
 20
109.5944
 11
-80.83241
 21
109.3057
  0
LINE
  8
0
  6
CONTINUOUS
 62
     7
 10
-80.33242
 20
113.0585
 11
-77.33241
 21
111.3264
  0
LINE
  8
0
  6
CONTINUOUS
 62
     7
 10
-79.33242
 20
113.0585
 11
-76.83242
 21
111.6151
  0
LINE
  8
0
  6
CONTINUOUS
 62
     7
 10
-78.33242
 20
113.0585
 11
-76.33241
 21
111.9038
  0
LINE
  8
0
  6
CONTINUOUS
 62
     7
 10
-77.33241
 20
113.0585
 11
-75.83241
 21
112.1924
  0
LINE
  8
0
  6
CONTINUOUS
 62
     7
 10
-76.33241
 20
113.0585
 11
-75.33242
 21
112.4811
  0
LINE
  8
0
  6
CONTINUOUS
 62
     7
 10
-71.83241
 20
104.0584
 11
-71.83241
 21
102.5584
  0
LINE
  8
0
  6
CONTINUOUS
 62
     7
 10
-81.83241
 20
104.0584
 11
-81.83241
 21
102.5584
  0
LINE
  8
0
  6
CONTINUOUS
 62
     7
 10
-82.83241
 20
102.5584
 11
-82.83241
 21
87.55845
  0
LINE
  8
0
  6
CONTINUOUS
 62
     7
 10
-70.83241
 20
102.5584
 11
-70.83241
 21
87.55845
  0
LINE
  8
0
  6
CONTINUOUS
 62
     7
 10
-82.83241
 20
87.55845
 11
-79.17216
 21
87.55845
  0
LINE
  8
0
  6
CONTINUOUS
 62
     7
 10
-82.83241
 20
102.5584
 11
-70.83241
 21
102.5584
  0
LINE
  8
0
  6
CENTER
 62
     2
 10
-84.33241
 20
92.55845
 11
-69.33241
 21
92.55845
  0
LINE
  8
0
  6
CONTINUOUS
 62
     7
 10
-71.33241
 20
95.73388
 11
-71.33241
 21
89.38302
  0
LINE
  8
0
  6
CONTINUOUS
 62
     7
 10
-82.33241
 20
95.73388
 11
-82.33241
 21
89.38302
  0
LINE
  8
0
  6
CONTINUOUS
 62
     7
 10
-76.83241
 20
98.90929
 11
-71.33244
 21
95.73388
  0
LINE
  8
0
  6
CONTINUOUS
 62
     7
 10
-82.33241
 20
89.38301
 11
-76.83244
 21
86.2076
  0
LINE
  8
0
  6
CONTINUOUS
 62
     7
 10
-76.83244
 20
86.20762
 11
-71.33243
 21
89.38305
  0
LINE
  8
0
  6
CONTINUOUS
 62
     7
 10
-82.33244
 20
95.73391
 11
-76.83243
 21
98.90934
  0
LINE
  8
0
  6
CONTINUOUS
 62
     7
 10
-73.33241
 20
96.12917
 11
-73.33241
 21
88.98773
  0
LINE
  8
0
  6
CONTINUOUS
 62
     7
 10
-80.33241
 20
96.12917
 11
-80.33241
 21
88.98773
  0
LINE
  8
0
  6
CONTINUOUS
 62
     7
 10
-74.49266
 20
87.55845
 11
-70.83241
 21
87.55845
  0
LINE
  8
0
  6
CONTINUOUS
 62
     7
 10
-80.83241
 20
106.0584
 11
-72.83245
 21
106.0584
  0
LINE
  8
0
  6
CONTINUOUS
 62
     7
 10
-74.83241
 20
106.0584
 11
-74.83241
 21
104.0584
  0
LINE
  8
0
  6
CONTINUOUS
 62
     7
 10
-78.83241
 20
106.0584
 11
-78.83241
 21
104.0584
  0
LINE
  8
0
  6
CONTINUOUS
 62
     7
 10
-75.21141
 20
106.0584
 11
-75.21141
 21
104.0584
  0
LINE
  8
0
  6
CONTINUOUS
 62
     7
 10
-78.45341
 20
106.0584
 11
-78.45341
 21
104.0584
  0
LINE
  8
0
  6
CENTER
 62
     2
 10
68.1676
 20
118.2252
 11
68.1676
 21
84.31371
  0
LINE
  8
0
  6
CONTINUOUS
 62
     7
 10
63.1676
 20
104.0585
 11
73.1676
 21
104.0585
  0
LINE
  8
0
  6
CONTINUOUS
 62
     7
 10
64.1676
 20
113.5585
 11
72.1676
 21
113.5585
  0
LINE
  8
0
  6
CONTINUOUS
 62
     7
 10
72.6676
 20
113.0585
 11
72.6676
 21
106.5585
  0
LINE
  8
0
  6
CONTINUOUS
 62
     7
 10
63.6676
 20
113.0585
 11
63.6676
 21
106.5585
  0
LINE
  8
0
  6
CONTINUOUS
 62
     7
 10
63.6676
 20
113.0585
 11
72.6676
 21
113.0585
  0
LINE
  8
0
  6
CONTINUOUS
 62
     7
 10
63.6676
 20
106.5585
 11
72.6676
 21
106.5585
  0
LINE
  8
0
  6
CONTINUOUS
 62
     7
 10
63.66758
 20
113.0585
 11
64.16758
 21
113.5585
  0
LINE
  8
0
  6
CONTINUOUS
 62
     7
 10
72.16759
 20
106.0585
 11
72.66759
 21
106.5585
  0
LINE
  8
0
  6
CONTINUOUS
 62
     7
 10
72.16763
 20
113.5585
 11
72.66763
 21
113.0585
  0
LINE
  8
0
  6
CONTINUOUS
 62
     7
 10
63.66761
 20
106.5585
 11
64.16759
 21
106.0585
  0
LINE
  8
0
  6
CONTINUOUS
 62
     7
 10
63.66763
 20
113.0585
 11
67.16763
 21
111.0378
  0
LINE
  8
0
  6
CONTINUOUS
 62
     7
 10
63.6676
 20
112.4811
 11
64.66759
 21
113.0585
  0
LINE
  8
0
  6
CONTINUOUS
 62
     7
 10
63.66759
 20
111.9038
 11
65.66759
 21
113.0585
  0
LINE
  8
0
  6
CONTINUOUS
 62
     7
 10
63.6676
 20
111.3264
 11
66.6676
 21
113.0585
  0
LINE
  8
0
  6
CONTINUOUS
 62
     7
 10
63.6676
 20
110.7491
 11
67.6676
 21
113.0585
  0
LINE
  8
0
  6
CONTINUOUS
 62
     7
 10
63.6676
 20
110.1717
 11
68.6676
 21
113.0585
  0
LINE
  8
0
  6
CONTINUOUS
 62
     7
 10
63.6676
 20
109.5944
 11
69.6676
 21
113.0585
  0
LINE
  8
0
  6
CONTINUOUS
 62
     7
 10
63.66761
 20
112.4811
 11
66.66761
 21
110.7491
  0
LINE
  8
0
  6
CONTINUOUS
 62
     7
 10
63.66761
 20
111.9038
 11
66.16763
 21
110.4604
  0
LINE
  8
0
  6
CONTINUOUS
 62
     7
 10
63.66761
 20
111.3264
 11
65.66762
 21
110.1717
  0
LINE
  8
0
  6
CONTINUOUS
 62
     7
 10
63.66762
 20
110.7491
 11
65.16763
 21
109.883
  0
LINE
  8
0
  6
CONTINUOUS
 62
     7
 10
63.66761
 20
110.1717
 11
64.66762
 21
109.5944
  0
LINE
  8
0
  6
CONTINUOUS
 62
     7
 10
63.66762
 20
109.5944
 11
64.16761
 21
109.3057
  0
LINE
  8
0
  6
CONTINUOUS
 62
     7
 10
64.66762
 20
113.0585
 11
67.66762
 21
111.3264
  0
LINE
  8
0
  6
CONTINUOUS
 62
     7
 10
65.66761
 20
113.0585
 11
68.16761
 21
111.6151
  0
LINE
  8
0
  6
CONTINUOUS
 62
     7
 10
66.66763
 20
113.0585
 11
68.66763
 21
111.9038
  0
LINE
  8
0
  6
CONTINUOUS
 62
     7
 10
67.66761
 20
113.0585
 11
69.1676
 21
112.1925
  0
LINE
  8
0
  6
CONTINUOUS
 62
     7
 10
68.6676
 20
113.0585
 11
69.6676
 21
112.4811
  0
LINE
  8
0
  6
CONTINUOUS
 62
     7
 10
73.1676
 20
104.0585
 11
73.1676
 21
102.5585
  0
LINE
  8
0
  6
CONTINUOUS
 62
     7
 10
63.1676
 20
104.0585
 11
63.1676
 21
102.5585
  0
LINE
  8
0
  6
CONTINUOUS
 62
     7
 10
62.1676
 20
102.5585
 11
62.1676
 21
87.55848
  0
LINE
  8
0
  6
CONTINUOUS
 62
     7
 10
74.1676
 20
102.5585
 11
74.1676
 21
87.55848
  0
LINE
  8
0
  6
CONTINUOUS
 62
     7
 10
62.1676
 20
87.55848
 11
74.1676
 21
87.55848
  0
LINE
  8
0
  6
CONTINUOUS
 62
     7
 10
62.1676
 20
102.5585
 11
74.1676
 21
102.5585
  0
LINE
  8
0
  6
CENTER
 62
     2
 10
60.6676
 20
92.55848
 11
75.6676
 21
92.55848
  0
LINE
  8
0
  6
CONTINUOUS
 62
     7
 10
64.16759
 20
106.0585
 11
72.16756
 21
106.0585
  0
LINE
  8
0
  6
CONTINUOUS
 62
     7
 10
70.1676
 20
106.0585
 11
70.1676
 21
104.0585
  0
LINE
  8
0
  6
CONTINUOUS
 62
     7
 10
66.1676
 20
106.0585
 11
66.1676
 21
104.0585
  0
LINE
  8
0
  6
CONTINUOUS
 62
     7
 10
69.7886
 20
106.0585
 11
69.7886
 21
104.0585
  0
LINE
  8
0
  6
CONTINUOUS
 62
     7
 10
66.5466
 20
106.0585
 11
66.5466
 21
104.0585
  0
LINE
  8
0
  6
CONTINUOUS
 62
     7
 10
-13.03242
 20
23.55845
 11
5.96758
 21
23.55845
  0
LINE
  8
0
  6
CONTINUOUS
 62
     7
 10
-13.03242
 20
35.55845
 11
5.96758
 21
35.55845
  0
LINE
  8
0
  6
CONTINUOUS
 62
     7
 10
5.96758
 20
35.55845
 11
5.96758
 21
23.55845
  0
LINE
  8
0
  6
CONTINUOUS
 62
     7
 10
-13.03242
 20
23.55845
 11
-13.03242
 21
35.55845
  0
LINE
  8
0
  6
CONTINUOUS
 62
     7
 10
-25.53242
 20
32.1034
 11
-25.53242
 21
27.1034
  0
LINE
  8
0
  6
CONTINUOUS
 62
     7
 10
-21.53242
 20
33.6034
 11
-21.53242
 21
25.6034
  0
LINE
  8
0
  6
CONTINUOUS
 62
     7
 10
-19.53242
 20
35.95426
 11
-14.03242
 21
35.95426
  0
LINE
  8
0
  6
CONTINUOUS
 62
     7
 10
-19.53242
 20
23.25255
 11
-14.03242
 21
23.25255
  0
LINE
  8
0
  6
CONTINUOUS
 62
     7
 10
-21.83242
 20
33.6034
 11
-21.83242
 21
25.6034
  0
LINE
  8
0
  6
CONTINUOUS
 62
     7
 10
-21.83242
 20
33.6034
 11
-21.53242
 21
33.6034
  0
LINE
  8
0
  6
CONTINUOUS
 62
     7
 10
-21.83242
 20
25.6034
 11
-21.53242
 21
25.6034
  0
LINE
  8
0
  6
CONTINUOUS
 62
     7
 10
-23.03242
 20
31.6034
 11
-21.83242
 21
31.6034
  0
LINE
  8
0
  6
CONTINUOUS
 62
     7
 10
-23.03242
 20
27.6034
 11
-21.83242
 21
27.6034
  0
LINE
  8
0
  6
CONTINUOUS
 62
     7
 10
-25.53242
 20
32.1034
 11
-23.03242
 21
32.1034
  0
LINE
  8
0
  6
CONTINUOUS
 62
     7
 10
-25.53242
 20
27.1034
 11
-23.03242
 21
27.1034
  0
LINE
  8
0
  6
CONTINUOUS
 62
     7
 10
-25.53242
 20
31.6704
 11
-23.03242
 21
31.6704
  0
LINE
  8
0
  6
CONTINUOUS
 62
     7
 10
-25.53242
 20
27.5364
 11
-23.03242
 21
27.5364
  0
LINE
  8
0
  6
CONTINUOUS
 62
     7
 10
-13.53242
 20
32.75636
 11
-13.53242
 21
26.40549
  0
LINE
  8
0
  6
CONTINUOUS
 62
     7
 10
-20.03242
 20
32.75636
 11
-20.03242
 21
26.40549
  0
LINE
  8
0
  6
CONTINUOUS
 62
     7
 10
-23.03242
 20
32.1034
 11
-23.03242
 21
27.1034
  0
LINE
  8
0
  6
CONTINUOUS
 62
     7
 10
-13.53242
 20
34.1034
 11
-13.03242
 21
34.1034
  0
LINE
  8
0
  6
CONTINUOUS
 62
     7
 10
-13.53242
 20
25.1034
 11
-13.03242
 21
25.1034
  0
LINE
  8
0
  6
CONTINUOUS
 62
     7
 10
-21.53242
 20
33.1034
 11
-20.03242
 21
33.1034
  0
LINE
  8
0
  6
CONTINUOUS
 62
     7
 10
-21.53242
 20
26.1034
 11
-20.03242
 21
26.1034
  0
LINE
  8
0
  6
CONTINUOUS
 62
     7
 10
-19.53242
 20
29.55845
 11
-14.03242
 21
29.55845
  0
LINE
  8
0
  6
CENTER
 62
     2
 10
-27.98374
 20
29.55845
 11
8.87762
 21
29.55845
  0
LINE
  8
0
  6
CENTER
 62
     2
 10
-27.10229
 20
-130.0
 11
-7.23494
 21
-130.0
  0
LINE
  8
0
  6
CONTINUOUS
 62
     7
 10
-13.03241
 20
-135.0
 11
5.96759
 21
-135.0
  0
LINE
  8
0
  6
CONTINUOUS
 62
     7
 10
-13.03241
 20
-120.0
 11
5.96759
 21
-120.0
  0
LINE
  8
0
  6
CONTINUOUS
 62
     7
 10
5.96759
 20
-120.0
 11
5.96759
 21
-135.0
  0
LINE
  8
0
  6
CONTINUOUS
 62
     7
 10
-13.03241
 20
-120.0
 11
-13.03241
 21
-135.0
  0
LINE
  8
0
  6
CENTER
 62
     2
 10
2.96759
 20
-121.5
 11
2.96759
 21
-126.5
  0
LINE
  8
0
  6
CENTER
 62
     2
 10
-11.53241
 20
-124.0
 11
-6.53241
 21
-124.0
  0
LINE
  8
0
  6
CENTER
 62
     2
 10
0.46759
 20
-124.0
 11
5.46759
 21
-124.0
  0
LINE
  8
0
  6
CENTER
 62
     2
 10
-9.03241
 20
-121.5
 11
-9.03241
 21
-126.5
  0
LINE
  8
0
  6
CONTINUOUS
 62
     7
 10
-25.53241
 20
-127.5
 11
-25.53241
 21
-132.5
  0
LINE
  8
0
  6
CONTINUOUS
 62
     7
 10
-21.53241
 20
-125.0
 11
-21.53241
 21
-135.0
  0
LINE
  8
0
  6
CONTINUOUS
 62
     7
 10
-19.53241
 20
-123.6492
 11
-14.03241
 21
-123.6492
  0
LINE
  8
0
  6
CONTINUOUS
 62
     7
 10
-19.53241
 20
-126.8246
 11
-14.03241
 21
-126.8246
  0
LINE
  8
0
  6
CONTINUOUS
 62
     7
 10
-19.53241
 20
-133.1754
 11
-14.03241
 21
-133.1754
  0
LINE
  8
0
  6
CONTINUOUS
 62
     7
 10
-19.53241
 20
-136.3509
 11
-14.03241
 21
-136.3509
  0
LINE
  8
0
  6
CONTINUOUS
 62
     7
 10
-21.53241
 20
-135.0
 11
-20.03241
 21
-135.0
  0
LINE
  8
0
  6
CONTINUOUS
 62
     7
 10
-21.53241
 20
-125.0
 11
-20.03241
 21
-125.0
  0
LINE
  8
0
  6
CONTINUOUS
 62
     7
 10
-21.83241
 20
-126.0
 11
-21.83241
 21
-134.0
  0
LINE
  8
0
  6
CONTINUOUS
 62
     7
 10
-21.83241
 20
-126.0
 11
-21.53241
 21
-126.0
  0
LINE
  8
0
  6
CONTINUOUS
 62
     7
 10
-21.83241
 20
-134.0
 11
-21.53241
 21
-134.0
  0
LINE
  8
0
  6
CONTINUOUS
 62
     7
 10
-23.03241
 20
-128.0
 11
-21.83241
 21
-128.0
  0
LINE
  8
0
  6
CONTINUOUS
 62
     7
 10
-23.03241
 20
-132.0
 11
-21.83241
 21
-132.0
  0
LINE
  8
0
  6
CONTINUOUS
 62
     7
 10
-25.53241
 20
-127.5
 11
-23.03241
 21
-127.5
  0
LINE
  8
0
  6
CONTINUOUS
 62
     7
 10
-25.53241
 20
-132.5
 11
-23.03241
 21
-132.5
  0
LINE
  8
0
  6
CONTINUOUS
 62
     7
 10
-25.53241
 20
-127.933
 11
-23.03241
 21
-127.933
  0
LINE
  8
0
  6
CONTINUOUS
 62
     7
 10
-25.53241
 20
-132.067
 11
-23.03241
 21
-132.067
  0
LINE
  8
0
  6
CONTINUOUS
 62
     7
 10
-13.53241
 20
-125.2369
 11
-13.53241
 21
-135.0
  0
LINE
  8
0
  6
CONTINUOUS
 62
     7
 10
-20.03241
 20
-125.0
 11
-20.03241
 21
-135.0
  0
LINE
  8
0
  6
CONTINUOUS
 62
     7
 10
-23.03241
 20
-127.5
 11
-23.03241
 21
-132.5
  0
LINE
  8
0
  6
CONTINUOUS
 62
     7
 10
-13.53241
 20
-125.5
 11
-13.03241
 21
-125.5
  0
LINE
  8
0
  6
CONTINUOUS
 62
     7
 10
-13.53241
 20
-134.5
 11
-13.03241
 21
-134.5
  0
LINE
  8
0
  6
CONTINUOUS
 62
     7
 10
-21.53241
 20
-126.4293
 11
-20.03241
 21
-126.4293
  0
LINE
  8
0
  6
CONTINUOUS
 62
     7
 10
-21.53241
 20
-133.5707
 11
-20.03241
 21
-133.5707
  0
LINE
  8
0
  6
CONTINUOUS
 62
     7
 10
-21.5324
 20
-126.4293
 11
-20.0324
 21
-133.5707
  0
LINE
  8
0
  6
CONTINUOUS
 62
     7
 10
-20.03241
 20
-126.4293
 11
-21.5324
 21
-133.5707
  0
LINE
  8
0
  6
CONTINUOUS
 62
     7
 10
7.46759
 20
-120.0
 11
7.46759
 21
-130.0
  0
LINE
  8
0
  6
CONTINUOUS
 62
     7
 10
16.96759
 20
-121.0
 11
16.96759
 21
-129.0
  0
LINE
  8
0
  6
CONTINUOUS
 62
     7
 10
16.46759
 20
-129.5
 11
9.96759
 21
-129.5
  0
LINE
  8
0
  6
CONTINUOUS
 62
     7
 10
16.46759
 20
-120.5
 11
9.96759
 21
-120.5
  0
LINE
  8
0
  6
CONTINUOUS
 62
     7
 10
16.46759
 20
-120.5
 11
16.46759
 21
-129.5
  0
LINE
  8
0
  6
CONTINUOUS
 62
     7
 10
9.96759
 20
-120.5
 11
9.96759
 21
-129.5
  0
LINE
  8
0
  6
CONTINUOUS
 62
     7
 10
16.46761
 20
-120.5
 11
16.96761
 21
-121.0
  0
LINE
  8
0
  6
CONTINUOUS
 62
     7
 10
9.46759
 20
-129.0
 11
9.96759
 21
-129.5
  0
LINE
  8
0
  6
CONTINUOUS
 62
     7
 10
16.9676
 20
-129.0
 11
16.4676
 21
-129.5
  0
LINE
  8
0
  6
CONTINUOUS
 62
     7
 10
9.96759
 20
-120.5
 11
9.46759
 21
-121.0
  0
LINE
  8
0
  6
CONTINUOUS
 62
     7
 10
16.46759
 20
-120.5
 11
14.44686
 21
-124.0
  0
LINE
  8
0
  6
CONTINUOUS
 62
     7
 10
15.89025
 20
-120.5
 11
16.4676
 21
-121.5
  0
LINE
  8
0
  6
CONTINUOUS
 62
     7
 10
15.3129
 20
-120.5
 11
16.4676
 21
-122.5
  0
LINE
  8
0
  6
CONTINUOUS
 62
     7
 10
14.73555
 20
-120.5
 11
16.4676
 21
-123.5
  0
LINE
  8
0
  6
CONTINUOUS
 62
     7
 10
14.1582
 20
-120.5
 11
16.4676
 21
-124.5
  0
LINE
  8
0
  6
CONTINUOUS
 62
     7
 10
13.58084
 20
-120.5
 11
16.46759
 21
-125.5
  0
LINE
  8
0
  6
CONTINUOUS
 62
     7
 10
13.0035
 20
-120.5
 11
16.4676
 21
-126.5
  0
LINE
  8
0
  6
CONTINUOUS
 62
     7
 10
15.89024
 20
-120.5
 11
14.15819
 21
-123.5
  0
LINE
  8
0
  6
CONTINUOUS
 62
     7
 10
15.3129
 20
-120.5
 11
13.86953
 21
-123.0
  0
LINE
  8
0
  6
CONTINUOUS
 62
     7
 10
14.73555
 20
-120.5
 11
13.58085
 21
-122.5
  0
LINE
  8
0
  6
CONTINUOUS
 62
     7
 10
14.1582
 20
-120.5
 11
13.29217
 21
-122.0
  0
LINE
  8
0
  6
CONTINUOUS
 62
     7
 10
13.58084
 20
-120.5
 11
13.00349
 21
-121.5
  0
LINE
  8
0
  6
CONTINUOUS
 62
     7
 10
13.00349
 20
-120.5
 11
12.71481
 21
-121.0
  0
LINE
  8
0
  6
CONTINUOUS
 62
     7
 10
16.46761
 20
-121.5
 11
14.73556
 21
-124.5
  0
LINE
  8
0
  6
CONTINUOUS
 62
     7
 10
16.46759
 20
-122.5
 11
15.02421
 21
-125.0
  0
LINE
  8
0
  6
CONTINUOUS
 62
     7
 10
16.4676
 20
-123.5
 11
15.3129
 21
-125.5
  0
LINE
  8
0
  6
CONTINUOUS
 62
     7
 10
16.4676
 20
-124.5
 11
15.60158
 21
-126.0
  0
LINE
  8
0
  6
CONTINUOUS
 62
     7
 10
16.46759
 20
-125.5
 11
15.89024
 21
-126.5
  0
LINE
  8
0
  6
CONTINUOUS
 62
     7
 10
7.46759
 20
-130.0
 11
5.96759
 21
-130.0
  0
LINE
  8
0
  6
CONTINUOUS
 62
     7
 10
7.46759
 20
-120.0
 11
5.96759
 21
-120.0
  0
LINE
  8
0
  6
CENTER
 62
     2
 10
5.16506
 20
-125.0
 11
18.86506
 21
-125.0
  0
LINE
  8
0
  6
CONTINUOUS
 62
     7
 10
9.46759
 20
-121.0
 11
9.46759
 21
-129.0
  0
LINE
  8
0
  6
CONTINUOUS
 62
     7
 10
7.46759
 20
-123.0
 11
9.46759
 21
-123.0
  0
LINE
  8
0
  6
CONTINUOUS
 62
     7
 10
7.46759
 20
-127.0
 11
9.46759
 21
-127.0
  0
LINE
  8
0
  6
CONTINUOUS
 62
     7
 10
7.46759
 20
-126.621
 11
9.46759
 21
-126.621
  0
LINE
  8
0
  6
CONTINUOUS
 62
     7
 10
7.46759
 20
-123.379
 11
9.46759
 21
-123.379
  0
LINE
  8
0
  6
CONTINUOUS
 62
     7
 10
7.4676
 20
-45.00003
 11
7.4676
 21
-55.00003
  0
LINE
  8
0
  6
CONTINUOUS
 62
     7
 10
16.9676
 20
-46.00003
 11
16.9676
 21
-54.00003
  0
LINE
  8
0
  6
CONTINUOUS
 62
     7
 10
16.4676
 20
-54.50003
 11
9.9676
 21
-54.50003
  0
LINE
  8
0
  6
CONTINUOUS
 62
     7
 10
16.4676
 20
-45.50003
 11
9.9676
 21
-45.50003
  0
LINE
  8
0
  6
CONTINUOUS
 62
     7
 10
16.4676
 20
-45.50003
 11
16.4676
 21
-54.50003
  0
LINE
  8
0
  6
CONTINUOUS
 62
     7
 10
9.9676
 20
-45.50003
 11
9.9676
 21
-54.50003
  0
LINE
  8
0
  6
CONTINUOUS
 62
     7
 10
16.46761
 20
-45.50002
 11
16.96761
 21
-46.00002
  0
LINE
  8
0
  6
CONTINUOUS
 62
     7
 10
9.4676
 20
-54.00004
 11
9.9676
 21
-54.50005
  0
LINE
  8
0
  6
CONTINUOUS
 62
     7
 10
16.96761
 20
-54.00004
 11
16.46761
 21
-54.50004
  0
LINE
  8
0
  6
CONTINUOUS
 62
     7
 10
9.96759
 20
-45.50003
 11
9.46759
 21
-46.00003
  0
LINE
  8
0
  6
CONTINUOUS
 62
     7
 10
16.4676
 20
-45.50004
 11
14.44687
 21
-49.00004
  0
LINE
  8
0
  6
CONTINUOUS
 62
     7
 10
15.89025
 20
-45.50004
 11
16.4676
 21
-46.50003
  0
LINE
  8
0
  6
CONTINUOUS
 62
     7
 10
15.31291
 20
-45.50003
 11
16.46761
 21
-47.50003
  0
LINE
  8
0
  6
CONTINUOUS
 62
     7
 10
14.73557
 20
-45.50003
 11
16.46762
 21
-48.50003
  0
LINE
  8
0
  6
CONTINUOUS
 62
     7
 10
14.1582
 20
-45.50003
 11
16.46761
 21
-49.50003
  0
LINE
  8
0
  6
CONTINUOUS
 62
     7
 10
13.58086
 20
-45.50004
 11
16.46761
 21
-50.50003
  0
LINE
  8
0
  6
CONTINUOUS
 62
     7
 10
13.00352
 20
-45.50005
 11
16.46761
 21
-51.50003
  0
LINE
  8
0
  6
CONTINUOUS
 62
     7
 10
15.89024
 20
-45.50003
 11
14.15819
 21
-48.50002
  0
LINE
  8
0
  6
CONTINUOUS
 62
     7
 10
15.3129
 20
-45.50004
 11
13.86952
 21
-48.00004
  0
LINE
  8
0
  6
CONTINUOUS
 62
     7
 10
14.73554
 20
-45.50003
 11
13.58084
 21
-47.50003
  0
LINE
  8
0
  6
CONTINUOUS
 62
     7
 10
14.15819
 20
-45.50003
 11
13.29217
 21
-47.00003
  0
LINE
  8
0
  6
CONTINUOUS
 62
     7
 10
13.58085
 20
-45.50004
 11
13.0035
 21
-46.50004
  0
LINE
  8
0
  6
CONTINUOUS
 62
     7
 10
13.0035
 20
-45.50004
 11
12.71482
 21
-46.00004
  0
LINE
  8
0
  6
CONTINUOUS
 62
     7
 10
16.46761
 20
-46.50003
 11
14.73555
 21
-49.50003
  0
LINE
  8
0
  6
CONTINUOUS
 62
     7
 10
16.4676
 20
-47.50003
 11
15.02422
 21
-50.00003
  0
LINE
  8
0
  6
CONTINUOUS
 62
     7
 10
16.46759
 20
-48.50003
 11
15.31289
 21
-50.50004
  0
LINE
  8
0
  6
CONTINUOUS
 62
     7
 10
16.4676
 20
-49.50003
 11
15.60157
 21
-51.00003
  0
LINE
  8
0
  6
CONTINUOUS
 62
     7
 10
16.46759
 20
-50.50003
 11
15.89024
 21
-51.50003
  0
LINE
  8
0
  6
CONTINUOUS
 62
     7
 10
7.4676
 20
-55.00003
 11
5.9676
 21
-55.00003
  0
LINE
  8
0
  6
CONTINUOUS
 62
     7
 10
7.4676
 20
-45.00003
 11
5.9676
 21
-45.00003
  0
LINE
  8
0
  6
CONTINUOUS
 62
     7
 10
-13.0324
 20
-56.00003
 11
5.9676
 21
-56.00003
  0
LINE
  8
0
  6
CONTINUOUS
 62
     7
 10
-13.0324
 20
-44.00003
 11
5.9676
 21
-44.00003
  0
LINE
  8
0
  6
CONTINUOUS
 62
     7
 10
5.9676
 20
-44.00003
 11
5.9676
 21
-56.00003
  0
LINE
  8
0
  6
CONTINUOUS
 62
     7
 10
-13.0324
 20
-56.00003
 11
-13.0324
 21
-44.00003
  0
LINE
  8
0
  6
CONTINUOUS
 62
     7
 10
-25.5324
 20
-47.50003
 11
-25.5324
 21
-52.50003
  0
LINE
  8
0
  6
CONTINUOUS
 62
     7
 10
-21.5324
 20
-46.00003
 11
-21.5324
 21
-54.00003
  0
LINE
  8
0
  6
CONTINUOUS
 62
     7
 10
-19.5324
 20
-43.64918
 11
-14.0324
 21
-43.64918
  0
LINE
  8
0
  6
CONTINUOUS
 62
     7
 10
-19.5324
 20
-56.35089
 11
-14.0324
 21
-56.35089
  0
LINE
  8
0
  6
CONTINUOUS
 62
     7
 10
-21.83241
 20
-46.00003
 11
-21.83241
 21
-54.00003
  0
LINE
  8
0
  6
CONTINUOUS
 62
     7
 10
-21.83241
 20
-46.00003
 11
-21.5324
 21
-46.00003
  0
LINE
  8
0
  6
CONTINUOUS
 62
     7
 10
-21.83241
 20
-54.00003
 11
-21.5324
 21
-54.00003
  0
LINE
  8
0
  6
CONTINUOUS
 62
     7
 10
-23.0324
 20
-48.00003
 11
-21.83241
 21
-48.00003
  0
LINE
  8
0
  6
CONTINUOUS
 62
     7
 10
-23.0324
 20
-52.00003
 11
-21.83241
 21
-52.00003
  0
LINE
  8
0
  6
CONTINUOUS
 62
     7
 10
-25.5324
 20
-47.50003
 11
-23.0324
 21
-47.50003
  0
LINE
  8
0
  6
CONTINUOUS
 62
     7
 10
-25.5324
 20
-52.50003
 11
-23.0324
 21
-52.50003
  0
LINE
  8
0
  6
CONTINUOUS
 62
     7
 10
-25.5324
 20
-47.93304
 11
-23.0324
 21
-47.93304
  0
LINE
  8
0
  6
CONTINUOUS
 62
     7
 10
-25.5324
 20
-52.06703
 11
-23.0324
 21
-52.06703
  0
LINE
  8
0
  6
CONTINUOUS
 62
     7
 10
-13.5324
 20
-46.84709
 11
-13.5324
 21
-53.19793
  0
LINE
  8
0
  6
CONTINUOUS
 62
     7
 10
-20.0324
 20
-46.84709
 11
-20.0324
 21
-53.19793
  0
LINE
  8
0
  6
CONTINUOUS
 62
     7
 10
-23.0324
 20
-47.50003
 11
-23.0324
 21
-52.50003
  0
LINE
  8
0
  6
CONTINUOUS
 62
     7
 10
-13.5324
 20
-45.50003
 11
-13.0324
 21
-45.50003
  0
LINE
  8
0
  6
CONTINUOUS
 62
     7
 10
-13.5324
 20
-54.50003
 11
-13.0324
 21
-54.50003
  0
LINE
  8
0
  6
CONTINUOUS
 62
     7
 10
-21.5324
 20
-46.50003
 11
-20.0324
 21
-46.50003
  0
LINE
  8
0
  6
CONTINUOUS
 62
     7
 10
-21.5324
 20
-53.50003
 11
-20.0324
 21
-53.50003
  0
LINE
  8
0
  6
CONTINUOUS
 62
     7
 10
-19.5324
 20
-50.04498
 11
-14.0324
 21
-50.04498
  0
LINE
  8
0
  6
CENTER
 62
     2
 10
-28.63494
 20
-50.00003
 11
18.86507
 21
-50.00003
  0
LINE
  8
0
  6
CONTINUOUS
 62
     7
 10
9.4676
 20
-46.00002
 11
9.4676
 21
-54.00004
  0
LINE
  8
0
  6
CONTINUOUS
 62
     7
 10
7.4676
 20
-48.00003
 11
9.4676
 21
-48.00003
  0
LINE
  8
0
  6
CONTINUOUS
 62
     7
 10
7.4676
 20
-52.00003
 11
9.4676
 21
-52.00003
  0
LINE
  8
0
  6
CONTINUOUS
 62
     7
 10
7.4676
 20
-48.37903
 11
9.4676
 21
-48.37903
  0
LINE
  8
0
  6
CONTINUOUS
 62
     7
 10
7.4676
 20
-51.62103
 11
9.4676
 21
-51.62103
  0
LINE
  8
0
  6
CENTER
 62
     2
 10
-76.83241
 20
-118.5738
 11
-76.83241
 21
-138.2448
  0
LINE
  8
0
  6
CONTINUOUS
 62
     7
 10
-82.83241
 20
-120.0
 11
-82.83241
 21
-135.0
  0
LINE
  8
0
  6
CONTINUOUS
 62
     7
 10
-70.83241
 20
-120.0
 11
-70.83241
 21
-135.0
  0
LINE
  8
0
  6
CONTINUOUS
 62
     7
 10
-82.83241
 20
-135.0
 11
-79.17215
 21
-135.0
  0
LINE
  8
0
  6
CONTINUOUS
 62
     7
 10
-82.83241
 20
-120.0
 11
-70.83241
 21
-120.0
  0
LINE
  8
0
  6
CENTER
 62
     2
 10
-84.33241
 20
-130.0
 11
-69.33241
 21
-130.0
  0
LINE
  8
0
  6
CONTINUOUS
 62
     7
 10
-71.33241
 20
-126.8246
 11
-71.33241
 21
-133.1754
  0
LINE
  8
0
  6
CONTINUOUS
 62
     7
 10
-82.33241
 20
-126.8246
 11
-82.33241
 21
-133.1754
  0
LINE
  8
0
  6
CONTINUOUS
 62
     7
 10
-76.8324
 20
-123.6492
 11
-71.33239
 21
-126.8246
  0
LINE
  8
0
  6
CONTINUOUS
 62
     7
 10
-82.33241
 20
-133.1755
 11
-76.83241
 21
-136.3509
  0
LINE
  8
0
  6
CONTINUOUS
 62
     7
 10
-76.83241
 20
-136.3509
 11
-71.33242
 21
-133.1754
  0
LINE
  8
0
  6
CONTINUOUS
 62
     7
 10
-82.33242
 20
-126.8246
 11
-76.83241
 21
-123.6492
  0
LINE
  8
0
  6
CONTINUOUS
 62
     7
 10
-73.33241
 20
-126.4293
 11
-73.33241
 21
-133.5707
  0
LINE
  8
0
  6
CONTINUOUS
 62
     7
 10
-80.33241
 20
-126.4293
 11
-80.33241
 21
-133.5707
  0
LINE
  8
0
  6
CONTINUOUS
 62
     7
 10
-74.49266
 20
-135.0
 11
-70.83241
 21
-135.0
  0
LINE
  8
0
  6
CENTER
 62
     2
 10
68.16759
 20
-117.7395
 11
68.16759
 21
-138.2448
  0
LINE
  8
0
  6
CONTINUOUS
 62
     7
 10
62.16759
 20
-120.0
 11
62.16759
 21
-135.0
  0
LINE
  8
0
  6
CONTINUOUS
 62
     7
 10
74.16759
 20
-120.0
 11
74.16759
 21
-135.0
  0
LINE
  8
0
  6
CONTINUOUS
 62
     7
 10
62.16759
 20
-120.0
 11
74.16759
 21
-120.0
  0
LINE
  8
0
  6
CENTER
 62
     2
 10
60.66759
 20
-125.0
 11
75.66759
 21
-125.0
  0
LINE
  8
0
  6
CONTINUOUS
 62
     7
 10
66.2311
 20
-124.5
 11
70.10409
 21
-124.5
  0
LINE
  8
0
  6
CONTINUOUS
 62
     7
 10
66.2311
 20
-125.5
 11
70.10409
 21
-125.5
  0
LINE
  8
0
  6
CONTINUOUS
 62
     7
 10
62.16759
 20
-135.0
 11
74.16759
 21
-135.0
  0
LINE
  8
0
  6
CONTINUOUS
 62
     7
 10
7.4676
 20
-188.0
 11
7.4676
 21
-198.0
  0
LINE
  8
0
  6
CONTINUOUS
 62
     7
 10
16.9676
 20
-189.0
 11
16.9676
 21
-197.0
  0
LINE
  8
0
  6
CONTINUOUS
 62
     7
 10
16.4676
 20
-197.5
 11
9.9676
 21
-197.5
  0
LINE
  8
0
  6
CONTINUOUS
 62
     7
 10
16.4676
 20
-188.5
 11
9.9676
 21
-188.5
  0
LINE
  8
0
  6
CONTINUOUS
 62
     7
 10
16.4676
 20
-188.5
 11
16.4676
 21
-197.5
  0
LINE
  8
0
  6
CONTINUOUS
 62
     7
 10
9.9676
 20
-188.5
 11
9.9676
 21
-197.5
  0
LINE
  8
0
  6
CONTINUOUS
 62
     7
 10
16.4676
 20
-188.5
 11
16.9676
 21
-189.0
  0
LINE
  8
0
  6
CONTINUOUS
 62
     7
 10
9.46758
 20
-197.0
 11
9.96758
 21
-197.5
  0
LINE
  8
0
  6
CONTINUOUS
 62
     7
 10
16.9676
 20
-197.0001
 11
16.4676
 21
-197.5001
  0
LINE
  8
0
  6
CONTINUOUS
 62
     7
 10
9.9676
 20
-188.5001
 11
9.4676
 21
-189.0001
  0
LINE
  8
0
  6
CONTINUOUS
 62
     7
 10
16.46761
 20
-188.5
 11
14.44688
 21
-192.0
  0
LINE
  8
0
  6
CONTINUOUS
 62
     7
 10
15.89027
 20
-188.5
 11
16.46761
 21
-189.5
  0
LINE
  8
0
  6
CONTINUOUS
 62
     7
 10
15.3129
 20
-188.5
 11
16.4676
 21
-190.5
  0
LINE
  8
0
  6
CONTINUOUS
 62
     7
 10
14.73556
 20
-188.5
 11
16.46762
 21
-191.5
  0
LINE
  8
0
  6
CONTINUOUS
 62
     7
 10
14.15821
 20
-188.5
 11
16.46762
 21
-192.5
  0
LINE
  8
0
  6
CONTINUOUS
 62
     7
 10
13.58085
 20
-188.5
 11
16.46759
 21
-193.5
  0
LINE
  8
0
  6
CONTINUOUS
 62
     7
 10
13.00351
 20
-188.5
 11
16.46761
 21
-194.5
  0
LINE
  8
0
  6
CONTINUOUS
 62
     7
 10
15.89026
 20
-188.5
 11
14.15821
 21
-191.5
  0
LINE
  8
0
  6
CONTINUOUS
 62
     7
 10
15.31291
 20
-188.5001
 11
13.86953
 21
-191.0001
  0
LINE
  8
0
  6
CONTINUOUS
 62
     7
 10
14.73555
 20
-188.5
 11
13.58085
 21
-190.5
  0
LINE
  8
0
  6
CONTINUOUS
 62
     7
 10
14.15821
 20
-188.5
 11
13.29219
 21
-190.0
  0
LINE
  8
0
  6
CONTINUOUS
 62
     7
 10
13.58085
 20
-188.5001
 11
13.00351
 21
-189.5
  0
LINE
  8
0
  6
CONTINUOUS
 62
     7
 10
13.00351
 20
-188.5
 11
12.71483
 21
-189.0
  0
LINE
  8
0
  6
CONTINUOUS
 62
     7
 10
16.46761
 20
-189.5
 11
14.73556
 21
-192.5
  0
LINE
  8
0
  6
CONTINUOUS
 62
     7
 10
16.4676
 20
-190.5
 11
15.02423
 21
-193.0
  0
LINE
  8
0
  6
CONTINUOUS
 62
     7
 10
16.4676
 20
-191.5
 11
15.3129
 21
-193.5
  0
LINE
  8
0
  6
CONTINUOUS
 62
     7
 10
16.46762
 20
-192.5
 11
15.60159
 21
-194.0
  0
LINE
  8
0
  6
CONTINUOUS
 62
     7
 10
16.46761
 20
-193.5
 11
15.89025
 21
-194.5
  0
LINE
  8
0
  6
CONTINUOUS
 62
     7
 10
7.4676
 20
-198.0
 11
5.9676
 21
-198.0
  0
LINE
  8
0
  6
CONTINUOUS
 62
     7
 10
7.4676
 20
-188.0
 11
5.9676
 21
-188.0
  0
LINE
  8
0
  6
CONTINUOUS
 62
     7
 10
-13.0324
 20
-199.0
 11
5.9676
 21
-199.0
  0
LINE
  8
0
  6
CONTINUOUS
 62
     7
 10
-13.0324
 20
-187.0
 11
5.9676
 21
-187.0
  0
LINE
  8
0
  6
CONTINUOUS
 62
     7
 10
5.9676
 20
-187.0
 11
5.9676
 21
-199.0
  0
LINE
  8
0
  6
CONTINUOUS
 62
     7
 10
-13.0324
 20
-199.0
 11
-13.0324
 21
-187.0
  0
LINE
  8
0
  6
CONTINUOUS
 62
     7
 10
-25.5324
 20
-190.5
 11
-25.5324
 21
-195.5
  0
LINE
  8
0
  6
CONTINUOUS
 62
     7
 10
-21.5324
 20
-189.0
 11
-21.5324
 21
-197.0
  0
LINE
  8
0
  6
CONTINUOUS
 62
     7
 10
-19.5324
 20
-186.6492
 11
-14.0324
 21
-186.6492
  0
LINE
  8
0
  6
CONTINUOUS
 62
     7
 10
-19.5324
 20
-199.3509
 11
-14.0324
 21
-199.3509
  0
LINE
  8
0
  6
CONTINUOUS
 62
     7
 10
-21.83241
 20
-189.0
 11
-21.83241
 21
-197.0
  0
LINE
  8
0
  6
CONTINUOUS
 62
     7
 10
-21.83241
 20
-189.0
 11
-21.5324
 21
-189.0
  0
LINE
  8
0
  6
CONTINUOUS
 62
     7
 10
-21.83241
 20
-197.0
 11
-21.5324
 21
-197.0
  0
LINE
  8
0
  6
CONTINUOUS
 62
     7
 10
-23.0324
 20
-191.0
 11
-21.83241
 21
-191.0
  0
LINE
  8
0
  6
CONTINUOUS
 62
     7
 10
-23.0324
 20
-195.0
 11
-21.83241
 21
-195.0
  0
LINE
  8
0
  6
CONTINUOUS
 62
     7
 10
-25.5324
 20
-190.5
 11
-23.0324
 21
-190.5
  0
LINE
  8
0
  6
CONTINUOUS
 62
     7
 10
-25.5324
 20
-195.5
 11
-23.0324
 21
-195.5
  0
LINE
  8
0
  6
CONTINUOUS
 62
     7
 10
-25.5324
 20
-190.933
 11
-23.0324
 21
-190.933
  0
LINE
  8
0
  6
CONTINUOUS
 62
     7
 10
-25.5324
 20
-195.067
 11
-23.0324
 21
-195.067
  0
LINE
  8
0
  6
CONTINUOUS
 62
     7
 10
-13.5324
 20
-189.8471
 11
-13.5324
 21
-196.1979
  0
LINE
  8
0
  6
CONTINUOUS
 62
     7
 10
-20.0324
 20
-189.8471
 11
-20.0324
 21
-196.1979
  0
LINE
  8
0
  6
CONTINUOUS
 62
     7
 10
-23.0324
 20
-190.5
 11
-23.0324
 21
-195.5
  0
LINE
  8
0
  6
CONTINUOUS
 62
     7
 10
-13.61936
 20
-188.5
 11
-13.0324
 21
-188.5
  0
LINE
  8
0
  6
CONTINUOUS
 62
     7
 10
-13.61593
 20
-197.5
 11
-13.0324
 21
-197.5
  0
LINE
  8
0
  6
CONTINUOUS
 62
     7
 10
-21.5324
 20
-189.5
 11
-20.0324
 21
-189.5
  0
LINE
  8
0
  6
CONTINUOUS
 62
     7
 10
-21.5324
 20
-196.5
 11
-20.0324
 21
-196.5
  0
LINE
  8
0
  6
CONTINUOUS
 62
     7
 10
-19.5324
 20
-193.045
 11
-14.0324
 21
-193.045
  0
LINE
  8
0
  6
CENTER
 62
     2
 10
-27.63494
 20
-193.0
 11
19.36507
 21
-193.0
  0
LINE
  8
0
  6
CENTER
 62
     2
 10
0.4676
 20
-188.0
 11
0.4676
 21
-198.0
  0
LINE
  8
0
  6
CONTINUOUS
 62
     7
 10
9.4676
 20
-189.0
 11
9.4676
 21
-197.0
  0
LINE
  8
0
  6
CONTINUOUS
 62
     7
 10
7.4676
 20
-191.0
 11
9.4676
 21
-191.0
  0
LINE
  8
0
  6
CONTINUOUS
 62
     7
 10
7.4676
 20
-195.0
 11
9.4676
 21
-195.0
  0
LINE
  8
0
  6
CONTINUOUS
 62
     7
 10
7.4676
 20
-191.379
 11
9.4676
 21
-191.379
  0
LINE
  8
0
  6
CONTINUOUS
 62
     7
 10
7.4676
 20
-194.621
 11
9.4676
 21
-194.621
  0
LINE
  8
0
  6
CENTER
 62
     2
 10
221.6733
 20
103.0585
 11
260.4733
 21
103.0585
  0
LINE
  8
0
  6
CONTINUOUS
 62
     7
 10
257.4167
 20
111.5585
 11
257.4167
 21
85.55849
  0
LINE
  8
0
  6
CONTINUOUS
 62
     7
 10
225.4167
 20
111.5585
 11
225.4167
 21
85.55849
  0
LINE
  8
0
  6
CONTINUOUS
 62
     7
 10
225.4167
 20
111.5585
 11
257.4167
 21
111.5585
  0
LINE
  8
0
  6
CONTINUOUS
 62
     7
 10
225.4167
 20
85.55849
 11
257.4167
 21
85.55849
  0
LINE
  8
0
  6
CENTER
 62
     2
 10
251.4167
 20
106.5585
 11
251.4167
 21
99.55849
  0
LINE
  8
0
  6
CENTER
 62
     2
 10
233.4167
 20
106.5585
 11
233.4167
 21
99.55849
  0
LINE
  8
0
  6
CONTINUOUS
 62
     7
 10
240.0865
 20
114.0585
 11
248.7468
 21
114.0585
  0
LINE
  8
0
  6
CONTINUOUS
 62
     7
 10
238.6432
 20
113.5585
 11
238.6432
 21
111.5585
  0
LINE
  8
0
  6
CONTINUOUS
 62
     7
 10
241.5299
 20
113.5585
 11
241.5299
 21
111.5585
  0
LINE
  8
0
  6
CONTINUOUS
 62
     7
 10
247.3034
 20
113.5585
 11
247.3034
 21
111.5585
  0
LINE
  8
0
  6
CONTINUOUS
 62
     7
 10
250.1902
 20
113.5585
 11
250.1902
 21
111.5585
  0
LINE
  8
0
  6
CONTINUOUS
 62
     7
 10
241.4167
 20
118.5585
 11
247.4167
 21
118.5585
  0
LINE
  8
0
  6
CONTINUOUS
 62
     7
 10
240.4167
 20
128.0585
 11
243.9167
 21
128.0585
  0
LINE
  8
0
  6
CONTINUOUS
 62
     7
 10
248.4167
 20
128.0585
 11
248.4167
 21
120.0585
  0
LINE
  8
0
  6
CONTINUOUS
 62
     7
 10
240.4167
 20
128.0585
 11
240.4167
 21
120.0585
  0
LINE
  8
0
  6
CONTINUOUS
 62
     7
 10
240.4167
 20
120.0585
 11
248.4167
 21
120.0585
  0
LINE
  8
0
  6
CONTINUOUS
 62
     7
 10
243.9167
 20
126.5585
 11
244.9167
 21
126.5585
  0
LINE
  8
0
  6
CONTINUOUS
 62
     7
 10
244.9167
 20
128.0585
 11
244.9167
 21
126.5585
  0
LINE
  8
0
  6
CONTINUOUS
 62
     7
 10
243.9167
 20
128.0585
 11
243.9167
 21
126.5585
  0
LINE
  8
0
  6
CONTINUOUS
 62
     7
 10
244.9167
 20
128.0585
 11
248.4167
 21
128.0585
  0
LINE
  8
0
  6
CONTINUOUS
 62
     7
 10
247.4167
 20
120.0585
 11
247.4167
 21
114.0585
  0
LINE
  8
0
  6
CONTINUOUS
 62
     7
 10
241.4167
 20
120.0585
 11
241.4167
 21
114.0585
  0
LINE
  8
0
  6
CONTINUOUS
 62
     7
 10
246.8752
 20
118.5585
 11
246.8752
 21
114.0585
  0
LINE
  8
0
  6
CONTINUOUS
 62
     7
 10
241.9582
 20
118.5585
 11
241.9582
 21
114.0585
  0
LINE
  8
0
  6
CENTER
 62
     2
 10
244.4167
 20
130.3181
 11
244.4167
 21
81.32192
  0
LINE
  8
0
  6
CENTER
 62
     2
 10
244.4167
 20
181.1887
 11
244.4167
 21
163.0181
  0
LINE
  8
0
  6
CENTER
 62
     2
 10
222.2066
 20
172.5585
 11
260.0733
 21
172.5585
  0
LINE
  8
0
  6
CONTINUOUS
 62
     7
 10
244.9167
 20
176.5271
 11
244.9167
 21
168.5899
  0
LINE
  8
0
  6
CONTINUOUS
 62
     7
 10
243.9167
 20
176.5271
 11
243.9167
 21
168.5899
  0
LINE
  8
0
  6
CONTINUOUS
 62
     7
 10
238.6432
 20
172.5585
 11
241.53
 21
177.5585
  0
LINE
  8
0
  6
CONTINUOUS
 62
     7
 10
241.53
 20
167.5585
 11
238.6432
 21
172.5585
  0
LINE
  8
0
  6
CONTINUOUS
 62
     7
 10
241.53
 20
167.5585
 11
247.3035
 21
167.5585
  0
LINE
  8
0
  6
CONTINUOUS
 62
     7
 10
247.3035
 20
167.5585
 11
250.1902
 21
172.5585
  0
LINE
  8
0
  6
CONTINUOUS
 62
     7
 10
250.1902
 20
172.5585
 11
247.3035
 21
177.5585
  0
LINE
  8
0
  6
CONTINUOUS
 62
     7
 10
241.53
 20
177.5585
 11
247.3035
 21
177.5585
  0
LINE
  8
0
  6
CONTINUOUS
 62
     7
 10
225.4167
 20
179.0585
 11
257.4167
 21
179.0585
  0
LINE
  8
0
  6
CONTINUOUS
 62
     7
 10
225.4167
 20
166.0585
 11
257.4167
 21
166.0585
  0
LINE
  8
0
  6
CONTINUOUS
 62
     7
 10
257.4167
 20
179.0585
 11
257.4167
 21
166.0585
  0
LINE
  8
0
  6
CONTINUOUS
 62
     7
 10
225.4167
 20
179.0585
 11
225.4167
 21
166.0585
  0
LINE
  8
0
  6
CONTINUOUS
 62
     7
 10
174.4166
 20
128.0585
 11
174.4166
 21
120.0585
  0
LINE
  8
0
  6
CONTINUOUS
 62
     7
 10
166.4166
 20
128.0585
 11
166.4166
 21
120.0585
  0
LINE
  8
0
  6
CONTINUOUS
 62
     7
 10
166.4166
 20
120.0585
 11
174.4166
 21
120.0585
  0
LINE
  8
0
  6
CONTINUOUS
 62
     7
 10
166.4166
 20
128.0585
 11
174.4166
 21
128.0585
  0
LINE
  8
0
  6
CONTINUOUS
 62
     7
 10
173.4166
 20
120.0585
 11
173.4166
 21
114.0585
  0
LINE
  8
0
  6
CONTINUOUS
 62
     7
 10
167.4166
 20
120.0585
 11
167.4166
 21
114.0585
  0
LINE
  8
0
  6
CONTINUOUS
 62
     7
 10
172.8751
 20
118.5585
 11
172.8751
 21
114.0585
  0
LINE
  8
0
  6
CONTINUOUS
 62
     7
 10
167.9581
 20
118.5585
 11
167.9581
 21
114.0585
  0
LINE
  8
0
  6
CONTINUOUS
 62
     7
 10
167.4166
 20
118.5585
 11
173.4166
 21
118.5585
  0
LINE
  8
0
  6
CONTINUOUS
 62
     7
 10
163.9166
 20
111.5585
 11
163.9166
 21
85.5585
  0
LINE
  8
0
  6
CONTINUOUS
 62
     7
 10
176.9166
 20
111.5585
 11
176.9166
 21
85.5585
  0
LINE
  8
0
  6
CONTINUOUS
 62
     7
 10
163.9166
 20
111.5585
 11
176.9166
 21
111.5585
  0
LINE
  8
0
  6
CONTINUOUS
 62
     7
 10
163.9166
 20
85.5585
 11
176.9166
 21
85.5585
  0
LINE
  8
0
  6
CENTER
 62
     2
 10
170.4166
 20
130.4514
 11
170.4166
 21
81.03727
  0
LINE
  8
0
  6
CONTINUOUS
 62
     7
 10
167.9166
 20
114.0585
 11
172.9166
 21
114.0585
  0
LINE
  8
0
  6
CONTINUOUS
 62
     7
 10
165.4166
 20
113.5585
 11
165.4166
 21
111.5585
  0
LINE
  8
0
  6
CONTINUOUS
 62
     7
 10
170.4166
 20
113.5585
 11
170.4166
 21
111.5585
  0
LINE
  8
0
  6
CONTINUOUS
 62
     7
 10
175.4166
 20
113.5585
 11
175.4166
 21
111.5585
  0
LINE
  8
0
  6
CENTER
 62
     2
 10
162.4166
 20
92.5585
 11
178.4166
 21
92.5585
  0
LINE
  8
0
  6
CONTINUOUS
 62
     7
 10
319.4168
 20
128.0584
 11
319.4168
 21
120.0584
  0
LINE
  8
0
  6
CONTINUOUS
 62
     7
 10
311.4168
 20
128.0584
 11
311.4168
 21
120.0584
  0
LINE
  8
0
  6
CONTINUOUS
 62
     7
 10
311.4168
 20
120.0584
 11
319.4168
 21
120.0584
  0
LINE
  8
0
  6
CONTINUOUS
 62
     7
 10
311.4168
 20
128.0584
 11
319.4168
 21
128.0584
  0
LINE
  8
0
  6
CONTINUOUS
 62
     7
 10
318.4168
 20
120.0584
 11
318.4168
 21
114.0585
  0
LINE
  8
0
  6
CONTINUOUS
 62
     7
 10
312.4168
 20
120.0584
 11
312.4168
 21
114.0585
  0
LINE
  8
0
  6
CONTINUOUS
 62
     7
 10
317.8753
 20
118.5584
 11
317.8753
 21
114.0585
  0
LINE
  8
0
  6
CONTINUOUS
 62
     7
 10
312.9583
 20
118.5584
 11
312.9583
 21
114.0585
  0
LINE
  8
0
  6
CONTINUOUS
 62
     7
 10
312.4168
 20
118.5584
 11
318.4168
 21
118.5584
  0
LINE
  8
0
  6
CONTINUOUS
 62
     7
 10
308.9168
 20
111.5585
 11
308.9168
 21
85.55846
  0
LINE
  8
0
  6
CONTINUOUS
 62
     7
 10
321.9168
 20
111.5585
 11
321.9168
 21
85.55846
  0
LINE
  8
0
  6
CONTINUOUS
 62
     7
 10
308.9168
 20
111.5585
 11
321.9168
 21
111.5585
  0
LINE
  8
0
  6
CONTINUOUS
 62
     7
 10
308.9168
 20
85.55846
 11
321.9168
 21
85.55846
  0
LINE
  8
0
  6
CENTER
 62
     2
 10
315.4168
 20
130.4514
 11
315.4168
 21
81.03722
  0
LINE
  8
0
  6
CONTINUOUS
 62
     7
 10
312.9168
 20
114.0585
 11
317.9168
 21
114.0585
  0
LINE
  8
0
  6
CONTINUOUS
 62
     7
 10
310.4168
 20
113.5585
 11
310.4168
 21
111.5585
  0
LINE
  8
0
  6
CONTINUOUS
 62
     7
 10
315.4168
 20
113.5585
 11
315.4168
 21
111.5585
  0
LINE
  8
0
  6
CONTINUOUS
 62
     7
 10
320.4168
 20
113.5585
 11
320.4168
 21
111.5585
  0
LINE
  8
0
  6
CENTER
 62
     2
 10
307.4168
 20
92.55846
 11
323.4168
 21
92.55846
  0
LINE
  8
0
  6
CONTINUOUS
 62
     7
 10
225.4167
 20
36.0585
 11
257.4167
 21
36.0585
  0
LINE
  8
0
  6
CONTINUOUS
 62
     7
 10
225.4167
 20
23.0585
 11
257.4167
 21
23.0585
  0
LINE
  8
0
  6
CONTINUOUS
 62
     7
 10
257.4167
 20
36.0585
 11
257.4167
 21
23.0585
  0
LINE
  8
0
  6
CONTINUOUS
 62
     7
 10
225.4167
 20
36.0585
 11
225.4167
 21
23.0585
  0
LINE
  8
0
  6
CENTER
 62
     2
 10
221.25
 20
29.5585
 11
261.5833
 21
29.5585
  0
LINE
  8
0
  6
CONTINUOUS
 62
     7
 10
225.4167
 20
-114.0
 11
225.4167
 21
-146.0
  0
LINE
  8
0
  6
CONTINUOUS
 62
     7
 10
265.4167
 20
-114.0
 11
265.4167
 21
-146.0
  0
LINE
  8
0
  6
CONTINUOUS
 62
     7
 10
225.4167
 20
-114.0
 11
265.4167
 21
-114.0
  0
LINE
  8
0
  6
CONTINUOUS
 62
     7
 10
225.4167
 20
-146.0
 11
265.4167
 21
-146.0
  0
LINE
  8
0
  6
CENTER
 62
     2
 10
228.4167
 20
-120.0
 11
236.4167
 21
-120.0
  0
LINE
  8
0
  6
CENTER
 62
     2
 10
253.8167
 20
-120.0
 11
261.8167
 21
-120.0
  0
LINE
  8
0
  6
CENTER
 62
     2
 10
232.4167
 20
-116.0
 11
232.4167
 21
-124.0
  0
LINE
  8
0
  6
CENTER
 62
     2
 10
257.8167
 20
-116.0
 11
257.8167
 21
-124.0
  0
LINE
  8
0
  6
CONTINUOUS
 62
     7
 10
237.0865
 20
-111.5
 11
245.7468
 21
-111.5
  0
LINE
  8
0
  6
CONTINUOUS
 62
     7
 10
235.6432
 20
-112.0
 11
235.6432
 21
-114.0
  0
LINE
  8
0
  6
CONTINUOUS
 62
     7
 10
238.5299
 20
-112.0
 11
238.5299
 21
-114.0
  0
LINE
  8
0
  6
CONTINUOUS
 62
     7
 10
244.3034
 20
-112.0
 11
244.3034
 21
-114.0
  0
LINE
  8
0
  6
CONTINUOUS
 62
     7
 10
247.1902
 20
-112.0
 11
247.1902
 21
-114.0
  0
LINE
  8
0
  6
CONTINUOUS
 62
     7
 10
238.4167
 20
-107.5
 11
244.4167
 21
-107.5
  0
LINE
  8
0
  6
CONTINUOUS
 62
     7
 10
237.4167
 20
-98.0
 11
240.9167
 21
-98.0
  0
LINE
  8
0
  6
CONTINUOUS
 62
     7
 10
245.4167
 20
-98.0
 11
245.4167
 21
-106.0
  0
LINE
  8
0
  6
CONTINUOUS
 62
     7
 10
237.4167
 20
-98.0
 11
237.4167
 21
-106.0
  0
LINE
  8
0
  6
CONTINUOUS
 62
     7
 10
237.4167
 20
-106.0
 11
245.4167
 21
-106.0
  0
LINE
  8
0
  6
CONTINUOUS
 62
     7
 10
240.9167
 20
-99.5
 11
241.9167
 21
-99.5
  0
LINE
  8
0
  6
CONTINUOUS
 62
     7
 10
241.9167
 20
-98.0
 11
241.9167
 21
-99.5
  0
LINE
  8
0
  6
CONTINUOUS
 62
     7
 10
240.9167
 20
-98.0
 11
240.9167
 21
-99.5
  0
LINE
  8
0
  6
CONTINUOUS
 62
     7
 10
241.9167
 20
-98.0
 11
245.4167
 21
-98.0
  0
LINE
  8
0
  6
CONTINUOUS
 62
     7
 10
244.4167
 20
-106.0
 11
244.4167
 21
-111.5
  0
LINE
  8
0
  6
CONTINUOUS
 62
     7
 10
238.4167
 20
-106.0
 11
238.4167
 21
-111.5
  0
LINE
  8
0
  6
CONTINUOUS
 62
     7
 10
243.8752
 20
-107.5
 11
243.8752
 21
-111.5
  0
LINE
  8
0
  6
CONTINUOUS
 62
     7
 10
238.9582
 20
-107.5
 11
238.9582
 21
-111.5
  0
LINE
  8
0
  6
CENTER
 62
     2
 10
241.4167
 20
-94.95796
 11
241.4167
 21
-152.058
  0
LINE
  8
0
  6
CENTER
 62
     2
 10
241.4167
 20
-40.0
 11
241.4167
 21
-61.2913
  0
LINE
  8
0
  6
CONTINUOUS
 62
     7
 10
225.4167
 20
-58.0
 11
265.4167
 21
-58.0
  0
LINE
  8
0
  6
CONTINUOUS
 62
     7
 10
225.4167
 20
-42.0
 11
265.4167
 21
-42.0
  0
LINE
  8
0
  6
CONTINUOUS
 62
     7
 10
225.4167
 20
-58.0
 11
225.4167
 21
-42.0
  0
LINE
  8
0
  6
CONTINUOUS
 62
     7
 10
265.4167
 20
-42.0
 11
265.4167
 21
-58.0
  0
LINE
  8
0
  6
CONTINUOUS
 62
     7
 10
241.9167
 20
-46.03137
 11
241.9167
 21
-53.96863
  0
LINE
  8
0
  6
CONTINUOUS
 62
     7
 10
240.9167
 20
-46.03137
 11
240.9167
 21
-53.96863
  0
LINE
  8
0
  6
CONTINUOUS
 62
     7
 10
235.6432
 20
-50.0
 11
238.5299
 21
-45.0
  0
LINE
  8
0
  6
CONTINUOUS
 62
     7
 10
238.5299
 20
-55.00001
 11
235.6432
 21
-50.0
  0
LINE
  8
0
  6
CONTINUOUS
 62
     7
 10
238.5299
 20
-55.0
 11
244.3034
 21
-55.0
  0
LINE
  8
0
  6
CONTINUOUS
 62
     7
 10
244.3034
 20
-55.0
 11
247.1902
 21
-50.0
  0
LINE
  8
0
  6
CONTINUOUS
 62
     7
 10
247.1902
 20
-50.0
 11
244.3035
 21
-44.99999
  0
LINE
  8
0
  6
CONTINUOUS
 62
     7
 10
238.5299
 20
-45.0
 11
244.3034
 21
-45.0
  0
LINE
  8
0
  6
CENTER
 62
     2
 10
220.5409
 20
-50.0
 11
268.6825
 21
-50.0
  0
LINE
  8
0
  6
CONTINUOUS
 62
     7
 10
178.4167
 20
-114.0
 11
178.4167
 21
-146.0
  0
LINE
  8
0
  6
CONTINUOUS
 62
     7
 10
162.4167
 20
-114.0
 11
162.4167
 21
-146.0
  0
LINE
  8
0
  6
CONTINUOUS
 62
     7
 10
178.4167
 20
-114.0
 11
162.4167
 21
-114.0
  0
LINE
  8
0
  6
CONTINUOUS
 62
     7
 10
178.4167
 20
-146.0
 11
162.4167
 21
-146.0
  0
LINE
  8
0
  6
CENTER
 62
     2
 10
170.4167
 20
-96.0
 11
170.4167
 21
-149.0664
  0
LINE
  8
0
  6
CONTINUOUS
 62
     7
 10
166.4167
 20
-98.0
 11
166.4167
 21
-106.0
  0
LINE
  8
0
  6
CONTINUOUS
 62
     7
 10
174.4167
 20
-98.0
 11
174.4167
 21
-106.0
  0
LINE
  8
0
  6
CONTINUOUS
 62
     7
 10
174.4167
 20
-106.0
 11
166.4167
 21
-106.0
  0
LINE
  8
0
  6
CONTINUOUS
 62
     7
 10
174.4167
 20
-98.0
 11
166.4167
 21
-98.0
  0
LINE
  8
0
  6
CONTINUOUS
 62
     7
 10
167.4167
 20
-106.0
 11
167.4167
 21
-111.5193
  0
LINE
  8
0
  6
CONTINUOUS
 62
     7
 10
173.4167
 20
-106.0
 11
173.4167
 21
-111.5193
  0
LINE
  8
0
  6
CONTINUOUS
 62
     7
 10
167.9582
 20
-107.5
 11
167.9582
 21
-111.5001
  0
LINE
  8
0
  6
CONTINUOUS
 62
     7
 10
172.8752
 20
-107.5
 11
172.8752
 21
-111.5001
  0
LINE
  8
0
  6
CONTINUOUS
 62
     7
 10
173.4167
 20
-107.5
 11
167.4167
 21
-107.5
  0
LINE
  8
0
  6
CONTINUOUS
 62
     7
 10
172.9167
 20
-111.5
 11
167.9167
 21
-111.5
  0
LINE
  8
0
  6
CONTINUOUS
 62
     7
 10
175.4167
 20
-112.0
 11
175.4167
 21
-114.0
  0
LINE
  8
0
  6
CONTINUOUS
 62
     7
 10
170.4167
 20
-112.5
 11
170.4167
 21
-114.5
  0
LINE
  8
0
  6
CONTINUOUS
 62
     7
 10
165.4167
 20
-112.0
 11
165.4167
 21
-114.0
  0
LINE
  8
0
  6
CENTER
 62
     2
 10
160.4167
 20
-130.0
 11
180.4167
 21
-130.0
  0
LINE
  8
0
  6
CONTINUOUS
 62
     7
 10
307.4167
 20
-114.0
 11
307.4167
 21
-146.0
  0
LINE
  8
0
  6
CONTINUOUS
 62
     7
 10
323.4167
 20
-114.0
 11
323.4167
 21
-146.0
  0
LINE
  8
0
  6
CONTINUOUS
 62
     7
 10
307.4167
 20
-114.0
 11
323.4167
 21
-114.0
  0
LINE
  8
0
  6
CONTINUOUS
 62
     7
 10
307.4167
 20
-146.0
 11
323.4167
 21
-146.0
  0
LINE
  8
0
  6
CENTER
 62
     2
 10
315.4167
 20
-96.00002
 11
315.4167
 21
-149.0664
  0
LINE
  8
0
  6
CONTINUOUS
 62
     7
 10
319.4167
 20
-98.00002
 11
319.4167
 21
-106.0
  0
LINE
  8
0
  6
CONTINUOUS
 62
     7
 10
311.4167
 20
-98.00002
 11
311.4167
 21
-106.0
  0
LINE
  8
0
  6
CONTINUOUS
 62
     7
 10
311.4167
 20
-106.0
 11
319.4167
 21
-106.0
  0
LINE
  8
0
  6
CONTINUOUS
 62
     7
 10
311.4167
 20
-98.00002
 11
319.4167
 21
-98.00002
  0
LINE
  8
0
  6
CONTINUOUS
 62
     7
 10
318.4167
 20
-106.0
 11
318.4167
 21
-111.5193
  0
LINE
  8
0
  6
CONTINUOUS
 62
     7
 10
312.4167
 20
-106.0
 11
312.4167
 21
-111.5193
  0
LINE
  8
0
  6
CONTINUOUS
 62
     7
 10
317.8752
 20
-107.5
 11
317.8752
 21
-111.5001
  0
LINE
  8
0
  6
CONTINUOUS
 62
     7
 10
312.9582
 20
-107.5
 11
312.9582
 21
-111.5001
  0
LINE
  8
0
  6
CONTINUOUS
 62
     7
 10
312.4167
 20
-107.5
 11
318.4167
 21
-107.5
  0
LINE
  8
0
  6
CONTINUOUS
 62
     7
 10
312.9167
 20
-111.5
 11
317.9167
 21
-111.5
  0
LINE
  8
0
  6
CONTINUOUS
 62
     7
 10
310.4167
 20
-112.0
 11
310.4167
 21
-114.0
  0
LINE
  8
0
  6
CONTINUOUS
 62
     7
 10
315.4167
 20
-112.5
 11
315.4167
 21
-114.5
  0
LINE
  8
0
  6
CONTINUOUS
 62
     7
 10
320.4167
 20
-112.0
 11
320.4167
 21
-114.0
  0
LINE
  8
0
  6
CENTER
 62
     2
 10
305.4167
 20
-130.0
 11
325.4167
 21
-130.0
  0
LINE
  8
0
  6
CONTINUOUS
 62
     7
 10
225.4167
 20
-185.0
 11
265.4167
 21
-185.0
  0
LINE
  8
0
  6
CONTINUOUS
 62
     7
 10
225.4167
 20
-201.0
 11
265.4167
 21
-201.0
  0
LINE
  8
0
  6
CONTINUOUS
 62
     7
 10
225.4167
 20
-201.0
 11
225.4167
 21
-185.0
  0
LINE
  8
0
  6
CONTINUOUS
 62
     7
 10
265.4167
 20
-201.0
 11
265.4167
 21
-185.0
  0
LINE
  8
0
  6
CONTINUOUS
 62
     7
 10
240.0925
 20
-199.8736
 11
243.7067
 21
-186.3852
  0
LINE
  8
0
  6
CONTINUOUS
 62
     7
 10
239.1266
 20
-199.6148
 11
242.7408
 21
-186.1264
  0
LINE
  8
0
  6
CENTER
 62
     2
 10
221.2421
 20
-193.0
 11
268.5755
 21
-193.0
  0
LINE
  8
0
  6
CENTER
 62
     2
 10
241.4167
 20
-182.0
 11
241.4167
 21
-204.0
  0
ARC
  8
0
  6
CONTINUOUS
 62
     7
 10
273.0354
 20
-235.0457
 40
2.21188
 50
0.0
 51
89.99999
  0
ARC
  8
0
  6
CONTINUOUS
 62
     7
 10
291.2836
 20
-246.9346
 40
2.2119
 50
270.0
 51
0.0
  0
ARC
  8
0
  6
CONTINUOUS
 62
     7
 10
290.1776
 20
-236.1516
 40
3.31784
 50
0.0
 51
89.99999
  0
ARC
  8
0
  6
CONTINUOUS
 62
     7
 10
310.3611
 20
-236.8128
 40
2.21189
 50
295.0
 51
0.0
  0
ARC
  8
0
  6
CONTINUOUS
 62
     7
 10
310.3611
 20
-235.0457
 40
2.21188
 50
0.0
 51
89.99999
  0
ARC
  8
0
  6
CONTINUOUS
 62
     7
 10
327.5034
 20
-232.8338
 40
3.31784
 50
291.6884
 51
0.0
  0
ARC
  8
0
  6
CONTINUOUS
 62
     7
 10
326.3973
 20
-232.0834
 40
1.10595
 50
291.689
 51
0.0
  0
CIRCLE
  8
0
  6
CONTINUOUS
 62
     7
 10
-261.0815
 20
98.55846
 40
1.6
  0
CIRCLE
  8
0
  6
CONTINUOUS
 62
     7
 10
-249.0815
 20
98.55846
 40
1.6
  0
CIRCLE
  8
0
  6
CONTINUOUS
 62
     7
 10
-254.0814
 20
172.5585
 40
2.0
  0
CIRCLE
  8
0
  6
CONTINUOUS
 62
     7
 10
-254.0814
 20
172.5585
 40
3.0
  0
CIRCLE
  8
0
  6
CONTINUOUS
 62
     7
 10
-254.0814
 20
172.5585
 40
4.0
  0
CIRCLE
  8
0
  6
CONTINUOUS
 62
     7
 10
-254.0814
 20
172.5585
 40
4.5
  0
CIRCLE
  8
0
  6
CONTINUOUS
 62
     7
 10
-324.0815
 20
92.55843
 40
2.5
  0
CIRCLE
  8
0
  6
CONTINUOUS
 62
     7
 10
-324.0815
 20
92.55843
 40
2.067
  0
CIRCLE
  8
0
  6
CONTINUOUS
 62
     7
 10
-324.0815
 20
92.55843
 40
4.5
  0
CIRCLE
  8
0
  6
CONTINUOUS
 62
     7
 10
-179.0815
 20
92.55843
 40
2.5
  0
CIRCLE
  8
0
  6
CONTINUOUS
 62
     7
 10
-179.0815
 20
92.55843
 40
2.067
  0
CIRCLE
  8
0
  6
CONTINUOUS
 62
     7
 10
-263.2814
 20
-124.0
 40
1.6
  0
CIRCLE
  8
0
  6
CONTINUOUS
 62
     7
 10
-251.2814
 20
-124.0
 40
1.6
  0
CIRCLE
  8
0
  6
CONTINUOUS
 62
     7
 10
-256.2814
 20
-50.00002
 40
2.0
  0
CIRCLE
  8
0
  6
CONTINUOUS
 62
     7
 10
-256.2814
 20
-50.00002
 40
3.0
  0
CIRCLE
  8
0
  6
CONTINUOUS
 62
     7
 10
-256.2814
 20
-50.00002
 40
4.0
  0
CIRCLE
  8
0
  6
CONTINUOUS
 62
     7
 10
-256.2814
 20
-50.00002
 40
4.5
  0
CIRCLE
  8
0
  6
CONTINUOUS
 62
     7
 10
-324.0814
 20
-130.0
 40
1.0
  0
CIRCLE
  8
0
  6
CONTINUOUS
 62
     7
 10
-324.0814
 20
-130.0
 40
2.5
  0
CIRCLE
  8
0
  6
CONTINUOUS
 62
     7
 10
-324.0814
 20
-130.0
 40
2.067
  0
CIRCLE
  8
0
  6
CONTINUOUS
 62
     7
 10
-324.0814
 20
-130.0
 40
3.9
  0
CIRCLE
  8
0
  6
CONTINUOUS
 62
     7
 10
-179.0815
 20
-130.0
 40
2.5
  0
CIRCLE
  8
0
  6
CONTINUOUS
 62
     7
 10
-179.0815
 20
-130.0
 40
2.067
  0
CIRCLE
  8
0
  6
CONTINUOUS
 62
     7
 10
-9.0324
 20
98.55846
 40
1.6
  0
CIRCLE
  8
0
  6
CONTINUOUS
 62
     7
 10
2.9676
 20
98.55846
 40
1.6
  0
ARC
  8
0
  6
CONTINUOUS
 62
     7
 10
-16.30323
 20
87.79533
 40
2.77083
 50
325.0396
 51
34.96037
  0
ARC
  8
0
  6
CONTINUOUS
 62
     7
 10
-17.26157
 20
97.3216
 40
2.77083
 50
145.0396
 51
214.9604
  0
ARC
  8
0
  6
CONTINUOUS
 62
     7
 10
-9.69907
 20
92.55846
 40
10.33333
 50
162.1035
 51
197.8965
  0
ARC
  8
0
  6
CONTINUOUS
 62
     7
 10
-17.26157
 20
87.79533
 40
2.77083
 50
145.0396
 51
214.9604
  0
ARC
  8
0
  6
CONTINUOUS
 62
     7
 10
-16.30323
 20
97.3216
 40
2.77083
 50
325.0396
 51
34.96037
  0
ARC
  8
0
  6
CONTINUOUS
 62
     7
 10
-23.86573
 20
92.55846
 40
10.33333
 50
342.1034
 51
17.89653
  0
CIRCLE
  8
0
  6
CONTINUOUS
 62
     7
 10
-2.0324
 20
172.5584
 40
2.0
  0
CIRCLE
  8
0
  6
CONTINUOUS
 62
     7
 10
-2.0324
 20
172.5584
 40
3.0
  0
CIRCLE
  8
0
  6
CONTINUOUS
 62
     7
 10
-2.0324
 20
172.5584
 40
4.0
  0
CIRCLE
  8
0
  6
CONTINUOUS
 62
     7
 10
-2.0324
 20
172.5584
 40
4.5
  0
ARC
  8
0
  6
CONTINUOUS
 62
     7
 10
-9.55582
 20
175.7563
 40
10.47658
 50
162.2272
 51
197.7727
  0
ARC
  8
0
  6
CONTINUOUS
 62
     7
 10
-9.8413
 20
169.4055
 40
10.1911
 50
161.9779
 51
198.022
  0
ARC
  8
0
  6
CONTINUOUS
 62
     7
 10
-24.00898
 20
175.7563
 40
10.47658
 50
342.2272
 51
17.77271
  0
ARC
  8
0
  6
CONTINUOUS
 62
     7
 10
-23.7235
 20
169.4055
 40
10.1911
 50
341.9779
 51
18.02198
  0
CIRCLE
  8
0
  6
CONTINUOUS
 62
     7
 10
-76.83241
 20
92.55845
 40
5.5
  0
CIRCLE
  8
0
  6
CONTINUOUS
 62
     7
 10
-76.83241
 20
92.55845
 40
4.0
  0
CIRCLE
  8
0
  6
CONTINUOUS
 62
     7
 10
-76.83241
 20
92.55845
 40
5.0
  0
CIRCLE
  8
0
  6
CONTINUOUS
 62
     7
 10
-76.83241
 20
92.55845
 40
1.0
  0
CIRCLE
  8
0
  6
CONTINUOUS
 62
     7
 10
-76.83241
 20
92.55845
 40
2.5
  0
CIRCLE
  8
0
  6
CONTINUOUS
 62
     7
 10
-76.83241
 20
92.55845
 40
2.067
  0
CIRCLE
  8
0
  6
CONTINUOUS
 62
     7
 10
68.1676
 20
92.55848
 40
2.5
  0
CIRCLE
  8
0
  6
CONTINUOUS
 62
     7
 10
68.1676
 20
92.55848
 40
2.067
  0
ARC
  8
0
  6
CONTINUOUS
 62
     7
 10
-9.55584
 20
32.75636
 40
10.47658
 50
162.2272
 51
197.7727
  0
ARC
  8
0
  6
CONTINUOUS
 62
     7
 10
-9.84132
 20
26.40549
 40
10.1911
 50
161.978
 51
198.022
  0
ARC
  8
0
  6
CONTINUOUS
 62
     7
 10
-24.009
 20
32.75636
 40
10.47658
 50
342.2272
 51
17.77271
  0
ARC
  8
0
  6
CONTINUOUS
 62
     7
 10
-23.72352
 20
26.40549
 40
10.1911
 50
341.978
 51
18.02199
  0
CIRCLE
  8
0
  6
CONTINUOUS
 62
     7
 10
-9.03241
 20
-124.0
 40
1.6
  0
CIRCLE
  8
0
  6
CONTINUOUS
 62
     7
 10
2.96759
 20
-124.0
 40
1.6
  0
ARC
  8
0
  6
CONTINUOUS
 62
     7
 10
-16.30324
 20
-134.7632
 40
2.77083
 50
325.0397
 51
34.96024
  0
ARC
  8
0
  6
CONTINUOUS
 62
     7
 10
-17.26158
 20
-125.2369
 40
2.77083
 50
145.0396
 51
214.9604
  0
ARC
  8
0
  6
CONTINUOUS
 62
     7
 10
-9.69908
 20
-130.0
 40
10.33333
 50
162.1035
 51
197.8966
  0
ARC
  8
0
  6
CONTINUOUS
 62
     7
 10
-17.26158
 20
-134.7632
 40
2.77083
 50
145.0397
 51
214.9602
  0
ARC
  8
0
  6
CONTINUOUS
 62
     7
 10
-16.30324
 20
-125.2369
 40
2.77083
 50
325.0396
 51
34.96037
  0
ARC
  8
0
  6
CONTINUOUS
 62
     7
 10
-23.86574
 20
-130.0
 40
10.33333
 50
342.1034
 51
17.89653
  0
ARC
  8
0
  6
CONTINUOUS
 62
     7
 10
-9.55582
 20
-46.84709
 40
10.47658
 50
162.2272
 51
197.7727
  0
ARC
  8
0
  6
CONTINUOUS
 62
     7
 10
-9.84131
 20
-53.19793
 40
10.1911
 50
161.978
 51
198.022
  0
ARC
  8
0
  6
CONTINUOUS
 62
     7
 10
-24.00898
 20
-46.84709
 40
10.47658
 50
342.2272
 51
17.77271
  0
ARC
  8
0
  6
CONTINUOUS
 62
     7
 10
-23.7235
 20
-53.19793
 40
10.1911
 50
341.978
 51
18.022
  0
CIRCLE
  8
0
  6
CONTINUOUS
 62
     7
 10
-76.83241
 20
-130.0
 40
5.5
  0
CIRCLE
  8
0
  6
CONTINUOUS
 62
     7
 10
-76.83241
 20
-130.0
 40
4.0
  0
CIRCLE
  8
0
  6
CONTINUOUS
 62
     7
 10
-76.83241
 20
-130.0
 40
5.0
  0
CIRCLE
  8
0
  6
CONTINUOUS
 62
     7
 10
-76.83241
 20
-130.0
 40
1.0
  0
CIRCLE
  8
0
  6
CONTINUOUS
 62
     7
 10
-76.83241
 20
-130.0
 40
2.5
  0
CIRCLE
  8
0
  6
CONTINUOUS
 62
     7
 10
-76.83241
 20
-130.0
 40
2.067
  0
CIRCLE
  8
0
  6
CONTINUOUS
 62
     7
 10
68.16759
 20
-125.0
 40
2.0
  0
CIRCLE
  8
0
  6
CONTINUOUS
 62
     7
 10
68.16759
 20
-125.0
 40
3.0
  0
CIRCLE
  8
0
  6
CONTINUOUS
 62
     7
 10
68.16759
 20
-125.0
 40
4.0
  0
CIRCLE
  8
0
  6
CONTINUOUS
 62
     7
 10
68.16759
 20
-125.0
 40
4.5
  0
ARC
  8
0
  6
CONTINUOUS
 62
     7
 10
-9.55582
 20
-189.8471
 40
10.47658
 50
162.2272
 51
197.7727
  0
ARC
  8
0
  6
CONTINUOUS
 62
     7
 10
-9.84131
 20
-196.1979
 40
10.1911
 50
161.9779
 51
198.022
  0
ARC
  8
0
  6
CONTINUOUS
 62
     7
 10
-24.00898
 20
-189.8471
 40
10.47658
 50
342.2272
 51
17.77271
  0
ARC
  8
0
  6
CONTINUOUS
 62
     7
 10
-23.7235
 20
-196.1979
 40
10.1911
 50
341.9779
 51
18.02198
  0
CIRCLE
  8
0
  6
CONTINUOUS
 62
     7
 10
0.4676
 20
-193.0
 40
2.5
  0
CIRCLE
  8
0
  6
CONTINUOUS
 62
     7
 10
0.4676
 20
-193.0
 40
2.067
  0
CIRCLE
  8
0
  6
CONTINUOUS
 62
     7
 10
233.4167
 20
103.0585
 40
2.25
  0
CIRCLE
  8
0
  6
CONTINUOUS
 62
     7
 10
251.4167
 20
103.0585
 40
2.25
  0
ARC
  8
0
  6
CONTINUOUS
 62
     7
 10
240.0865
 20
111.7252
 40
2.33333
 50
51.78685
 51
128.2131
  0
ARC
  8
0
  6
CONTINUOUS
 62
     7
 10
244.4167
 20
105.4752
 40
8.58333
 50
70.34716
 51
109.6528
  0
ARC
  8
0
  6
CONTINUOUS
 62
     7
 10
248.7468
 20
111.7252
 40
2.33333
 50
51.78685
 51
128.2131
  0
CIRCLE
  8
0
  6
CONTINUOUS
 62
     7
 10
244.4167
 20
172.5585
 40
4.0
  0
CIRCLE
  8
0
  6
CONTINUOUS
 62
     7
 10
244.4167
 20
172.5585
 40
5.0
  0
ARC
  8
0
  6
CONTINUOUS
 62
     7
 10
167.9166
 20
107.5585
 40
6.5
 50
67.38013
 51
112.6199
  0
ARC
  8
0
  6
CONTINUOUS
 62
     7
 10
172.9166
 20
107.5585
 40
6.5
 50
67.38013
 51
112.6199
  0
CIRCLE
  8
0
  6
CONTINUOUS
 62
     7
 10
170.4166
 20
92.5585
 40
2.5
  0
CIRCLE
  8
0
  6
CONTINUOUS
 62
     7
 10
170.4166
 20
92.5585
 40
2.067
  0
CIRCLE
  8
0
  6
CONTINUOUS
 62
     7
 10
170.4166
 20
92.5585
 40
5.0
  0
CIRCLE
  8
0
  6
CONTINUOUS
 62
     7
 10
170.4166
 20
92.5585
 40
4.0
  0
ARC
  8
0
  6
CONTINUOUS
 62
     7
 10
312.9168
 20
107.5585
 40
6.5
 50
67.38013
 51
112.6199
  0
ARC
  8
0
  6
CONTINUOUS
 62
     7
 10
317.9168
 20
107.5585
 40
6.5
 50
67.38013
 51
112.6199
  0
CIRCLE
  8
0
  6
CONTINUOUS
 62
     7
 10
315.4168
 20
92.55846
 40
2.5
  0
CIRCLE
  8
0
  6
CONTINUOUS
 62
     7
 10
315.4168
 20
92.55846
 40
2.067
  0
CIRCLE
  8
0
  6
CONTINUOUS
 62
     7
 10
232.4167
 20
-120.0
 40
2.75
  0
CIRCLE
  8
0
  6
CONTINUOUS
 62
     7
 10
257.8167
 20
-120.0
 40
2.75
  0
ARC
  8
0
  6
CONTINUOUS
 62
     7
 10
237.0865
 20
-113.8333
 40
2.33333
 50
51.78685
 51
128.2131
  0
ARC
  8
0
  6
CONTINUOUS
 62
     7
 10
241.4167
 20
-120.0833
 40
8.58333
 50
70.34716
 51
109.6528
  0
ARC
  8
0
  6
CONTINUOUS
 62
     7
 10
245.7468
 20
-113.8333
 40
2.33333
 50
51.78685
 51
128.2131
  0
CIRCLE
  8
0
  6
CONTINUOUS
 62
     7
 10
241.4167
 20
-50.0
 40
4.0
  0
CIRCLE
  8
0
  6
CONTINUOUS
 62
     7
 10
170.4167
 20
-130.0
 40
4.864
  0
CIRCLE
  8
0
  6
CONTINUOUS
 62
     7
 10
170.4167
 20
-130.0
 40
4.283
  0
ARC
  8
0
  6
CONTINUOUS
 62
     7
 10
172.9167
 20
-118.0
 40
6.5
 50
67.38013
 51
112.6199
  0
ARC
  8
0
  6
CONTINUOUS
 62
     7
 10
167.9167
 20
-118.0
 40
6.5
 50
67.38013
 51
112.6199
  0
CIRCLE
  8
0
  6
CONTINUOUS
 62
     7
 10
315.4167
 20
-130.0
 40
4.864
  0
CIRCLE
  8
0
  6
CONTINUOUS
 62
     7
 10
315.4167
 20
-130.0
 40
4.283
  0
ARC
  8
0
  6
CONTINUOUS
 62
     7
 10
312.9167
 20
-118.0
 40
6.5
 50
67.38013
 51
112.6199
  0
ARC
  8
0
  6
CONTINUOUS
 62
     7
 10
317.9167
 20
-118.0
 40
6.5
 50
67.38013
 51
112.6199
  0
CIRCLE
  8
0
  6
CONTINUOUS
 62
     7
 10
241.4167
 20
-193.0
 40
7.0
  0
TEXT
  8
0
  6
CONTINUOUS
 62
     7
 10
143.9801
 20
-16.25892
 40
7.0
  1
MODEL : SC2
 41
0.8
  7
STANDARD
  0
TEXT
  8
0
  6
CONTINUOUS
 62
     7
 10
229.0661
 20
236.2625
 40
8.5
  1
DATE : SEP ,1988
 41
0.8
  7
STANDARD
  0
TEXT
  8
0
  6
CONTINUOUS
 62
     7
 10
-366.9132
 20
235.5575
 40
10.0
  1
SPEED CONTROLLER,SC
 41
0.61985
  7
STANDARD
  0
TEXT
  8
0
  6
CONTINUOUS
 62
     7
 10
-350.5179
 20
206.2996
 40
7.0
  1
MODEL : SC0
 41
0.8
  7
STANDARD
  0
TEXT
  8
0
  6
CONTINUOUS
 62
     7
 10
-103.2689
 20
206.2996
 40
7.0
  1
MODEL : SC0-US
 41
0.8
  7
STANDARD
  0
TEXT
  8
0
  6
CONTINUOUS
 62
     7
 10
143.9801
 20
206.2996
 40
7.0
  1
MODEL : SC1
 41
0.8
  7
STANDARD
  0
TEXT
  8
0
  6
CONTINUOUS
 62
     7
 10
-350.5179
 20
-16.25892
 40
7.0
  1
MODEL : SC0-F
 41
0.8
  7
STANDARD
  0
TEXT
  8
0
  6
CONTINUOUS
 62
     7
 10
-103.2689
 20
-16.25892
 40
7.0
  1
MODEL : SC0-UL
 41
0.8
  7
STANDARD
  0
ENDSEC
  0
EOF
