  0
SECTION
  2
HEADER
  9
$ACADVER
  1
AC1002
  9
$INSBASE
 10
0.0
 20
0.0
  9
$EXTMIN
 10
-262.2472
 20
-180.0
  9
$EXTMAX
 10
262.2472
 20
180.0
  9
$LIMMIN
 10
0.0
 20
0.0
  9
$LIMMAX
 10
12.0
 20
9.0
  9
$VIEWCTR
 10
20.22981726
 20
0.0
  9
$VIEWSIZE
 40
360.0
  9
$SNAPMODE
 70
     0
  9
$SNAPUNIT
 10
1.0
 20
1.0
  9
$SNAPBASE
 10
0.0
 20
0.0
  9
$SNAPANG
 50
0.0
  9
$SNAPSTYLE
 70
     0
  9
$SNAPISOPAIR
 70
     0
  9
$GRIDMODE
 70
     0
  9
$GRIDUNIT
 10
0.0
 20
0.0
  9
$ORTHOMODE
 70
     0
  9
$REGENMODE
 70
     1
  9
$FILLMODE
 70
     1
  9
$QTEXTMODE
 70
     0
  9
$DRAGMODE
 70
     2
  9
$LTSCALE
 40
1.0
  9
$OSMODE
 70
     0
  9
$ATTMODE
 70
     1
  9
$TEXTSIZE
 40
0.2
  9
$TRACEWID
 40
0.05
  9
$TEXTSTYLE
  7
AAA
  9
$CLAYER
  8
0
  9
$CELTYPE
  6
BYLAYER
  9
$CECOLOR
 62
   256
  9
$DIMSCALE
 40
1.0
  9
$DIMASZ
 40
0.18
  9
$DIMEXO
 40
0.0625
  9
$DIMDLI
 40
0.38
  9
$DIMRND
 40
0.0
  9
$DIMDLE
 40
0.0
  9
$DIMEXE
 40
0.18
  9
$DIMTP
 40
0.0
  9
$DIMTM
 40
0.0
  9
$DIMTXT
 40
0.18
  9
$DIMCEN
 40
0.09
  9
$DIMTSZ
 40
0.0
  9
$DIMTOL
 70
     0
  9
$DIMLIM
 70
     0
  9
$DIMTIH
 70
     1
  9
$DIMTOH
 70
     1
  9
$DIMSE1
 70
     0
  9
$DIMSE2
 70
     0
  9
$DIMTAD
 70
     0
  9
$DIMZIN
 70
     0
  9
$DIMBLK
  1

  9
$LUNITS
 70
     2
  9
$LUPREC
 70
     4
  9
$AXISMODE
 70
     0
  9
$AXISUNIT
 10
0.0
 20
0.0
  9
$SKETCHINC
 40
0.1
  9
$FILLETRAD
 40
0.0
  9
$AUNITS
 70
     0
  9
$AUPREC
 70
     0
  9
$MENU
  1
ACAD
  9
$ELEVATION
 40
0.0
  9
$THICKNESS
 40
0.0
  9
$VIEWDIR
 10
0.0
 20
0.0
 30
1.0
  9
$LIMCHECK
 70
     0
  9
$BLIPMODE
 70
     1
  9
$CHAMFERA
 40
0.0
  9
$CHAMFERB
 40
0.0
  9
$FASTZOOM
 70
     1
  9
$SKPOLY
 70
     0
  9
$TDCREATE
 40
2447797.7006829201
  9
$TDUPDATE
 40
2447797.7006829201
  9
$TDINDWG
 40
0.0004976852
  9
$TDUSRTIMER
 40
0.0004976852
  9
$USRTIMER
 70
     1
  9
$ANGBASE
 50
0.0
  9
$ANGDIR
 70
     0
  9
$PDMODE
 70
     0
  9
$PDSIZE
 40
0.0
  9
$PLINEWID
 40
0.0
  9
$COORDS
 70
     0
  9
$USERI1
 70
     0
  9
$USERI2
 70
     0
  9
$USERI3
 70
     0
  9
$USERI4
 70
     0
  9
$USERI5
 70
     0
  9
$USERR1
 40
0.0
  9
$USERR2
 40
0.0
  9
$USERR3
 40
0.0
  9
$USERR4
 40
0.0
  9
$USERR5
 40
0.0
  0
ENDSEC
  0
SECTION
  2
TABLES
  0
TABLE
  2
LTYPE
 70
     5
  0
LTYPE
  2
CONTINUOUS
 70
    64
  3
SOLID
 72
    65
 73
     0
 40
0.0
  0
LTYPE
  2
DASHED
 70
    64
  3
DASHED
 72
    65
 73
     2
 40
0.75
 49
0.5
 49
-0.25
  0
LTYPE
  2
CENTER
 70
    64
  3
CENTER
 72
    65
 73
     4
 40
2.0
 49
1.25
 49
-0.25
 49
0.25
 49
-0.25
  0
LTYPE
  2
PHANTOM
 70
    64
  3
PHANTOM
 72
    65
 73
     6
 40
2.5
 49
1.25
 49
-0.25
 49
0.25
 49
-0.25
 49
0.25
 49
-0.25
  0
ENDTAB
  0
TABLE
  2
LAYER
 70
     1
  0
LAYER
  2
0
 70
    64
 62
     7
  6
CONTINUOUS
  0
ENDTAB
  0
TABLE
  2
STYLE
 70
     2
  0
STYLE
  2
AAA
 70
     0
 40
0.0
 41
1.0
 50
0.0
 71
     0
 42
0.2
  3
TXT
  4

  0
STYLE
  2
STANDARD
 70
    64
 40
0.0
 41
1.0
 50
0.0
 71
     0
 42
0.2
  3
TXT
  4
BIGFONT
  0
ENDTAB
  0
TABLE
  2
VIEW
 70
     0
  0
ENDTAB
  0
ENDSEC
  0
SECTION
  2
BLOCKS
  0
ENDSEC
  0
SECTION
  2
ENTITIES
  0
POINT
  8
0
  6
CONTINUOUS
 62
     7
 10
-65.0
 20
80.0
  0
POINT
  8
0
  6
CONTINUOUS
 62
     7
 10
-65.0
 20
0.0
  0
POINT
  8
0
  6
CONTINUOUS
 62
     7
 10
-145.0
 20
0.0
  0
POINT
  8
0
  6
CONTINUOUS
 62
     7
 10
-82.775
 20
-100.0
  0
POINT
  8
0
  6
CONTINUOUS
 62
     7
 10
36.0
 20
-100.0
  0
POINT
  8
0
  6
CONTINUOUS
 62
     7
 10
157.0
 20
0.0
  0
POINT
  8
0
  6
CONTINUOUS
 62
     7
 10
-43.775
 20
-100.0
  0
POINT
  8
0
  6
CONTINUOUS
 62
     7
 10
-37.775
 20
-100.0
  0
POINT
  8
0
  6
CONTINUOUS
 62
     7
 10
86.5
 20
-100.0
  0
POINT
  8
0
  6
CONTINUOUS
 62
     7
 10
96.0
 20
-100.0
  0
LINE
  8
0
  6
CENTER
 62
     2
 10
-145.0
 20
-20.0
 11
-145.0
 21
20.0
  0
LINE
  8
0
  6
CENTER
 62
     2
 10
-165.0
 20
0.0
 11
-125.0
 21
0.0
  0
LINE
  8
0
  6
CENTER
 62
     2
 10
137.0
 20
0.0
 11
177.0
 21
0.0
  0
LINE
  8
0
  6
CENTER
 62
     2
 10
157.0
 20
20.0
 11
157.0
 21
-20.0
  0
LINE
  8
0
  6
CONTINUOUS
 62
     7
 10
-80.0
 20
-2.64574
 11
-80.0
 21
2.64577
  0
LINE
  8
0
  6
CONTINUOUS
 62
     7
 10
-84.26793
 20
2.64577
 11
-80.0
 21
2.64577
  0
LINE
  8
0
  6
CONTINUOUS
 62
     7
 10
-84.26793
 20
-2.64574
 11
-80.0
 21
-2.64574
  0
LINE
  8
0
  6
CENTER
 62
     2
 10
-113.0
 20
0.0
 11
113.0
 21
0.0
  0
LINE
  8
0
  6
CONTINUOUS
 62
     7
 10
83.0
 20
-17.5
 11
83.0
 21
17.5
  0
LINE
  8
0
  6
CONTINUOUS
 62
     7
 10
83.0
 20
13.5
 11
108.0
 21
13.5
  0
LINE
  8
0
  6
CENTER
 62
     2
 10
98.0
 20
93.0
 11
98.0
 21
67.0
  0
LINE
  8
0
  6
DASHED
 62
     7
 10
93.0
 20
90.0
 11
93.0
 21
70.0
  0
LINE
  8
0
  6
DASHED
 62
     7
 10
103.0
 20
90.0
 11
103.0
 21
70.0
  0
LINE
  8
0
  6
CONTINUOUS
 62
     7
 10
84.0
 20
0.0
 11
84.0
 21
9.06918
  0
LINE
  8
0
  6
CONTINUOUS
 62
     7
 10
85.0
 20
13.5
 11
85.0
 21
9.06918
  0
LINE
  8
0
  6
CONTINUOUS
 62
     7
 10
-47.0
 20
-16.8
 11
-47.0
 21
16.8
  0
LINE
  8
0
  6
CONTINUOUS
 62
     7
 10
-79.0
 20
-12.50002
 11
-79.0
 21
12.50002
  0
LINE
  8
0
  6
CONTINUOUS
 62
     7
 10
-65.0
 20
-17.49998
 11
-65.0
 21
17.50002
  0
LINE
  8
0
  6
CONTINUOUS
 62
     7
 10
-49.0
 20
17.50002
 11
-49.0
 21
-17.49998
  0
LINE
  8
0
  6
CONTINUOUS
 62
     7
 10
-65.0
 20
17.50002
 11
-49.0
 21
17.50002
  0
LINE
  8
0
  6
CONTINUOUS
 62
     7
 10
-65.0
 20
-17.49998
 11
-49.0
 21
-17.49998
  0
LINE
  8
0
  6
CONTINUOUS
 62
     7
 10
-87.0
 20
-5.00003
 11
-87.0
 21
5.00002
  0
LINE
  8
0
  6
CONTINUOUS
 62
     7
 10
-67.0
 20
13.50002
 11
-67.0
 21
-13.50002
  0
LINE
  8
0
  6
CONTINUOUS
 62
     7
 10
-110.0
 20
4.00002
 11
-110.0
 21
-4.00002
  0
LINE
  8
0
  6
CONTINUOUS
 62
     7
 10
-109.9999
 20
3.99991
 11
-108.9999
 21
4.9999
  0
LINE
  8
0
  6
CONTINUOUS
 62
     7
 10
-109.0
 20
5.00002
 11
-109.0
 21
-5.00003
  0
LINE
  8
0
  6
CONTINUOUS
 62
     7
 10
-110.0
 20
4.00002
 11
-87.0
 21
4.00002
  0
LINE
  8
0
  6
CONTINUOUS
 62
     7
 10
-85.26792
 20
5.00003
 11
-109.0
 21
5.00003
  0
LINE
  8
0
  6
CONTINUOUS
 62
     7
 10
65.0
 20
-16.8
 11
65.0
 21
16.8
  0
LINE
  8
0
  6
CONTINUOUS
 62
     7
 10
83.0
 20
62.5
 11
83.0
 21
97.5
  0
LINE
  8
0
  6
CONTINUOUS
 62
     7
 10
67.0
 20
17.5
 11
67.0
 21
-17.5
  0
LINE
  8
0
  6
CONTINUOUS
 62
     7
 10
83.0
 20
17.5
 11
67.0
 21
17.5
  0
LINE
  8
0
  6
CONTINUOUS
 62
     7
 10
83.0
 20
-17.5
 11
67.0
 21
-17.5
  0
LINE
  8
0
  6
CONTINUOUS
 62
     7
 10
110.0
 20
70.0
 11
110.0
 21
90.0
  0
LINE
  8
0
  6
CONTINUOUS
 62
     7
 10
84.0
 20
66.0
 11
84.0
 21
70.0
  0
LINE
  8
0
  6
CONTINUOUS
 62
     7
 10
83.0
 20
66.0
 11
83.0
 21
94.0
  0
LINE
  8
0
  6
CONTINUOUS
 62
     7
 10
83.0
 20
94.0
 11
84.0
 21
94.0
  0
LINE
  8
0
  6
CONTINUOUS
 62
     7
 10
84.0
 20
66.0
 11
83.0
 21
66.0
  0
LINE
  8
0
  6
CENTER
 62
     2
 10
-113.0
 20
80.0
 11
113.0
 21
80.0
  0
LINE
  8
0
  6
CONTINUOUS
 62
     7
 10
-49.0
 20
-16.8
 11
1.99845
 21
-16.8
  0
LINE
  8
0
  6
CONTINUOUS
 62
     7
 10
-49.0
 20
16.8
 11
11.00154
 21
16.8
  0
LINE
  8
0
  6
CENTER
 62
     2
 10
75.0
 20
88.0
 11
75.0
 21
72.0
  0
LINE
  8
0
  6
CONTINUOUS
 62
     7
 10
84.0
 20
90.0
 11
84.0
 21
94.0
  0
LINE
  8
0
  6
CONTINUOUS
 62
     7
 10
85.0
 20
90.0
 11
85.0
 21
70.0
  0
LINE
  8
0
  6
CENTER
 62
     2
 10
75.0
 20
3.62913
 11
75.0
 21
20.50002
  0
LINE
  8
0
  6
CONTINUOUS
 62
     7
 10
-79.0
 20
12.50002
 11
-67.0
 21
12.50002
  0
LINE
  8
0
  6
CONTINUOUS
 62
     7
 10
-65.0
 20
13.50002
 11
-78.00002
 21
13.50002
  0
LINE
  8
0
  6
CONTINUOUS
 62
     7
 10
-79.00004
 20
12.5
 11
-78.00006
 21
13.5
  0
LINE
  8
0
  6
CONTINUOUS
 62
     7
 10
-67.00001
 20
12.50001
 11
-64.99999
 21
13.50001
  0
LINE
  8
0
  6
CONTINUOUS
 62
     7
 10
-78.00002
 20
13.50002
 11
-78.00002
 21
-13.50002
  0
LINE
  8
0
  6
CONTINUOUS
 62
     7
 10
-108.9999
 20
-4.99992
 11
-109.9999
 21
-3.99992
  0
LINE
  8
0
  6
CONTINUOUS
 62
     7
 10
-87.0
 20
-4.00002
 11
-110.0
 21
-4.00002
  0
LINE
  8
0
  6
CONTINUOUS
 62
     7
 10
-84.26792
 20
-6.00003
 11
-79.0
 21
-6.00003
  0
LINE
  8
0
  6
CONTINUOUS
 62
     7
 10
-67.0
 20
-12.50002
 11
-79.0
 21
-12.50002
  0
LINE
  8
0
  6
CONTINUOUS
 62
     7
 10
-78.00002
 20
-13.50002
 11
-65.0
 21
-13.50002
  0
LINE
  8
0
  6
CONTINUOUS
 62
     7
 10
-78.00006
 20
-13.5
 11
-79.00004
 21
-12.5
  0
LINE
  8
0
  6
CONTINUOUS
 62
     7
 10
-65.00002
 20
-13.50003
 11
-67.00002
 21
-12.50003
  0
LINE
  8
0
  6
CONTINUOUS
 62
     7
 10
84.0
 20
90.0
 11
110.0
 21
90.0
  0
LINE
  8
0
  6
CONTINUOUS
 62
     7
 10
84.0
 20
70.0
 11
110.0
 21
70.0
  0
LINE
  8
0
  6
CONTINUOUS
 62
     7
 10
-47.0
 20
63.2
 11
-47.0
 21
96.8
  0
LINE
  8
0
  6
CONTINUOUS
 62
     7
 10
-79.0
 20
67.49998
 11
-79.0
 21
92.50002
  0
LINE
  8
0
  6
CONTINUOUS
 62
     7
 10
-65.0
 20
62.50002
 11
-65.0
 21
97.50002
  0
LINE
  8
0
  6
CONTINUOUS
 62
     7
 10
-49.0
 20
97.50002
 11
-49.0
 21
62.50002
  0
LINE
  8
0
  6
CONTINUOUS
 62
     7
 10
-65.0
 20
97.50002
 11
-49.0
 21
97.50002
  0
LINE
  8
0
  6
CONTINUOUS
 62
     7
 10
-65.0
 20
62.50002
 11
-49.0
 21
62.50002
  0
LINE
  8
0
  6
CONTINUOUS
 62
     7
 10
-87.0
 20
74.99997
 11
-87.0
 21
85.00002
  0
LINE
  8
0
  6
CONTINUOUS
 62
     7
 10
-67.0
 20
93.50002
 11
-67.0
 21
66.49998
  0
LINE
  8
0
  6
CONTINUOUS
 62
     7
 10
-110.0
 20
84.00002
 11
-110.0
 21
75.99998
  0
LINE
  8
0
  6
CONTINUOUS
 62
     7
 10
-109.9999
 20
83.99985
 11
-108.9999
 21
84.99985
  0
LINE
  8
0
  6
CONTINUOUS
 62
     7
 10
-86.99998
 20
83.99987
 11
-85.26766
 21
85.00002
  0
LINE
  8
0
  6
CONTINUOUS
 62
     7
 10
-109.0
 20
85.00002
 11
-109.0
 21
74.99997
  0
LINE
  8
0
  6
CONTINUOUS
 62
     7
 10
-110.0
 20
84.00002
 11
-87.0
 21
84.00002
  0
LINE
  8
0
  6
CONTINUOUS
 62
     7
 10
-80.0
 20
85.00003
 11
-109.0
 21
85.00003
  0
LINE
  8
0
  6
CONTINUOUS
 62
     7
 10
65.0
 20
63.2
 11
65.0
 21
96.8
  0
LINE
  8
0
  6
CONTINUOUS
 62
     7
 10
67.0
 20
97.5
 11
67.0
 21
62.5
  0
LINE
  8
0
  6
CONTINUOUS
 62
     7
 10
83.0
 20
97.5
 11
67.0
 21
97.5
  0
LINE
  8
0
  6
CONTINUOUS
 62
     7
 10
83.0
 20
62.5
 11
67.0
 21
62.5
  0
LINE
  8
0
  6
CONTINUOUS
 62
     7
 10
-49.0
 20
63.2
 11
1.99845
 21
63.2
  0
LINE
  8
0
  6
CONTINUOUS
 62
     7
 10
-49.0
 20
96.8
 11
11.00154
 21
96.8
  0
LINE
  8
0
  6
CONTINUOUS
 62
     7
 10
-79.0
 20
92.50002
 11
-67.0
 21
92.50002
  0
LINE
  8
0
  6
CONTINUOUS
 62
     7
 10
-65.0
 20
93.50002
 11
-78.00002
 21
93.50002
  0
LINE
  8
0
  6
CONTINUOUS
 62
     7
 10
-79.00001
 20
92.50001
 11
-78.00003
 21
93.50001
  0
LINE
  8
0
  6
CONTINUOUS
 62
     7
 10
-67.0
 20
92.50001
 11
-65.0
 21
93.50001
  0
LINE
  8
0
  6
CONTINUOUS
 62
     7
 10
-78.00002
 20
93.50002
 11
-78.00002
 21
66.49998
  0
LINE
  8
0
  6
CONTINUOUS
 62
     7
 10
-109.0
 20
75.00007
 11
-109.9999
 21
76.00007
  0
LINE
  8
0
  6
CONTINUOUS
 62
     7
 10
-85.26769
 20
74.99998
 11
-87.0
 21
76.00011
  0
LINE
  8
0
  6
CONTINUOUS
 62
     7
 10
-87.0
 20
75.99998
 11
-110.0
 21
75.99998
  0
LINE
  8
0
  6
CONTINUOUS
 62
     7
 10
-109.0
 20
74.99997
 11
-80.0
 21
74.99997
  0
LINE
  8
0
  6
CONTINUOUS
 62
     7
 10
-67.0
 20
67.49998
 11
-79.0
 21
67.49998
  0
LINE
  8
0
  6
CONTINUOUS
 62
     7
 10
-78.00002
 20
66.49998
 11
-65.0
 21
66.49998
  0
LINE
  8
0
  6
CONTINUOUS
 62
     7
 10
-78.00003
 20
66.5
 11
-79.00002
 21
67.5
  0
LINE
  8
0
  6
CONTINUOUS
 62
     7
 10
-65.00003
 20
66.49998
 11
-67.00002
 21
67.49998
  0
LINE
  8
0
  6
CONTINUOUS
 62
     7
 10
147.0
 20
9.06918
 11
147.0
 21
-9.06918
  0
LINE
  8
0
  6
CONTINUOUS
 62
     7
 10
167.0
 20
9.21954
 11
167.0
 21
-9.21954
  0
LINE
  8
0
  6
DASHED
 62
     7
 10
147.0
 20
5.0
 11
167.0
 21
5.0
  0
LINE
  8
0
  6
DASHED
 62
     7
 10
147.0
 20
-5.0
 11
167.0
 21
-5.0
  0
LINE
  8
0
  6
CONTINUOUS
 62
     7
 10
85.0
 20
12.5
 11
109.0
 21
12.5
  0
LINE
  8
0
  6
CONTINUOUS
 62
     7
 10
110.0
 20
-11.49995
 11
110.0
 21
11.5
  0
LINE
  8
0
  6
CONTINUOUS
 62
     7
 10
107.9999
 20
13.49999
 11
109.9999
 21
11.49999
  0
LINE
  8
0
  6
CONTINUOUS
 62
     7
 10
82.99999
 20
13.5
 11
84.99998
 21
12.5
  0
LINE
  8
0
  6
CONTINUOUS
 62
     7
 10
84.0
 20
9.06918
 11
110.0
 21
9.06918
  0
LINE
  8
0
  6
CONTINUOUS
 62
     7
 10
108.0
 20
-13.5
 11
83.0
 21
-13.5
  0
LINE
  8
0
  6
CONTINUOUS
 62
     7
 10
84.0
 20
-9.06918
 11
84.0
 21
0.0
  0
LINE
  8
0
  6
CONTINUOUS
 62
     7
 10
85.0
 20
-9.06918
 11
85.0
 21
-13.5
  0
LINE
  8
0
  6
CONTINUOUS
 62
     7
 10
109.0
 20
-12.5
 11
85.0
 21
-12.5
  0
LINE
  8
0
  6
CONTINUOUS
 62
     7
 10
109.9999
 20
-11.49999
 11
107.9999
 21
-13.49999
  0
LINE
  8
0
  6
CONTINUOUS
 62
     7
 10
84.99996
 20
-12.49999
 11
82.99998
 21
-13.49998
  0
LINE
  8
0
  6
CONTINUOUS
 62
     7
 10
110.0
 20
-9.06918
 11
84.0
 21
-9.06918
  0
LINE
  8
0
  6
CONTINUOUS
 62
     7
 10
84.00001
 20
9.06917
 11
93.80355
 21
2.71843
  0
LINE
  8
0
  6
CONTINUOUS
 62
     7
 10
110.0
 20
9.06918
 11
101.9889
 21
3.0147
  0
LINE
  8
0
  6
CONTINUOUS
 62
     7
 10
110.0
 20
-9.06918
 11
101.9889
 21
-3.0147
  0
LINE
  8
0
  6
CONTINUOUS
 62
     7
 10
84.00001
 20
-9.06917
 11
93.80355
 21
-2.71843
  0
LINE
  8
0
  6
CENTER
 62
     2
 10
98.0
 20
8.0
 11
98.0
 21
-8.0
  0
LINE
  8
0
  6
PHANTOM
 62
     2
 10
11.00154
 20
96.79998
 11
1.99845
 21
63.2
  0
LINE
  8
0
  6
CENTER
 62
     2
 10
-82.775
 20
-110.0
 11
-82.775
 21
-90.0
  0
LINE
  8
0
  6
CENTER
 62
     2
 10
-92.775
 20
-100.0
 11
-72.775
 21
-100.0
  0
LINE
  8
0
  6
CONTINUOUS
 62
     7
 10
-37.775
 20
-107.0147
 11
-37.775
 21
-92.9852
  0
LINE
  8
0
  6
CONTINUOUS
 62
     7
 10
-43.775
 20
-92.9852
 11
-43.775
 21
-107.0148
  0
LINE
  8
0
  6
CENTER
 62
     2
 10
-46.775
 20
-100.0
 11
-34.775
 21
-100.0
  0
LINE
  8
0
  6
CONTINUOUS
 62
     7
 10
-82.77499
 20
-91.9
 11
-89.7898
 21
-95.95
  0
LINE
  8
0
  6
CONTINUOUS
 62
     7
 10
-89.78981
 20
-95.95
 11
-89.78981
 21
-104.05
  0
LINE
  8
0
  6
CONTINUOUS
 62
     7
 10
-89.7898
 20
-104.05
 11
-82.77499
 21
-108.1
  0
LINE
  8
0
  6
CONTINUOUS
 62
     7
 10
-82.77501
 20
-108.1
 11
-75.7602
 21
-104.05
  0
LINE
  8
0
  6
CONTINUOUS
 62
     7
 10
-75.76019
 20
-104.05
 11
-75.76019
 21
-95.95
  0
LINE
  8
0
  6
CONTINUOUS
 62
     7
 10
-75.7602
 20
-95.95
 11
-82.775
 21
-91.9
  0
LINE
  8
0
  6
CONTINUOUS
 62
     7
 10
-43.14848
 20
-91.9
 11
-38.40157
 21
-91.9
  0
LINE
  8
0
  6
CONTINUOUS
 62
     7
 10
-43.14849
 20
-95.95
 11
-38.40159
 21
-95.95
  0
LINE
  8
0
  6
CONTINUOUS
 62
     7
 10
-43.77501
 20
-92.98519
 11
-43.14849
 21
-91.9
  0
LINE
  8
0
  6
CONTINUOUS
 62
     7
 10
-37.77502
 20
-92.98521
 11
-38.40157
 21
-91.90004
  0
LINE
  8
0
  6
CONTINUOUS
 62
     7
 10
-38.40157
 20
-108.1
 11
-43.14848
 21
-108.1
  0
LINE
  8
0
  6
CONTINUOUS
 62
     7
 10
-38.40159
 20
-104.05
 11
-43.14849
 21
-104.05
  0
LINE
  8
0
  6
CONTINUOUS
 62
     7
 10
-43.14851
 20
-108.1
 11
-43.77503
 21
-107.0148
  0
LINE
  8
0
  6
CONTINUOUS
 62
     7
 10
-38.40158
 20
-108.1
 11
-37.77504
 21
-107.0148
  0
LINE
  8
0
  6
CENTER
 62
     2
 10
36.0
 20
-123.8
 11
36.0
 21
-76.19999
  0
LINE
  8
0
  6
CENTER
 62
     2
 10
14.98668
 20
-100.0
 11
57.01332
 21
-100.0
  0
LINE
  8
0
  6
CONTINUOUS
 62
     7
 10
96.0
 20
-118.0133
 11
96.0
 21
-81.98672
  0
LINE
  8
0
  6
CONTINUOUS
 62
     7
 10
95.5
 20
-120.8
 11
95.5
 21
-79.20003
  0
LINE
  8
0
  6
CONTINUOUS
 62
     7
 10
86.5
 20
-81.98672
 11
86.5
 21
-118.0133
  0
LINE
  8
0
  6
CENTER
 62
     2
 10
83.5
 20
-100.0
 11
97.97501
 21
-100.0
  0
LINE
  8
0
  6
CONTINUOUS
 62
     7
 10
54.01333
 20
-89.60007
 11
36.00007
 21
-79.20004
  0
LINE
  8
0
  6
CONTINUOUS
 62
     7
 10
36.00008
 20
-79.20002
 11
17.98669
 21
-89.59999
  0
LINE
  8
0
  6
CONTINUOUS
 62
     7
 10
17.98669
 20
-89.60001
 11
17.98676
 21
-110.4001
  0
LINE
  8
0
  6
CONTINUOUS
 62
     7
 10
17.98675
 20
-110.4001
 11
36.00005
 21
-120.7999
  0
LINE
  8
0
  6
CONTINUOUS
 62
     7
 10
36.00005
 20
-120.8
 11
54.01331
 21
-110.4
  0
LINE
  8
0
  6
CONTINUOUS
 62
     7
 10
54.01331
 20
-110.4
 11
54.01333
 21
-89.60006
  0
LINE
  8
0
  6
CONTINUOUS
 62
     7
 10
88.10889
 20
-79.20003
 11
95.5
 21
-79.20003
  0
LINE
  8
0
  6
CONTINUOUS
 62
     7
 10
95.5
 20
-81.98672
 11
96.0
 21
-81.98672
  0
LINE
  8
0
  6
CONTINUOUS
 62
     7
 10
86.49998
 20
-81.98671
 11
88.10887
 21
-79.20004
  0
LINE
  8
0
  6
CONTINUOUS
 62
     7
 10
88.10887
 20
-89.60007
 11
95.5
 21
-89.60007
  0
LINE
  8
0
  6
CONTINUOUS
 62
     7
 10
95.5
 20
-120.8
 11
88.10889
 21
-120.8
  0
LINE
  8
0
  6
CONTINUOUS
 62
     7
 10
96.0
 20
-118.0133
 11
95.5
 21
-118.0133
  0
LINE
  8
0
  6
CONTINUOUS
 62
     7
 10
88.10885
 20
-120.7999
 11
86.49998
 21
-118.0133
  0
LINE
  8
0
  6
CONTINUOUS
 62
     7
 10
95.5
 20
-110.3999
 11
88.10887
 21
-110.3999
  0
LINE
  8
0
  6
CONTINUOUS
 62
     7
 10
-79.0
 20
6.00003
 11
-84.26792
 21
6.00003
  0
LINE
  8
0
  6
CONTINUOUS
 62
     7
 10
-109.0
 20
-5.00003
 11
-85.26792
 21
-5.00003
  0
LINE
  8
0
  6
CONTINUOUS
 62
     7
 10
-87.00002
 20
4.00002
 11
-85.26794
 21
5.00004
  0
LINE
  8
0
  6
CONTINUOUS
 62
     7
 10
-87.00002
 20
-4.00002
 11
-85.26794
 21
-5.00004
  0
LINE
  8
0
  6
CONTINUOUS
 62
     7
 10
-85.26793
 20
5.00003
 11
-84.26793
 21
6.00003
  0
LINE
  8
0
  6
CONTINUOUS
 62
     7
 10
-85.26793
 20
-5.00003
 11
-84.26793
 21
-6.00003
  0
LINE
  8
0
  6
CONTINUOUS
 62
     7
 10
-85.26792
 20
5.00003
 11
-85.26792
 21
-5.00003
  0
LINE
  8
0
  6
CONTINUOUS
 62
     7
 10
-84.26793
 20
6.00003
 11
-84.26793
 21
2.64577
  0
LINE
  8
0
  6
CONTINUOUS
 62
     7
 10
-84.26793
 20
-2.64574
 11
-80.0
 21
2.64577
  0
LINE
  8
0
  6
CONTINUOUS
 62
     7
 10
-84.26791
 20
2.64577
 11
-79.99998
 21
-2.64574
  0
LINE
  8
0
  6
CONTINUOUS
 62
     7
 10
-84.26793
 20
85.00003
 11
-84.26793
 21
74.99997
  0
LINE
  8
0
  6
CONTINUOUS
 62
     7
 10
-85.26792
 20
85.00003
 11
-85.26792
 21
74.99997
  0
LINE
  8
0
  6
CONTINUOUS
 62
     7
 10
108.0
 20
90.0
 11
108.0
 21
70.0
  0
LINE
  8
0
  6
CONTINUOUS
 62
     7
 10
-262.2472
 20
-180.0
 11
-262.2472
 21
180.0
  0
LINE
  8
0
  6
CONTINUOUS
 62
     7
 10
262.2472
 20
180.0
 11
262.2472
 21
-180.0
  0
LINE
  8
0
  6
CONTINUOUS
 62
     7
 10
-262.2472
 20
-180.0
 11
262.2472
 21
-180.0
  0
LINE
  8
0
  6
CONTINUOUS
 62
     7
 10
-262.2472
 20
180.0
 11
262.2472
 21
180.0
  0
LINE
  8
0
  6
CONTINUOUS
 62
     7
 10
-262.2472
 20
159.7753
 11
-154.382
 21
159.7753
  0
LINE
  8
0
  6
CONTINUOUS
 62
     7
 10
-154.382
 20
159.7753
 11
-154.382
 21
180.0
  0
LINE
  8
0
  6
CONTINUOUS
 62
     7
 10
154.382
 20
-159.7753
 11
262.2472
 21
-159.7753
  0
LINE
  8
0
  6
CONTINUOUS
 62
     7
 10
182.7034
 20
-164.6383
 11
193.0652
 21
-164.6383
  0
LINE
  8
0
  6
CONTINUOUS
 62
     7
 10
182.7034
 20
-173.8271
 11
191.5012
 21
-173.8271
  0
LINE
  8
0
  6
CONTINUOUS
 62
     7
 10
182.7034
 20
-176.1732
 11
194.6293
 21
-176.1732
  0
LINE
  8
0
  6
CONTINUOUS
 62
     7
 10
182.7034
 20
-166.9844
 11
191.5012
 21
-166.9844
  0
LINE
  8
0
  6
CONTINUOUS
 62
     7
 10
182.7034
 20
-164.6383
 11
182.7034
 21
-166.9844
  0
LINE
  8
0
  6
CONTINUOUS
 62
     7
 10
194.6293
 20
-166.2024
 11
194.6293
 21
-176.1732
  0
LINE
  8
0
  6
CONTINUOUS
 62
     7
 10
191.5012
 20
-166.9844
 11
191.5012
 21
-173.8271
  0
LINE
  8
0
  6
CONTINUOUS
 62
     7
 10
196.3888
 20
-164.6383
 11
196.3888
 21
-166.9844
  0
LINE
  8
0
  6
CONTINUOUS
 62
     7
 10
207.5326
 20
-166.9844
 11
207.5326
 21
-174.6092
  0
LINE
  8
0
  6
CONTINUOUS
 62
     7
 10
204.4045
 20
-166.9844
 11
204.4045
 21
-173.8271
  0
LINE
  8
0
  6
CONTINUOUS
 62
     7
 10
182.7034
 20
-173.8271
 11
182.7034
 21
-176.1732
  0
LINE
  8
0
  6
CONTINUOUS
 62
     7
 10
196.3888
 20
-164.6383
 11
199.4796
 21
-164.6383
  0
LINE
  8
0
  6
CONTINUOUS
 62
     7
 10
196.3888
 20
-176.1732
 11
198.8176
 21
-176.1732
  0
LINE
  8
0
  6
CONTINUOUS
 62
     7
 10
196.3887
 20
-176.1731
 11
198.8509
 21
-166.9844
  0
LINE
  8
0
  6
CONTINUOUS
 62
     7
 10
196.3888
 20
-166.9844
 11
198.8509
 21
-166.9844
  0
LINE
  8
0
  6
CONTINUOUS
 62
     7
 10
198.8178
 20
-176.1733
 11
201.2799
 21
-166.9845
  0
LINE
  8
0
  6
CONTINUOUS
 62
     7
 10
202.0584
 20
-173.8271
 11
204.4045
 21
-173.8271
  0
LINE
  8
0
  6
CONTINUOUS
 62
     7
 10
202.0584
 20
-173.8271
 11
202.6869
 21
-176.1731
  0
LINE
  8
0
  6
CONTINUOUS
 62
     7
 10
202.6871
 20
-176.1732
 11
205.9686
 21
-176.1732
  0
LINE
  8
0
  6
CONTINUOUS
 62
     7
 10
201.2798
 20
-166.9844
 11
204.4045
 21
-166.9844
  0
LINE
  8
0
  6
CONTINUOUS
 62
     7
 10
201.9084
 20
-164.6383
 11
205.1865
 21
-164.6383
  0
LINE
  8
0
  6
CONTINUOUS
 62
     7
 10
199.4796
 20
-164.6384
 11
199.9458
 21
-162.8984
  0
LINE
  8
0
  6
CONTINUOUS
 62
     7
 10
201.9082
 20
-164.6382
 11
202.3744
 21
-162.8982
  0
LINE
  8
0
  6
CONTINUOUS
 62
     7
 10
209.4877
 20
-164.6383
 11
213.2023
 21
-164.6383
  0
LINE
  8
0
  6
CONTINUOUS
 62
     7
 10
209.4877
 20
-166.9844
 11
218.6106
 21
-166.9844
  0
LINE
  8
0
  6
CONTINUOUS
 62
     7
 10
213.2023
 20
-176.1732
 11
216.3303
 21
-176.1732
  0
LINE
  8
0
  6
CONTINUOUS
 62
     7
 10
209.4877
 20
-164.6383
 11
209.4877
 21
-166.9844
  0
LINE
  8
0
  6
CONTINUOUS
 62
     7
 10
221.0225
 20
-171.2385
 11
221.0225
 21
-173.8271
  0
LINE
  8
0
  6
CONTINUOUS
 62
     7
 10
209.4875
 20
-173.827
 11
213.2022
 21
-172.0948
  0
LINE
  8
0
  6
CONTINUOUS
 62
     7
 10
209.4879
 20
-171.2387
 11
218.6108
 21
-166.9846
  0
LINE
  8
0
  6
CONTINUOUS
 62
     7
 10
209.4877
 20
-171.2385
 11
209.4877
 21
-173.8271
  0
LINE
  8
0
  6
CONTINUOUS
 62
     7
 10
216.3302
 20
-171.6391
 11
221.0225
 21
-173.827
  0
LINE
  8
0
  6
CONTINUOUS
 62
     7
 10
218.0311
 20
-169.8436
 11
221.0228
 21
-171.2387
  0
LINE
  8
0
  6
CONTINUOUS
 62
     7
 10
221.0225
 20
-166.2024
 11
221.0225
 21
-167.4519
  0
LINE
  8
0
  6
CONTINUOUS
 62
     7
 10
213.2023
 20
-162.8984
 11
213.2023
 21
-164.6383
  0
LINE
  8
0
  6
CONTINUOUS
 62
     7
 10
216.3303
 20
-162.8984
 11
216.3303
 21
-164.6383
  0
LINE
  8
0
  6
CONTINUOUS
 62
     7
 10
216.3303
 20
-164.6383
 11
219.4585
 21
-164.6383
  0
LINE
  8
0
  6
CONTINUOUS
 62
     7
 10
213.2023
 20
-172.095
 11
213.2023
 21
-176.1732
  0
LINE
  8
0
  6
CONTINUOUS
 62
     7
 10
216.3303
 20
-171.6392
 11
216.3303
 21
-176.1732
  0
LINE
  8
0
  6
CONTINUOUS
 62
     7
 10
218.031
 20
-169.8436
 11
220.1197
 21
-168.8696
  0
LINE
  8
0
  6
CONTINUOUS
 62
     7
 10
231.5798
 20
-163.6022
 11
233.9258
 21
-163.6022
  0
LINE
  8
0
  6
CONTINUOUS
 62
     7
 10
222.0001
 20
-168.4483
 11
222.0001
 21
-170.9731
  0
LINE
  8
0
  6
CONTINUOUS
 62
     7
 10
233.9258
 20
-163.6022
 11
233.9258
 21
-164.6383
  0
LINE
  8
0
  6
CONTINUOUS
 62
     7
 10
231.5798
 20
-163.6022
 11
231.5798
 21
-164.1077
  0
LINE
  8
0
  6
CONTINUOUS
 62
     7
 10
228.4517
 20
-168.4072
 11
228.4517
 21
-176.1732
  0
LINE
  8
0
  6
CONTINUOUS
 62
     7
 10
222.0001
 20
-168.4484
 11
231.0869
 21
-164.8345
  0
LINE
  8
0
  6
CONTINUOUS
 62
     7
 10
222.0001
 20
-170.9732
 11
228.4517
 21
-168.4073
  0
LINE
  8
0
  6
CONTINUOUS
 62
     7
 10
228.4517
 20
-176.1732
 11
231.5798
 21
-176.1732
  0
LINE
  8
0
  6
CONTINUOUS
 62
     7
 10
231.5798
 20
-167.1632
 11
231.5798
 21
-176.1732
  0
LINE
  8
0
  6
CONTINUOUS
 62
     7
 10
231.5801
 20
-167.1633
 11
232.4471
 21
-166.8185
  0
LINE
  8
0
  6
CONTINUOUS
 62
     7
 10
199.7572
 20
-162.8984
 11
202.3746
 21
-162.8984
  0
LINE
  8
0
  6
CONTINUOUS
 62
     7
 10
206.2618
 20
-162.8984
 11
207.2589
 21
-162.8984
  0
LINE
  8
0
  6
CONTINUOUS
 62
     7
 10
213.2023
 20
-162.8984
 11
216.3303
 21
-162.8984
  0
LINE
  8
0
  6
CONTINUOUS
 62
     7
 10
206.2618
 20
-164.4624
 11
207.2589
 21
-164.4624
  0
LINE
  8
0
  6
CONTINUOUS
 62
     7
 10
206.2618
 20
-162.8984
 11
206.2618
 21
-164.4624
  0
LINE
  8
0
  6
CONTINUOUS
 62
     7
 10
207.2589
 20
-162.8984
 11
207.2589
 21
-164.4624
  0
LINE
  8
0
  6
CONTINUOUS
 62
     7
 10
207.8454
 20
-162.8984
 11
207.8454
 21
-164.4624
  0
LINE
  8
0
  6
CONTINUOUS
 62
     7
 10
208.9598
 20
-162.8984
 11
208.9598
 21
-164.4624
  0
LINE
  8
0
  6
CONTINUOUS
 62
     7
 10
207.8454
 20
-162.8984
 11
208.9598
 21
-162.8984
  0
LINE
  8
0
  6
CONTINUOUS
 62
     7
 10
207.8454
 20
-164.4624
 11
208.9598
 21
-164.4624
  0
LINE
  8
0
  6
CONTINUOUS
 62
     7
 10
154.382
 20
159.7753
 11
262.2472
 21
159.7753
  0
LINE
  8
0
  6
CONTINUOUS
 62
     7
 10
154.382
 20
180.0
 11
154.382
 21
159.7753
  0
LINE
  8
0
  6
CONTINUOUS
 62
     7
 10
154.382
 20
-159.7753
 11
154.382
 21
-180.0
  0
LINE
  8
0
  6
PHANTOM
 62
     2
 10
11.00154
 20
16.79999
 11
1.99845
 21
-16.8
  0
LINE
  8
0
  6
PHANTOM
 62
     2
 10
16.00154
 20
96.8
 11
6.99845
 21
63.2
  0
LINE
  8
0
  6
PHANTOM
 62
     2
 10
16.00154
 20
16.8
 11
6.99845
 21
-16.8
  0
LINE
  8
0
  6
CONTINUOUS
 62
     7
 10
16.00154
 20
96.8
 11
67.0
 21
96.8
  0
LINE
  8
0
  6
CONTINUOUS
 62
     7
 10
6.99845
 20
63.2
 11
67.0
 21
63.2
  0
LINE
  8
0
  6
CONTINUOUS
 62
     7
 10
16.00154
 20
16.8
 11
67.0
 21
16.8
  0
LINE
  8
0
  6
CONTINUOUS
 62
     7
 10
6.99845
 20
-16.8
 11
67.0
 21
-16.8
  0
LINE
  8
0
  6
CONTINUOUS
 62
     7
 10
-79.99999
 20
74.99996
 11
-79.0
 21
74.0
  0
LINE
  8
0
  6
CONTINUOUS
 62
     7
 10
-80.0
 20
85.00003
 11
-79.0
 21
86.0
  0
LINE
  8
0
  6
CONTINUOUS
 62
     7
 10
-84.26793
 20
-2.64574
 11
-84.26793
 21
-6.00003
  0
CIRCLE
  8
0
  6
CONTINUOUS
 62
     7
 10
-145.0
 20
0.0
 40
4.0
  0
CIRCLE
  8
0
  6
CONTINUOUS
 62
     7
 10
-145.0
 20
0.0
 40
5.0
  0
CIRCLE
  8
0
  6
CONTINUOUS
 62
     7
 10
-145.0
 20
0.0
 40
12.5
  0
CIRCLE
  8
0
  6
CONTINUOUS
 62
     7
 10
-145.0
 20
0.0
 40
13.5
  0
CIRCLE
  8
0
  6
CONTINUOUS
 62
     7
 10
-145.0
 20
0.0
 40
17.5
  0
ARC
  8
0
  6
CONTINUOUS
 62
     7
 10
157.0
 20
0.0
 40
12.5
 50
36.8699
 51
143.1301
  0
ARC
  8
0
  6
CONTINUOUS
 62
     7
 10
157.0
 20
0.0
 40
12.5
 50
216.8699
 51
323.1301
  0
CIRCLE
  8
0
  6
CONTINUOUS
 62
     7
 10
157.0
 20
0.0
 40
13.5
  0
CIRCLE
  8
0
  6
CONTINUOUS
 62
     7
 10
157.0
 20
0.0
 40
17.5
  0
CIRCLE
  8
0
  6
CONTINUOUS
 62
     7
 10
98.0
 20
0.0
 40
5.0
  0
CIRCLE
  8
0
  6
CONTINUOUS
 62
     7
 10
75.0
 20
80.0
 40
5.0
  0
CIRCLE
  8
0
  6
CONTINUOUS
 62
     7
 10
75.0
 20
80.0
 40
4.0
  0
CIRCLE
  8
0
  6
CONTINUOUS
 62
     7
 10
-82.775
 20
-100.0
 40
4.3
  0
CIRCLE
  8
0
  6
CONTINUOUS
 62
     7
 10
-82.775
 20
-100.0
 40
5.0
  0
CIRCLE
  8
0
  6
CONTINUOUS
 62
     7
 10
-82.775
 20
-100.0
 40
7.0148
  0
ARC
  8
0
  6
CONTINUOUS
 62
     7
 10
-40.18923
 20
-93.925
 40
3.58577
 50
154.3843
 51
214.3837
  0
ARC
  8
0
  6
CONTINUOUS
 62
     7
 10
-30.37171
 20
-100.0
 40
13.4033
 50
162.4123
 51
197.5878
  0
ARC
  8
0
  6
CONTINUOUS
 62
     7
 10
-41.36083
 20
-93.925
 40
3.58577
 50
325.6163
 51
25.6157
  0
ARC
  8
0
  6
CONTINUOUS
 62
     7
 10
-51.17835
 20
-100.0
 40
13.4033
 50
342.4122
 51
17.58766
  0
ARC
  8
0
  6
CONTINUOUS
 62
     7
 10
-40.18923
 20
-106.075
 40
3.58577
 50
145.6163
 51
205.6156
  0
ARC
  8
0
  6
CONTINUOUS
 62
     7
 10
-41.36083
 20
-106.075
 40
3.58577
 50
334.3843
 51
34.38372
  0
CIRCLE
  8
0
  6
CONTINUOUS
 62
     7
 10
36.0
 20
-100.0
 40
18.01328
  0
CIRCLE
  8
0
  6
CONTINUOUS
 62
     7
 10
36.0
 20
-100.0
 40
13.5
  0
CIRCLE
  8
0
  6
CONTINUOUS
 62
     7
 10
36.0
 20
-100.0
 40
12.5
  0
ARC
  8
0
  6
CONTINUOUS
 62
     7
 10
95.70781
 20
-84.40004
 40
9.20782
 50
145.6151
 51
214.3842
  0
ARC
  8
0
  6
CONTINUOUS
 62
     7
 10
120.9174
 20
-100.0
 40
34.41737
 50
162.4119
 51
197.588
  0
ARC
  8
0
  6
CONTINUOUS
 62
     7
 10
95.70781
 20
-115.6
 40
9.20782
 50
145.6157
 51
214.3849
  0
CIRCLE
  8
0
  6
CONTINUOUS
 62
     7
 10
75.0
 20
80.0
 40
1.15
  0
ARC
  8
0
  6
CONTINUOUS
 62
     7
 10
157.0
 20
0.0
 40
11.5
 50
29.59185
 51
150.4082
  0
ARC
  8
0
  6
CONTINUOUS
 62
     7
 10
157.0
 20
0.0
 40
11.5
 50
209.5918
 51
330.4082
  0
ARC
  8
0
  6
CONTINUOUS
 62
     7
 10
193.0652
 20
-166.2024
 40
1.56404
 50
0.0
 51
89.99999
  0
ARC
  8
0
  6
CONTINUOUS
 62
     7
 10
205.9686
 20
-174.6092
 40
1.56404
 50
270.0
 51
0.0
  0
ARC
  8
0
  6
CONTINUOUS
 62
     7
 10
205.1865
 20
-166.9844
 40
2.34607
 50
0.0
 51
89.99999
  0
ARC
  8
0
  6
CONTINUOUS
 62
     7
 10
219.4585
 20
-166.2024
 40
1.56404
 50
0.0
 51
89.99999
  0
ARC
  8
0
  6
CONTINUOUS
 62
     7
 10
219.4585
 20
-167.4519
 40
1.56405
 50
295.0
 51
0.0
  0
ARC
  8
0
  6
CONTINUOUS
 62
     7
 10
231.5798
 20
-164.6383
 40
2.34607
 50
291.6882
 51
0.0
  0
ARC
  8
0
  6
CONTINUOUS
 62
     7
 10
230.7978
 20
-164.1077
 40
0.78203
 50
291.688
 51
0.0
  0
ARC
  8
0
  6
CONTINUOUS
 62
     7
 10
-82.99998
 20
0.00002
 40
4.0
 50
318.5903
 51
41.40961
  0
ARC
  8
0
  6
CONTINUOUS
 62
     7
 10
-81.26793
 20
0.00002
 40
4.0
 50
138.5904
 51
221.4096
  0
TEXT
  8
0
  6
CONTINUOUS
 62
     7
 10
-111.3107
 20
-84.35
 40
5.0
  1
ROD NUT(M10*1.25)
 41
0.8
  7
STANDARD
  0
TEXT
  8
0
  6
CONTINUOUS
 62
     7
 10
-1.75535
 20
-69.26966
 40
5.0
  1
MOUNT NUT(M27*2)
 41
0.8
  7
STANDARD
  0
TEXT
  8
0
  6
CONTINUOUS
 62
     7
 10
161.9774
 20
167.0677
 40
6.0
  1
DATE : MAR ,1987
 41
0.8
  7
STANDARD
  0
TEXT
  8
0
  6
CONTINUOUS
 62
     7
 10
-252.6446
 20
166.5977
 40
7.0
  1
SLIM CYLINDER
 41
0.8
  7
STANDARD
  0
TEXT
  8
0
  6
CONTINUOUS
 62
     7
 10
-229.2471
 20
127.675
 40
7.0
  1
MODEL : SA 32*ST
 41
0.8
  7
STANDARD
  0
ENDSEC
  0
EOF
