  0
SECTION
  2
HEADER
  9
$ACADVER
  1
AC1009
  9
$INSBASE
 10
0.0
 20
0.0
 30
0.0
  9
$EXTMIN
 10
-138.3999939
 20
-94.80000305
 30
0.0
  9
$EXTMAX
 10
138.3500061
 20
94.5
 30
0.0
  9
$LIMMIN
 10
-138.3999939
 20
-94.80000305
  9
$LIMMAX
 10
138.3500061
 20
94.5
  9
$ORTHOMODE
 70
       0
  9
$REGENMODE
 70
       1
  9
$FILLMODE
 70
       1
  9
$QTEXTMODE
 70
       0
  9
$MIRRTEXT
 70
       1
  9
$DRAGMODE
 70
       2
  9
$LTSCALE
 40
1.0
  9
$OSMODE
 70
       0
  9
$ATTMODE
 70
       1
  9
$TEXTSIZE
 40
3.20000005
  9
$TRACEWID
 40
0.05
  9
$TEXTSTYLE
  7
MX_NOTE_STANDARD
  9
$CLAYER
  8
0
  9
$CELTYPE
  6
CONTINUOUS
  9
$CECOLOR
 62
     256
  9
$DIMSCALE
 40
1.0
  9
$DIMASZ
 40
2.5
  9
$DIMEXO
 40
1.5
  9
$DIMDLI
 40
3.75
  9
$DIMRND
 40
0.0
  9
$DIMDLE
 40
0.0
  9
$DIMEXE
 40
1.5
  9
$DIMTP
 40
0.0
  9
$DIMTM
 40
0.0
  9
$DIMTXT
 40
3.20000005
  9
$DIMCEN
 40
2.5
  9
$DIMTSZ
 40
0.0
  9
$DIMTOL
 70
       0
  9
$DIMLIM
 70
       0
  9
$DIMTIH
 70
       0
  9
$DIMTOH
 70
       0
  9
$DIMSE1
 70
       0
  9
$DIMSE2
 70
       0
  9
$DIMTAD
 70
       1
  9
$DIMZIN
 70
       8
  9
$DIMBLK
  1

  9
$DIMASO
 70
       1
  9
$DIMSHO
 70
       1
  9
$DIMPOST
  1

  9
$DIMAPOST
  1

  9
$DIMALT
 70
       0
  9
$DIMALTD
 70
       4
  9
$DIMALTF
 40
0.0394
  9
$DIMLFAC
 40
1.0
  9
$DIMTOFL
 70
       1
  9
$DIMTVP
 40
0.0
  9
$DIMTIX
 70
       0
  9
$DIMSOXD
 70
       0
  9
$DIMSAH
 70
       0
  9
$DIMBLK1
  1

  9
$DIMBLK2
  1

  9
$DIMSTYLE
  2
MXDIMSTYLE
  9
$DIMCLRD
 70
       0
  9
$DIMCLRE
 70
       0
  9
$DIMCLRT
 70
       0
  9
$DIMTFAC
 40
1.0
  9
$DIMGAP
 40
1.0
  9
$LUNITS
 70
       2
  9
$LUPREC
 70
       4
  9
$AXISMODE
 70
       0
  9
$AXISUNIT
 10
0.0
 20
0.0
  9
$SKETCHINC
 40
0.1
  9
$FILLETRAD
 40
0.0
  9
$AUNITS
 70
       0
  9
$AUPREC
 70
       0
  9
$MENU
  1
acad
  9
$ELEVATION
 40
0.0
  9
$PELEVATION
 40
0.0
  9
$THICKNESS
 40
0.0
  9
$LIMCHECK
 70
       0
  9
$BLIPMODE
 70
       1
  9
$CHAMFERA
 40
0.0
  9
$CHAMFERB
 40
0.0
  9
$SKPOLY
 70
       0
  9
$TDCREATE
 40
2452625.682337963
  9
$TDUPDATE
 40
2452625.682337963
  9
$TDINDWG
 40
0.0000000000
  9
$TDUSRTIMER
 40
0.0000000000
  9
$USRTIMER
 70
       1
  9
$ANGBASE
 50
0.0
  9
$ANGDIR
 70
       0
  9
$PDMODE
 70
       0
  9
$PDSIZE
 40
0.0
  9
$PLINEWID
 40
0.0
  9
$COORDS
 70
       1
  9
$SPLFRAME
 70
       0
  9
$SPLINETYPE
 70
       6
  9
$SPLINESEGS
 70
       8
  9
$ATTDIA
 70
       0
  9
$ATTREQ
 70
       1
  9
$HANDLING
 70
       1
  9
$HANDSEED
  5
1E8
  9
$SURFTAB1
 70
       6
  9
$SURFTAB2
 70
       6
  9
$SURFTYPE
 70
       6
  9
$SURFU
 70
       6
  9
$SURFV
 70
       6
  9
$UCSNAME
  2

  9
$UCSORG
 10
0.0
 20
0.0
 30
0.0
  9
$UCSXDIR
 10
1.0
 20
0.0
 30
0.0
  9
$UCSYDIR
 10
0.0
 20
1.0
 30
0.0
  9
$PUCSNAME
  2

  9
$PUCSORG
 10
0.0
 20
0.0
 30
0.0
  9
$PUCSXDIR
 10
1.0
 20
0.0
 30
0.0
  9
$PUCSYDIR
 10
0.0
 20
1.0
 30
0.0
  9
$USERI1
 70
       0
  9
$USERI2
 70
       0
  9
$USERI3
 70
       0
  9
$USERI4
 70
       0
  9
$USERI5
 70
       0
  9
$USERR1
 40
0.0
  9
$USERR2
 40
0.0
  9
$USERR3
 40
0.0
  9
$USERR4
 40
0.0
  9
$USERR5
 40
0.0
  9
$WORLDVIEW
 70
       1
  9
$SHADEDGE
 70
       3
  9
$SHADEDIF
 70
      70
  9
$TILEMODE
 70
       1
  9
$MAXACTVP
 70
      16
  9
$PINSBASE
 10
0.0
 20
0.0
 30
0.0
  9
$PLIMCHECK
 70
       0
  9
$PEXTMIN
 10
1.00000000E+20
 20
1.00000000E+20
 30
1.00000000E+20
  9
$PEXTMAX
 10
-1.00000000E+20
 20
-1.00000000E+20
 30
-1.00000000E+20
  9
$PLIMMIN
 10
0.0
 20
0.0
  9
$PLIMMAX
 10
12.0
 20
9.0
  9
$UNITMODE
 70
       0
  9
$VISRETAIN
 70
       0
  9
$PLINEGEN
 70
       1
  9
$PSLTSCALE
 70
       0
  9
$TREEDEPTH
 70
    3020
  9
$DWGCODEPAGE
  3
dos932
  0
ENDSEC
  0
SECTION
  2
TABLES
  0
TABLE
  2
VPORT
 70
       1
  0
VPORT
  2
*ACTIVE
 70
       0
 10
0.0
 20
0.0
 11
1.0
 21
1.0
 12
-0.0249939
 22
-0.15000153
 13
0.0
 23
0.0
 14
1.0
 24
1.0
 15
0.0
 25
0.0
 16
0.0
 26
0.0
 36
1.0
 17
0.0
 27
0.0
 37
0.0
 40
191.19300308
 41
1.73205081
 42
50.0
 43
0.0
 44
0.0
 50
0.0
 51
0.0
 71
       0
 72
     100
 73
       1
 74
       1
 75
       0
 76
       0
 77
       0
 78
       0
  0
ENDTAB
  0
TABLE
  2
LTYPE
 70
       3
  0
LTYPE
  2
CONTINUOUS
 70
      64
  3
Solid line
 72
      65
 73
       0
 40
0.0
  0
LTYPE
  2
CENTER
 70
      64
  3
Center ____ _ ____ _ ____ _ ____ _ ____ _ ____
 72
      65
 73
       4
 40
50.8
 49
31.75
 49
-6.35
 49
6.35
 49
-6.35
  0
LTYPE
  2
PHANTOM
 70
      64
  3
Phantom ______  __  __  ______  __  __  ______
 72
      65
 73
       6
 40
63.5
 49
31.75
 49
-6.35
 49
6.35
 49
-6.35
 49
6.35
 49
-6.35
  0
ENDTAB
  0
TABLE
  2
LAYER
 70
       2
  0
LAYER
  2
0
 70
       0
 62
       7
  6
CONTINUOUS
  0
LAYER
  2
DEFPOINTS
 70
       0
 62
       7
  6
CONTINUOUS
  0
ENDTAB
  0
TABLE
  2
STYLE
 70
       1
  0
STYLE
  2
MX_NOTE_STANDARD
 70
       0
 40
3.20000005
 41
1.0
 50
0.0
 71
       0
 42
3.20000005
  3
txt.shx
  4
extfont.shx
  0
ENDTAB
  0
TABLE
  2
VIEW
 70
       0
  0
ENDTAB
  0
TABLE
  2
UCS
 70
       0
  0
ENDTAB
  0
TABLE
  2
APPID
 70
       1
  0
APPID
  2
ACAD
 70
       0
  0
ENDTAB
  0
TABLE
  2
DIMSTYLE
 70
       1
  0
DIMSTYLE
  2
MXDIMSTYLE
 70
       0
  3

  4

  5

  6

  7

 40
1.0
 41
2.5
 42
1.5
 43
3.75
 44
1.5
 45
0.0
 46
0.0
 47
0.0
 48
0.0
 71
       0
 72
       0
 73
       0
 74
       0
 75
       0
 76
       0
 77
       1
 78
       8
140
3.20000005
141
2.5
142
0.0
143
0.0394
144
1.0
145
0.0
146
1.0
147
1.0
170
       0
171
       4
172
       1
173
       0
174
       0
175
       0
176
       0
177
       0
178
       0
  0
ENDTAB
  0
ENDSEC
  0
SECTION
  2
BLOCKS
  0
BLOCK
  8
0
  6
BYBLOCK
 62
       0
  5
1D1
  2
_OPEN30
 70
       2
 10
0.0
 20
0.0
 30
0.0
  3
_OPEN30
  0
LINE
  8
0
  6
BYBLOCK
 62
       0
  5
1D2
 10
-1.0
 20
0.267949
 30
0.0
 11
0.0
 21
0.0
 31
0.0
  0
LINE
  8
0
  6
BYBLOCK
 62
       0
  5
1D3
 10
0.0
 20
0.0
 30
0.0
 11
-1.0
 21
-0.267949
 31
0.0
  0
LINE
  8
0
  6
BYBLOCK
 62
       0
  5
1D4
 10
0.0
 20
0.0
 30
0.0
 11
-1.0
 21
0.0
 31
0.0
  0
ENDBLK
  8
0
  6
BYBLOCK
 62
       0
  5
1D5
  0
ENDSEC
  0
SECTION
  2
ENTITIES
  0
LINE
  8
0
  6
CENTER
 62
       2
  5
1F
 10
-22.30485901
 20
-21.6008862
 30
0.0
 11
-22.30485901
 21
-26.6608862
 31
0.0
  0
LINE
  8
0
  6
CENTER
 62
       2
  5
20
 10
81.68514099
 20
-21.6008862
 30
0.0
 11
81.68514099
 21
-26.6608862
 31
0.0
  0
LINE
  8
0
  6
CENTER
 62
       2
  5
21
 10
-33.30485901
 20
64.4291138
 30
0.0
 11
-33.30485901
 21
24.7691138
 31
0.0
  0
LINE
  8
0
  6
CENTER
 62
       2
  5
22
 10
60.93514099
 20
-43.9608862
 30
0.0
 11
80.27514099
 21
-43.9608862
 31
0.0
  0
LINE
  8
0
  6
CONTINUOUS
 62
       7
  5
23
 10
56.68514099
 20
-23.1608862
 30
0.0
 11
56.68514099
 21
-28.4608862
 31
0.0
  0
LINE
  8
0
  6
CONTINUOUS
 62
       7
  5
24
 10
84.68514099
 20
-23.1608862
 30
0.0
 11
84.68514099
 21
-28.4608862
 31
0.0
  0
LINE
  8
0
  6
CONTINUOUS
 62
       7
  5
25
 10
82.68514099
 20
-15.1608862
 30
0.0
 11
82.68514099
 21
-16.1608862
 31
0.0
  0
LINE
  8
0
  6
CONTINUOUS
 62
       7
  5
26
 10
58.68514099
 20
-15.1608862
 30
0.0
 11
58.68514099
 21
-16.1608862
 31
0.0
  0
LINE
  8
0
  6
CONTINUOUS
 62
       7
  5
27
 10
60.68514099
 20
-12.1608862
 30
0.0
 11
80.68514099
 21
-12.1608862
 31
0.0
  0
LINE
  8
0
  6
CONTINUOUS
 62
       7
  5
28
 10
81.68514099
 20
-13.1608862
 30
0.0
 11
81.68514099
 21
-16.1608862
 31
0.0
  0
LINE
  8
0
  6
CONTINUOUS
 62
       7
  5
29
 10
59.68514099
 20
-13.1608862
 30
0.0
 11
59.68514099
 21
-16.1608862
 31
0.0
  0
LINE
  8
0
  6
CONTINUOUS
 62
       7
  5
2A
 10
59.68514099
 20
-13.1608862
 30
0.0
 11
60.68514099
 21
-12.1608862
 31
0.0
  0
LINE
  8
0
  6
CONTINUOUS
 62
       7
  5
2B
 10
80.68514099
 20
-12.1608862
 30
0.0
 11
81.68514099
 21
-13.1608862
 31
0.0
  0
LINE
  8
0
  6
CONTINUOUS
 62
       7
  5
2C
 10
81.68514099
 20
-14.1608862
 30
0.0
 11
82.68514099
 21
-15.1608862
 31
0.0
  0
LINE
  8
0
  6
CONTINUOUS
 62
       7
  5
2D
 10
59.68514099
 20
-14.1608862
 30
0.0
 11
58.68514099
 21
-15.1608862
 31
0.0
  0
LINE
  8
0
  6
CONTINUOUS
 62
       7
  5
2E
 10
57.18514099
 20
-21.1608862
 30
0.0
 11
84.18514099
 21
-21.1608862
 31
0.0
  0
LINE
  8
0
  6
CONTINUOUS
 62
       7
  5
2F
 10
62.00514099
 20
11.1391138
 30
0.0
 11
79.36514099
 21
11.1391138
 31
0.0
  0
LINE
  8
0
  6
CONTINUOUS
 62
       7
  5
30
 10
60.18514099
 20
-8.8608862
 30
0.0
 11
81.18514099
 21
-8.8608862
 31
0.0
  0
LINE
  8
0
  6
CONTINUOUS
 62
       7
  5
31
 10
81.18514099
 20
-8.8608862
 30
0.0
 11
81.65514099
 21
-8.4008862
 31
0.0
  0
LINE
  8
0
  6
CONTINUOUS
 62
       7
  5
32
 10
60.18514099
 20
-8.8608862
 30
0.0
 11
59.71514099
 21
-8.4008862
 31
0.0
  0
LINE
  8
0
  6
CONTINUOUS
 62
       7
  5
33
 10
59.98514099
 20
8.5591138
 30
0.0
 11
60.98514099
 21
9.1391138
 31
0.0
  0
LINE
  8
0
  6
CONTINUOUS
 62
       7
  5
34
 10
80.38514099
 20
9.1391138
 30
0.0
 11
81.38514099
 21
8.5591138
 31
0.0
  0
LINE
  8
0
  6
CONTINUOUS
 62
       7
  5
35
 10
59.98514099
 20
8.5591138
 30
0.0
 11
59.71514099
 21
-8.4008862
 31
0.0
  0
LINE
  8
0
  6
CONTINUOUS
 62
       7
  5
36
 10
81.38514099
 20
8.5591138
 30
0.0
 11
81.65514099
 21
-8.4008862
 31
0.0
  0
LINE
  8
0
  6
CONTINUOUS
 62
       7
  5
37
 10
59.74514099
 20
-6.3608862
 30
0.0
 11
60.68514099
 21
-5.8208862
 31
0.0
  0
LINE
  8
0
  6
CONTINUOUS
 62
       7
  5
38
 10
80.68514099
 20
-5.8208862
 30
0.0
 11
81.62514099
 21
-6.3608862
 31
0.0
  0
LINE
  8
0
  6
CONTINUOUS
 62
       7
  5
39
 10
60.68514099
 20
-5.8208862
 30
0.0
 11
61.00514099
 21
10.1591138
 31
0.0
  0
LINE
  8
0
  6
CONTINUOUS
 62
       7
  5
3A
 10
80.68514099
 20
-5.8208862
 30
0.0
 11
80.36514099
 21
10.1591138
 31
0.0
  0
LINE
  8
0
  6
CONTINUOUS
 62
       7
  5
3B
 10
52.18514099
 20
-58.4608862
 30
0.0
 11
53.68514099
 21
-58.4608862
 31
0.0
  0
LINE
  8
0
  6
CONTINUOUS
 62
       7
  5
3C
 10
53.68514099
 20
-28.9608862
 30
0.0
 11
53.68514099
 21
-58.4608862
 31
0.0
  0
LINE
  8
0
  6
CONTINUOUS
 62
       7
  5
3D
 10
87.68514099
 20
-28.9608862
 30
0.0
 11
87.68514099
 21
-58.4608862
 31
0.0
  0
LINE
  8
0
  6
CONTINUOUS
 62
       7
  5
3E
 10
53.68514099
 20
-28.9608862
 30
0.0
 11
54.18514099
 21
-28.4608862
 31
0.0
  0
LINE
  8
0
  6
CONTINUOUS
 62
       7
  5
3F
 10
87.18514099
 20
-28.4608862
 30
0.0
 11
87.68514099
 21
-28.9608862
 31
0.0
  0
LINE
  8
0
  6
CONTINUOUS
 62
       7
  5
40
 10
55.09514099
 20
-20.6608862
 30
0.0
 11
86.27514099
 21
-20.6608862
 31
0.0
  0
LINE
  8
0
  6
CONTINUOUS
 62
       7
  5
41
 10
57.18514099
 20
-20.6608862
 30
0.0
 11
57.18514099
 21
-21.1608862
 31
0.0
  0
LINE
  8
0
  6
CONTINUOUS
 62
       7
  5
42
 10
84.18514099
 20
-20.6608862
 30
0.0
 11
84.18514099
 21
-21.1608862
 31
0.0
  0
LINE
  8
0
  6
CONTINUOUS
 62
       7
  5
43
 10
57.18514099
 20
-16.1608862
 30
0.0
 11
84.18514099
 21
-16.1608862
 31
0.0
  0
LINE
  8
0
  6
CENTER
 62
       2
  5
44
 10
59.68514099
 20
-21.6008862
 30
0.0
 11
59.68514099
 21
-26.6608862
 31
0.0
  0
LINE
  8
0
  6
CONTINUOUS
 62
       7
  5
45
 10
56.88514099
 20
-23.4908862
 30
0.0
 11
56.88514099
 21
-25.4608862
 31
0.0
  0
LINE
  8
0
  6
CONTINUOUS
 62
       7
  5
46
 10
54.18514099
 20
-28.4608862
 30
0.0
 11
87.18514099
 21
-28.4608862
 31
0.0
  0
LINE
  8
0
  6
CONTINUOUS
 62
       7
  5
47
 10
67.68514099
 20
8.5591138
 30
0.0
 11
67.68514099
 21
-6.3608862
 31
0.0
  0
LINE
  8
0
  6
CONTINUOUS
 62
       7
  5
48
 10
67.37514099
 20
9.1391138
 30
0.0
 11
67.37514099
 21
-5.8208862
 31
0.0
  0
LINE
  8
0
  6
CONTINUOUS
 62
       7
  5
49
 10
66.57514099
 20
9.1391138
 30
0.0
 11
66.57514099
 21
-5.8208862
 31
0.0
  0
LINE
  8
0
  6
CONTINUOUS
 62
       7
  5
4A
 10
65.54514099
 20
8.5591138
 30
0.0
 11
65.54514099
 21
-6.3608862
 31
0.0
  0
LINE
  8
0
  6
CONTINUOUS
 62
       7
  5
4B
 10
67.37514099
 20
9.1391138
 30
0.0
 11
73.99514099
 21
9.1391138
 31
0.0
  0
LINE
  8
0
  6
CONTINUOUS
 62
       7
  5
4C
 10
67.68514099
 20
8.5591138
 30
0.0
 11
73.68514099
 21
8.5591138
 31
0.0
  0
LINE
  8
0
  6
CONTINUOUS
 62
       7
  5
4D
 10
61.29514099
 20
8.5591138
 30
0.0
 11
61.29514099
 21
-6.3608862
 31
0.0
  0
LINE
  8
0
  6
CONTINUOUS
 62
       7
  5
4E
 10
61.29514099
 20
8.5591138
 30
0.0
 11
65.54514099
 21
8.5591138
 31
0.0
  0
LINE
  8
0
  6
CONTINUOUS
 62
       7
  5
4F
 10
61.89514099
 20
9.1391138
 30
0.0
 11
66.57514099
 21
9.1391138
 31
0.0
  0
LINE
  8
0
  6
CONTINUOUS
 62
       7
  5
50
 10
66.57514099
 20
-5.8208862
 30
0.0
 11
67.37514099
 21
-5.8208862
 31
0.0
  0
LINE
  8
0
  6
CONTINUOUS
 62
       7
  5
51
 10
65.54514099
 20
-6.3608862
 30
0.0
 11
67.68514099
 21
-6.3608862
 31
0.0
  0
LINE
  8
0
  6
CONTINUOUS
 62
       7
  5
52
 10
59.74514099
 20
-6.3608862
 30
0.0
 11
61.29514099
 21
-6.3608862
 31
0.0
  0
LINE
  8
0
  6
CONTINUOUS
 62
       7
  5
53
 10
66.57514099
 20
9.1391138
 30
0.0
 11
65.54514099
 21
8.5591138
 31
0.0
  0
LINE
  8
0
  6
CONTINUOUS
 62
       7
  5
54
 10
67.37514099
 20
9.1391138
 30
0.0
 11
67.68514099
 21
8.5591138
 31
0.0
  0
LINE
  8
0
  6
CONTINUOUS
 62
       7
  5
55
 10
61.89514099
 20
9.1391138
 30
0.0
 11
61.29514099
 21
8.5591138
 31
0.0
  0
LINE
  8
0
  6
CONTINUOUS
 62
       7
  5
56
 10
66.57514099
 20
-5.8208862
 30
0.0
 11
65.54514099
 21
-6.3608862
 31
0.0
  0
LINE
  8
0
  6
CONTINUOUS
 62
       7
  5
57
 10
67.37514099
 20
-5.8208862
 30
0.0
 11
67.68514099
 21
-6.3608862
 31
0.0
  0
LINE
  8
0
  6
CONTINUOUS
 62
       7
  5
58
 10
60.68514099
 20
-5.8208862
 30
0.0
 11
61.29514099
 21
-5.8208862
 31
0.0
  0
LINE
  8
0
  6
CONTINUOUS
 62
       7
  5
59
 10
80.68514099
 20
-5.8208862
 30
0.0
 11
80.06514099
 21
-5.8208862
 31
0.0
  0
LINE
  8
0
  6
CONTINUOUS
 62
       7
  5
5A
 10
81.62514099
 20
-6.3608862
 30
0.0
 11
80.06514099
 21
-6.3608862
 31
0.0
  0
LINE
  8
0
  6
CONTINUOUS
 62
       7
  5
5B
 10
80.06514099
 20
8.5591138
 30
0.0
 11
80.06514099
 21
-6.3608862
 31
0.0
  0
LINE
  8
0
  6
CONTINUOUS
 62
       7
  5
5C
 10
80.06514099
 20
8.5591138
 30
0.0
 11
75.82514099
 21
8.5591138
 31
0.0
  0
LINE
  8
0
  6
CONTINUOUS
 62
       7
  5
5D
 10
79.47514099
 20
9.1391138
 30
0.0
 11
80.06514099
 21
8.5591138
 31
0.0
  0
LINE
  8
0
  6
CONTINUOUS
 62
       7
  5
5E
 10
79.47514099
 20
9.1391138
 30
0.0
 11
74.79514099
 21
9.1391138
 31
0.0
  0
LINE
  8
0
  6
CONTINUOUS
 62
       7
  5
5F
 10
74.79514099
 20
9.1391138
 30
0.0
 11
75.82514099
 21
8.5591138
 31
0.0
  0
LINE
  8
0
  6
CONTINUOUS
 62
       7
  5
60
 10
75.82514099
 20
8.5591138
 30
0.0
 11
75.82514099
 21
-6.3608862
 31
0.0
  0
LINE
  8
0
  6
CONTINUOUS
 62
       7
  5
61
 10
74.79514099
 20
9.1391138
 30
0.0
 11
74.79514099
 21
-5.8208862
 31
0.0
  0
LINE
  8
0
  6
CONTINUOUS
 62
       7
  5
62
 10
73.99514099
 20
9.1391138
 30
0.0
 11
73.99514099
 21
-5.8208862
 31
0.0
  0
LINE
  8
0
  6
CONTINUOUS
 62
       7
  5
63
 10
73.68514099
 20
8.5591138
 30
0.0
 11
73.68514099
 21
-6.3608862
 31
0.0
  0
LINE
  8
0
  6
CONTINUOUS
 62
       7
  5
64
 10
74.79514099
 20
-5.8208862
 30
0.0
 11
73.99514099
 21
-5.8208862
 31
0.0
  0
LINE
  8
0
  6
CONTINUOUS
 62
       7
  5
65
 10
73.99514099
 20
-5.8208862
 30
0.0
 11
73.68514099
 21
-6.3608862
 31
0.0
  0
LINE
  8
0
  6
CONTINUOUS
 62
       7
  5
66
 10
75.82514099
 20
-6.3608862
 30
0.0
 11
73.68514099
 21
-6.3608862
 31
0.0
  0
LINE
  8
0
  6
CONTINUOUS
 62
       7
  5
67
 10
74.79514099
 20
-5.8208862
 30
0.0
 11
75.82514099
 21
-6.3608862
 31
0.0
  0
LINE
  8
0
  6
CONTINUOUS
 62
       7
  5
68
 10
73.99514099
 20
9.1391138
 30
0.0
 11
73.68514099
 21
8.5591138
 31
0.0
  0
LINE
  8
0
  6
CONTINUOUS
 62
       7
  5
69
 10
56.88514099
 20
-25.4608862
 30
0.0
 11
62.68514099
 21
-25.4608862
 31
0.0
  0
LINE
  8
0
  6
CONTINUOUS
 62
       7
  5
6A
 10
78.68514099
 20
-23.1608862
 30
0.0
 11
78.68514099
 21
-25.4608862
 31
0.0
  0
LINE
  8
0
  6
CONTINUOUS
 62
       7
  5
6B
 10
62.68514099
 20
-23.1608862
 30
0.0
 11
62.68514099
 21
-25.4608862
 31
0.0
  0
LINE
  8
0
  6
CONTINUOUS
 62
       7
  5
6C
 10
78.68514099
 20
-25.4608862
 30
0.0
 11
84.48514099
 21
-25.4608862
 31
0.0
  0
LINE
  8
0
  6
CONTINUOUS
 62
       7
  5
6D
 10
57.68514099
 20
-22.1608862
 30
0.0
 11
58.68514099
 21
-22.1608862
 31
0.0
  0
LINE
  8
0
  6
CONTINUOUS
 62
       7
  5
6E
 10
62.48514099
 20
-23.4908862
 30
0.0
 11
62.48514099
 21
-25.4608862
 31
0.0
  0
LINE
  8
0
  6
CONTINUOUS
 62
       7
  5
6F
 10
60.67514099
 20
-22.1608862
 30
0.0
 11
80.68514099
 21
-22.1608862
 31
0.0
  0
LINE
  8
0
  6
CONTINUOUS
 62
       7
  5
70
 10
56.88514099
 20
-24.7608862
 30
0.0
 11
62.48514099
 21
-24.7608862
 31
0.0
  0
LINE
  8
0
  6
CONTINUOUS
 62
       7
  5
71
 10
84.48514099
 20
-23.4908862
 30
0.0
 11
84.48514099
 21
-25.4608862
 31
0.0
  0
LINE
  8
0
  6
CONTINUOUS
 62
       7
  5
72
 10
84.48514099
 20
-24.7608862
 30
0.0
 11
78.88514099
 21
-24.7608862
 31
0.0
  0
LINE
  8
0
  6
CONTINUOUS
 62
       7
  5
73
 10
78.88514099
 20
-23.4908862
 30
0.0
 11
78.88514099
 21
-25.4608862
 31
0.0
  0
LINE
  8
0
  6
CONTINUOUS
 62
       7
  5
74
 10
82.67514099
 20
-22.1608862
 30
0.0
 11
83.68514099
 21
-22.1608862
 31
0.0
  0
LINE
  8
0
  6
CONTINUOUS
 62
       7
  5
75
 10
55.09514099
 20
-17.3708862
 30
0.0
 11
55.09514099
 21
-20.6608862
 31
0.0
  0
LINE
  8
0
  6
CONTINUOUS
 62
       7
  5
76
 10
86.27514099
 20
-17.3708862
 30
0.0
 11
86.27514099
 21
-20.6608862
 31
0.0
  0
LINE
  8
0
  6
CONTINUOUS
 62
       7
  5
77
 10
55.09514099
 20
-17.3708862
 30
0.0
 11
57.18514099
 21
-16.1608862
 31
0.0
  0
LINE
  8
0
  6
CONTINUOUS
 62
       7
  5
78
 10
84.18514099
 20
-16.1608862
 30
0.0
 11
86.27514099
 21
-17.3708862
 31
0.0
  0
LINE
  8
0
  6
CONTINUOUS
 62
       7
  5
79
 10
62.88514099
 20
-17.3708862
 30
0.0
 11
62.88514099
 21
-20.6608862
 31
0.0
  0
LINE
  8
0
  6
CONTINUOUS
 62
       7
  5
7A
 10
78.47514099
 20
-17.3708862
 30
0.0
 11
78.47514099
 21
-20.6608862
 31
0.0
  0
LINE
  8
0
  6
CONTINUOUS
 62
       7
  5
7B
 10
59.68514099
 20
-13.1608862
 30
0.0
 11
81.68514099
 21
-13.1608862
 31
0.0
  0
LINE
  8
0
  6
CONTINUOUS
 62
       7
  5
7C
 10
62.00514099
 20
-8.8608862
 30
0.0
 11
62.00514099
 21
-12.1608862
 31
0.0
  0
LINE
  8
0
  6
CONTINUOUS
 62
       7
  5
7D
 10
64.64514099
 20
-8.8608862
 30
0.0
 11
64.64514099
 21
-12.1608862
 31
0.0
  0
LINE
  8
0
  6
CONTINUOUS
 62
       7
  5
7E
 10
68.04514099
 20
-8.8608862
 30
0.0
 11
68.04514099
 21
-12.1608862
 31
0.0
  0
LINE
  8
0
  6
CONTINUOUS
 62
       7
  5
7F
 10
73.32514099
 20
-8.8608862
 30
0.0
 11
73.32514099
 21
-12.1608862
 31
0.0
  0
LINE
  8
0
  6
CONTINUOUS
 62
       7
  5
80
 10
76.72514099
 20
-8.8608862
 30
0.0
 11
76.72514099
 21
-12.1608862
 31
0.0
  0
LINE
  8
0
  6
CONTINUOUS
 62
       7
  5
81
 10
79.36514099
 20
-8.8608862
 30
0.0
 11
79.36514099
 21
-12.1608862
 31
0.0
  0
LINE
  8
0
  6
CONTINUOUS
 62
       7
  5
82
 10
79.58514099
 20
-8.8608862
 30
0.0
 11
79.58514099
 21
-12.1608862
 31
0.0
  0
LINE
  8
0
  6
CONTINUOUS
 62
       7
  5
83
 10
61.78514099
 20
-8.8608862
 30
0.0
 11
61.78514099
 21
-12.1608862
 31
0.0
  0
LINE
  8
0
  6
CONTINUOUS
 62
       7
  5
84
 10
62.19514099
 20
-28.9608862
 30
0.0
 11
62.19514099
 21
-58.4608862
 31
0.0
  0
LINE
  8
0
  6
CONTINUOUS
 62
       7
  5
85
 10
79.16514099
 20
-28.9608862
 30
0.0
 11
79.16514099
 21
-58.4608862
 31
0.0
  0
LINE
  8
0
  6
CONTINUOUS
 62
       7
  5
86
 10
53.68514099
 20
-28.9608862
 30
0.0
 11
87.68514099
 21
-28.9608862
 31
0.0
  0
LINE
  8
0
  6
CONTINUOUS
 62
       7
  5
87
 10
62.19514099
 20
-28.9608862
 30
0.0
 11
62.28514099
 21
-28.4608862
 31
0.0
  0
LINE
  8
0
  6
CONTINUOUS
 62
       7
  5
88
 10
79.08514099
 20
-28.4608862
 30
0.0
 11
79.16514099
 21
-28.9608862
 31
0.0
  0
LINE
  8
0
  6
CENTER
 62
       2
  5
89
 10
51.93514099
 20
-39.4608862
 30
0.0
 11
64.38514099
 21
-39.4608862
 31
0.0
  0
LINE
  8
0
  6
CENTER
 62
       2
  5
8A
 10
76.97514099
 20
-39.4608862
 30
0.0
 11
89.49514099
 21
-39.4608862
 31
0.0
  0
LINE
  8
0
  6
CENTER
 62
       2
  5
8B
 10
-62.80485901
 20
44.4591138
 30
0.0
 11
-2.95485901
 21
44.4591138
 31
0.0
  0
LINE
  8
0
  6
CENTER
 62
       2
  5
8C
 10
70.68514099
 20
15.0991138
 30
0.0
 11
70.68514099
 21
-71.7908862
 31
0.0
  0
LINE
  8
0
  6
CONTINUOUS
 62
       7
  5
8D
 10
-50.30485901
 20
62.9591138
 30
0.0
 11
-50.30485901
 21
52.9491138
 31
0.0
  0
LINE
  8
0
  6
CONTINUOUS
 62
       7
  5
8E
 10
-16.31485901
 20
62.9591138
 30
0.0
 11
-16.31485901
 21
52.9491138
 31
0.0
  0
LINE
  8
0
  6
CONTINUOUS
 62
       7
  5
8F
 10
-41.79485901
 20
27.4591138
 30
0.0
 11
-24.83485901
 21
27.4591138
 31
0.0
  0
LINE
  8
0
  6
CONTINUOUS
 62
       7
  5
90
 10
-41.79485901
 20
61.4591138
 30
0.0
 11
-24.83485901
 21
61.4591138
 31
0.0
  0
LINE
  8
0
  6
CONTINUOUS
 62
       7
  5
91
 10
-44.30485901
 20
58.4591138
 30
0.0
 11
-22.31485901
 21
58.4591138
 31
0.0
  0
LINE
  8
0
  6
CONTINUOUS
 62
       7
  5
92
 10
-44.30485901
 20
30.4591138
 30
0.0
 11
-22.31485901
 21
30.4591138
 31
0.0
  0
LINE
  8
0
  6
CONTINUOUS
 62
       7
  5
93
 10
-19.31485901
 20
55.4591138
 30
0.0
 11
-19.31485901
 21
47.2191138
 31
0.0
  0
LINE
  8
0
  6
CONTINUOUS
 62
       7
  5
94
 10
-47.30485901
 20
55.4591138
 30
0.0
 11
-47.30485901
 21
47.2191138
 31
0.0
  0
LINE
  8
0
  6
CONTINUOUS
 62
       7
  5
95
 10
-41.67485901
 20
27.9591138
 30
0.0
 11
-24.94485901
 21
27.9591138
 31
0.0
  0
LINE
  8
0
  6
CONTINUOUS
 62
       7
  5
96
 10
-41.67485901
 20
60.9591138
 30
0.0
 11
-24.94485901
 21
60.9591138
 31
0.0
  0
LINE
  8
0
  6
CONTINUOUS
 62
       7
  5
97
 10
-16.81485901
 20
52.9491138
 30
0.0
 11
-16.81485901
 21
35.9791138
 31
0.0
  0
LINE
  8
0
  6
CONTINUOUS
 62
       7
  5
98
 10
-49.80485901
 20
52.8291138
 30
0.0
 11
-49.80485901
 21
36.0991138
 31
0.0
  0
LINE
  8
0
  6
CENTER
 62
       2
  5
99
 10
-44.30485901
 20
59.1591138
 30
0.0
 11
-44.30485901
 21
52.2191138
 31
0.0
  0
LINE
  8
0
  6
CENTER
 62
       2
  5
9A
 10
-22.31485901
 20
59.3891138
 30
0.0
 11
-22.31485901
 21
52.1391138
 31
0.0
  0
LINE
  8
0
  6
CENTER
 62
       2
  5
9B
 10
-48.98485901
 20
55.4591138
 30
0.0
 11
-40.42485901
 21
55.4591138
 31
0.0
  0
LINE
  8
0
  6
CENTER
 62
       2
  5
9C
 10
-49.44485901
 20
33.4591138
 30
0.0
 11
-40.65485901
 21
33.4591138
 31
0.0
  0
LINE
  8
0
  6
CENTER
 62
       2
  5
9D
 10
-44.30485901
 20
36.7991138
 30
0.0
 11
-44.30485901
 21
29.8591138
 31
0.0
  0
LINE
  8
0
  6
CENTER
 62
       2
  5
9E
 10
-22.31485901
 20
37.4091138
 30
0.0
 11
-22.31485901
 21
29.4691138
 31
0.0
  0
LINE
  8
0
  6
CENTER
 62
       2
  5
9F
 10
-26.01485901
 20
33.4591138
 30
0.0
 11
-18.22485901
 21
33.4591138
 31
0.0
  0
LINE
  8
0
  6
CENTER
 62
       2
  5
A0
 10
-25.78485901
 20
55.4591138
 30
0.0
 11
-18.22485901
 21
55.4591138
 31
0.0
  0
LINE
  8
0
  6
CONTINUOUS
 62
       7
  5
A1
 10
-46.30485901
 20
36.4591138
 30
0.0
 11
-44.27485901
 21
36.4591138
 31
0.0
  0
LINE
  8
0
  6
CONTINUOUS
 62
       7
  5
A2
 10
-46.30485901
 20
52.4591138
 30
0.0
 11
-44.30485901
 21
52.4591138
 31
0.0
  0
LINE
  8
0
  6
CONTINUOUS
 62
       7
  5
A3
 10
-22.34485901
 20
52.4591138
 30
0.0
 11
-20.31485901
 21
52.4591138
 31
0.0
  0
LINE
  8
0
  6
CONTINUOUS
 62
       7
  5
A4
 10
-22.31485901
 20
36.4591138
 30
0.0
 11
-20.31485901
 21
36.4591138
 31
0.0
  0
LINE
  8
0
  6
CONTINUOUS
 62
       7
  5
A5
 10
-45.80485901
 20
31.9591138
 30
0.0
 11
-43.18485901
 21
34.5791138
 31
0.0
  0
LINE
  8
0
  6
CONTINUOUS
 62
       7
  5
A6
 10
-45.80485901
 20
34.9591138
 30
0.0
 11
-42.80485901
 21
31.9591138
 31
0.0
  0
LINE
  8
0
  6
CONTINUOUS
 62
       7
  5
A7
 10
-45.80485901
 20
53.9591138
 30
0.0
 11
-42.80485901
 21
56.9591138
 31
0.0
  0
LINE
  8
0
  6
CONTINUOUS
 62
       7
  5
A8
 10
-45.80485901
 20
56.9591138
 30
0.0
 11
-43.18485901
 21
54.3491138
 31
0.0
  0
LINE
  8
0
  6
CONTINUOUS
 62
       7
  5
A9
 10
-23.43485901
 20
54.3491138
 30
0.0
 11
-20.81485901
 21
56.9591138
 31
0.0
  0
LINE
  8
0
  6
CONTINUOUS
 62
       7
  5
AA
 10
-23.81485901
 20
56.9591138
 30
0.0
 11
-20.81485901
 21
53.9591138
 31
0.0
  0
LINE
  8
0
  6
CONTINUOUS
 62
       7
  5
AB
 10
-23.81485901
 20
31.9591138
 30
0.0
 11
-20.81485901
 21
34.9591138
 31
0.0
  0
LINE
  8
0
  6
CONTINUOUS
 62
       7
  5
AC
 10
-23.43485901
 20
34.5791138
 30
0.0
 11
-20.81485901
 21
31.9591138
 31
0.0
  0
LINE
  8
0
  6
CONTINUOUS
 62
       7
  5
AD
 10
-28.16485901
 20
35.0791138
 30
0.0
 11
-29.19485901
 21
35.6791138
 31
0.0
  0
LINE
  8
0
  6
CONTINUOUS
 62
       7
  5
AE
 10
-23.93485901
 20
39.3191138
 30
0.0
 11
-24.52485901
 21
40.3591138
 31
0.0
  0
LINE
  8
0
  6
CONTINUOUS
 62
       7
  5
AF
 10
-36.30485901
 20
34.1891138
 30
0.0
 11
-36.61485901
 21
35.3491138
 31
0.0
  0
LINE
  8
0
  6
CONTINUOUS
 62
       7
  5
B0
 10
-30.30485901
 20
34.1891138
 30
0.0
 11
-29.99485901
 21
35.3491138
 31
0.0
  0
LINE
  8
0
  6
CONTINUOUS
 62
       7
  5
B1
 10
-42.69485901
 20
39.3191138
 30
0.0
 11
-42.09485901
 21
40.3591138
 31
0.0
  0
LINE
  8
0
  6
CONTINUOUS
 62
       7
  5
B2
 10
-38.44485901
 20
35.0791138
 30
0.0
 11
-37.41485901
 21
35.6791138
 31
0.0
  0
LINE
  8
0
  6
CONTINUOUS
 62
       7
  5
B3
 10
-43.57485901
 20
47.4591138
 30
0.0
 11
-42.42485901
 21
47.7691138
 31
0.0
  0
LINE
  8
0
  6
CONTINUOUS
 62
       7
  5
B4
 10
-43.57485901
 20
41.4591138
 30
0.0
 11
-42.42485901
 21
41.1591138
 31
0.0
  0
LINE
  8
0
  6
CONTINUOUS
 62
       7
  5
B5
 10
-38.44485901
 20
53.8491138
 30
0.0
 11
-37.41485901
 21
53.2491138
 31
0.0
  0
LINE
  8
0
  6
CONTINUOUS
 62
       7
  5
B6
 10
-42.69485901
 20
49.6091138
 30
0.0
 11
-42.09485901
 21
48.5691138
 31
0.0
  0
LINE
  8
0
  6
CONTINUOUS
 62
       7
  5
B7
 10
-30.30485901
 20
54.7391138
 30
0.0
 11
-29.99485901
 21
53.5791138
 31
0.0
  0
LINE
  8
0
  6
CONTINUOUS
 62
       7
  5
B8
 10
-36.30485901
 20
54.7391138
 30
0.0
 11
-36.61485901
 21
53.5791138
 31
0.0
  0
LINE
  8
0
  6
CONTINUOUS
 62
       7
  5
B9
 10
-23.93485901
 20
49.6091138
 30
0.0
 11
-24.52485901
 21
48.5691138
 31
0.0
  0
LINE
  8
0
  6
CONTINUOUS
 62
       7
  5
BA
 10
-28.16485901
 20
53.8491138
 30
0.0
 11
-29.19485901
 21
53.2491138
 31
0.0
  0
LINE
  8
0
  6
CONTINUOUS
 62
       7
  5
BB
 10
-23.04485901
 20
41.4591138
 30
0.0
 11
-24.19485901
 21
41.1591138
 31
0.0
  0
LINE
  8
0
  6
CONTINUOUS
 62
       7
  5
BC
 10
-23.04485901
 20
47.4591138
 30
0.0
 11
-24.19485901
 21
47.7691138
 31
0.0
  0
LINE
  8
0
  6
CONTINUOUS
 62
       7
  5
BD
 10
-38.20485901
 20
49.4591138
 30
0.0
 11
-28.40485901
 21
49.4591138
 31
0.0
  0
LINE
  8
0
  6
CONTINUOUS
 62
       7
  5
BE
 10
-38.20485901
 20
39.4591138
 30
0.0
 11
-28.40485901
 21
39.4591138
 31
0.0
  0
LINE
  8
0
  6
CONTINUOUS
 62
       7
  5
BF
 10
-48.89485901
 20
44.4591138
 30
0.0
 11
-41.10485901
 21
57.9591138
 31
0.0
  0
LINE
  8
0
  6
CONTINUOUS
 62
       7
  5
C0
 10
-25.52485901
 20
30.9591138
 30
0.0
 11
-17.72485901
 21
44.4591138
 31
0.0
  0
LINE
  8
0
  6
CONTINUOUS
 62
       7
  5
C1
 10
-25.52485901
 20
57.9591138
 30
0.0
 11
-17.72485901
 21
44.4591138
 31
0.0
  0
LINE
  8
0
  6
CONTINUOUS
 62
       7
  5
C2
 10
-48.89485901
 20
44.4591138
 30
0.0
 11
-41.10485901
 21
30.9591138
 31
0.0
  0
LINE
  8
0
  6
CONTINUOUS
 62
       7
  5
C3
 10
-41.10485901
 20
30.9591138
 30
0.0
 11
-25.52485901
 21
30.9591138
 31
0.0
  0
LINE
  8
0
  6
CONTINUOUS
 62
       7
  5
C4
 10
-41.10485901
 20
57.9591138
 30
0.0
 11
-25.52485901
 21
57.9591138
 31
0.0
  0
LINE
  8
0
  6
CONTINUOUS
 62
       7
  5
C5
 10
-47.30485901
 20
41.7091138
 30
0.0
 11
-47.30485901
 21
33.4591138
 31
0.0
  0
LINE
  8
0
  6
CONTINUOUS
 62
       7
  5
C6
 10
-19.31485901
 20
41.7091138
 30
0.0
 11
-19.31485901
 21
33.4591138
 31
0.0
  0
LINE
  8
0
  6
CONTINUOUS
 62
       7
  5
C7
 10
52.18514099
 20
-67.4608862
 30
0.0
 11
89.18514099
 21
-67.4608862
 31
0.0
  0
LINE
  8
0
  6
CONTINUOUS
 62
       7
  5
C8
 10
89.18514099
 20
-58.4608862
 30
0.0
 11
89.18514099
 21
-67.4608862
 31
0.0
  0
LINE
  8
0
  6
CONTINUOUS
 62
       7
  5
C9
 10
52.18514099
 20
-58.4608862
 30
0.0
 11
52.18514099
 21
-67.4608862
 31
0.0
  0
LINE
  8
0
  6
CONTINUOUS
 62
       7
  5
CA
 10
52.18514099
 20
-65.4608862
 30
0.0
 11
89.18514099
 21
-65.4608862
 31
0.0
  0
LINE
  8
0
  6
CONTINUOUS
 62
       7
  5
CB
 10
58.18514099
 20
-65.4608862
 30
0.0
 11
58.18514099
 21
-67.4608862
 31
0.0
  0
LINE
  8
0
  6
CONTINUOUS
 62
       7
  5
CC
 10
83.18514099
 20
-65.4608862
 30
0.0
 11
83.18514099
 21
-67.4608862
 31
0.0
  0
LINE
  8
0
  6
CONTINUOUS
 62
       7
  5
CD
 10
53.68514099
 20
-58.4608862
 30
0.0
 11
87.68514099
 21
-58.4608862
 31
0.0
  0
LINE
  8
0
  6
CONTINUOUS
 62
       7
  5
CE
 10
87.68514099
 20
-58.4608862
 30
0.0
 11
89.18514099
 21
-58.4608862
 31
0.0
  0
LINE
  8
0
  6
CENTER
 62
       2
  5
CF
 10
-33.30485901
 20
13.3991138
 30
0.0
 11
-33.30485901
 21
-17.3708862
 31
0.0
  0
LINE
  8
0
  6
CENTER
 62
       2
  5
D0
 10
-43.05485901
 20
-39.4608862
 30
0.0
 11
-23.72485901
 21
-39.4608862
 31
0.0
  0
LINE
  8
0
  6
CONTINUOUS
 62
       7
  5
D1
 10
-47.30485901
 20
-23.1608862
 30
0.0
 11
-47.30485901
 21
-28.4608862
 31
0.0
  0
LINE
  8
0
  6
CONTINUOUS
 62
       7
  5
D2
 10
-19.31485901
 20
-23.1608862
 30
0.0
 11
-19.31485901
 21
-28.4608862
 31
0.0
  0
LINE
  8
0
  6
CONTINUOUS
 62
       7
  5
D3
 10
-21.31485901
 20
-15.1608862
 30
0.0
 11
-21.31485901
 21
-16.1608862
 31
0.0
  0
LINE
  8
0
  6
CONTINUOUS
 62
       7
  5
D4
 10
-45.30485901
 20
-15.1608862
 30
0.0
 11
-45.30485901
 21
-16.1608862
 31
0.0
  0
LINE
  8
0
  6
CONTINUOUS
 62
       7
  5
D5
 10
-43.30485901
 20
-12.1608862
 30
0.0
 11
-23.31485901
 21
-12.1608862
 31
0.0
  0
LINE
  8
0
  6
CONTINUOUS
 62
       7
  5
D6
 10
-22.31485901
 20
-13.1608862
 30
0.0
 11
-22.31485901
 21
-16.1608862
 31
0.0
  0
LINE
  8
0
  6
CONTINUOUS
 62
       7
  5
D7
 10
-44.30485901
 20
-13.1608862
 30
0.0
 11
-44.30485901
 21
-16.1608862
 31
0.0
  0
LINE
  8
0
  6
CONTINUOUS
 62
       7
  5
D8
 10
-44.30485901
 20
-13.1608862
 30
0.0
 11
-43.30485901
 21
-12.1608862
 31
0.0
  0
LINE
  8
0
  6
CONTINUOUS
 62
       7
  5
D9
 10
-23.31485901
 20
-12.1608862
 30
0.0
 11
-22.31485901
 21
-13.1608862
 31
0.0
  0
LINE
  8
0
  6
CONTINUOUS
 62
       7
  5
DA
 10
-22.31485901
 20
-14.1608862
 30
0.0
 11
-21.31485901
 21
-15.1608862
 31
0.0
  0
LINE
  8
0
  6
CONTINUOUS
 62
       7
  5
DB
 10
-44.30485901
 20
-14.1608862
 30
0.0
 11
-45.30485901
 21
-15.1608862
 31
0.0
  0
LINE
  8
0
  6
CONTINUOUS
 62
       7
  5
DC
 10
-46.80485901
 20
-21.1608862
 30
0.0
 11
-19.81485901
 21
-21.1608862
 31
0.0
  0
LINE
  8
0
  6
CONTINUOUS
 62
       7
  5
DD
 10
-41.98485901
 20
11.1391138
 30
0.0
 11
-24.63485901
 21
11.1391138
 31
0.0
  0
LINE
  8
0
  6
CONTINUOUS
 62
       7
  5
DE
 10
-43.80485901
 20
-8.8608862
 30
0.0
 11
-22.81485901
 21
-8.8608862
 31
0.0
  0
LINE
  8
0
  6
CONTINUOUS
 62
       7
  5
DF
 10
-22.81485901
 20
-8.8608862
 30
0.0
 11
-22.34485901
 21
-8.4008862
 31
0.0
  0
LINE
  8
0
  6
CONTINUOUS
 62
       7
  5
E0
 10
-43.80485901
 20
-8.8608862
 30
0.0
 11
-44.27485901
 21
-8.4008862
 31
0.0
  0
LINE
  8
0
  6
CONTINUOUS
 62
       7
  5
E1
 10
-44.00485901
 20
8.5591138
 30
0.0
 11
-43.00485901
 21
9.1391138
 31
0.0
  0
LINE
  8
0
  6
CONTINUOUS
 62
       7
  5
E2
 10
-23.61485901
 20
9.1391138
 30
0.0
 11
-22.61485901
 21
8.5591138
 31
0.0
  0
LINE
  8
0
  6
CONTINUOUS
 62
       7
  5
E3
 10
-44.00485901
 20
8.5591138
 30
0.0
 11
-44.27485901
 21
-8.4008862
 31
0.0
  0
LINE
  8
0
  6
CONTINUOUS
 62
       7
  5
E4
 10
-22.61485901
 20
8.5591138
 30
0.0
 11
-22.34485901
 21
-8.4008862
 31
0.0
  0
LINE
  8
0
  6
CONTINUOUS
 62
       7
  5
E5
 10
-44.24485901
 20
-6.3608862
 30
0.0
 11
-43.30485901
 21
-5.8208862
 31
0.0
  0
LINE
  8
0
  6
CONTINUOUS
 62
       7
  5
E6
 10
-23.31485901
 20
-5.8208862
 30
0.0
 11
-22.37485901
 21
-6.3608862
 31
0.0
  0
LINE
  8
0
  6
CONTINUOUS
 62
       7
  5
E7
 10
-43.30485901
 20
-5.8208862
 30
0.0
 11
-42.98485901
 21
10.1591138
 31
0.0
  0
LINE
  8
0
  6
CONTINUOUS
 62
       7
  5
E8
 10
-23.31485901
 20
-5.8208862
 30
0.0
 11
-23.63485901
 21
10.1591138
 31
0.0
  0
LINE
  8
0
  6
CONTINUOUS
 62
       7
  5
E9
 10
-50.30485901
 20
-58.4608862
 30
0.0
 11
-16.31485901
 21
-58.4608862
 31
0.0
  0
LINE
  8
0
  6
CONTINUOUS
 62
       7
  5
EA
 10
-50.30485901
 20
-28.9608862
 30
0.0
 11
-50.30485901
 21
-58.4608862
 31
0.0
  0
LINE
  8
0
  6
CONTINUOUS
 62
       7
  5
EB
 10
-16.31485901
 20
-28.9608862
 30
0.0
 11
-16.31485901
 21
-58.4608862
 31
0.0
  0
LINE
  8
0
  6
CONTINUOUS
 62
       7
  5
EC
 10
-50.30485901
 20
-28.9608862
 30
0.0
 11
-49.80485901
 21
-28.4608862
 31
0.0
  0
LINE
  8
0
  6
CONTINUOUS
 62
       7
  5
ED
 10
-16.81485901
 20
-28.4608862
 30
0.0
 11
-16.31485901
 21
-28.9608862
 31
0.0
  0
LINE
  8
0
  6
CONTINUOUS
 62
       7
  5
EE
 10
-46.80485901
 20
-20.6608862
 30
0.0
 11
-19.81485901
 21
-20.6608862
 31
0.0
  0
LINE
  8
0
  6
CONTINUOUS
 62
       7
  5
EF
 10
-46.80485901
 20
-16.1608862
 30
0.0
 11
-46.80485901
 21
-21.1608862
 31
0.0
  0
LINE
  8
0
  6
CONTINUOUS
 62
       7
  5
F0
 10
-19.81485901
 20
-16.1608862
 30
0.0
 11
-19.81485901
 21
-21.1608862
 31
0.0
  0
LINE
  8
0
  6
CONTINUOUS
 62
       7
  5
F1
 10
-46.80485901
 20
-16.1608862
 30
0.0
 11
-19.81485901
 21
-16.1608862
 31
0.0
  0
LINE
  8
0
  6
CENTER
 62
       2
  5
F2
 10
-44.30485901
 20
-21.6008862
 30
0.0
 11
-44.30485901
 21
-26.6608862
 31
0.0
  0
LINE
  8
0
  6
CONTINUOUS
 62
       7
  5
F3
 10
-47.10485901
 20
-23.4908862
 30
0.0
 11
-47.10485901
 21
-25.4608862
 31
0.0
  0
LINE
  8
0
  6
CONTINUOUS
 62
       7
  5
F4
 10
-49.80485901
 20
-28.4608862
 30
0.0
 11
-16.81485901
 21
-28.4608862
 31
0.0
  0
LINE
  8
0
  6
CONTINUOUS
 62
       7
  5
F5
 10
-36.30485901
 20
8.5591138
 30
0.0
 11
-36.30485901
 21
-6.3608862
 31
0.0
  0
LINE
  8
0
  6
CONTINUOUS
 62
       7
  5
F6
 10
-36.61485901
 20
9.1391138
 30
0.0
 11
-36.61485901
 21
-5.8208862
 31
0.0
  0
LINE
  8
0
  6
CONTINUOUS
 62
       7
  5
F7
 10
-37.41485901
 20
9.1391138
 30
0.0
 11
-37.41485901
 21
-5.8208862
 31
0.0
  0
LINE
  8
0
  6
CONTINUOUS
 62
       7
  5
F8
 10
-38.44485901
 20
8.5591138
 30
0.0
 11
-38.44485901
 21
-6.3608862
 31
0.0
  0
LINE
  8
0
  6
CONTINUOUS
 62
       7
  5
F9
 10
-36.61485901
 20
9.1391138
 30
0.0
 11
-29.99485901
 21
9.1391138
 31
0.0
  0
LINE
  8
0
  6
CONTINUOUS
 62
       7
  5
FA
 10
-36.30485901
 20
8.5591138
 30
0.0
 11
-30.30485901
 21
8.5591138
 31
0.0
  0
LINE
  8
0
  6
CONTINUOUS
 62
       7
  5
FB
 10
-42.69485901
 20
8.5591138
 30
0.0
 11
-42.69485901
 21
-6.3608862
 31
0.0
  0
LINE
  8
0
  6
CONTINUOUS
 62
       7
  5
FC
 10
-42.69485901
 20
8.5591138
 30
0.0
 11
-38.44485901
 21
8.5591138
 31
0.0
  0
LINE
  8
0
  6
CONTINUOUS
 62
       7
  5
FD
 10
-42.09485901
 20
9.1391138
 30
0.0
 11
-37.41485901
 21
9.1391138
 31
0.0
  0
LINE
  8
0
  6
CONTINUOUS
 62
       7
  5
FE
 10
-37.41485901
 20
-5.8208862
 30
0.0
 11
-36.61485901
 21
-5.8208862
 31
0.0
  0
LINE
  8
0
  6
CONTINUOUS
 62
       7
  5
FF
 10
-38.44485901
 20
-6.3608862
 30
0.0
 11
-36.30485901
 21
-6.3608862
 31
0.0
  0
LINE
  8
0
  6
CONTINUOUS
 62
       7
  5
100
 10
-44.24485901
 20
-6.3608862
 30
0.0
 11
-42.69485901
 21
-6.3608862
 31
0.0
  0
LINE
  8
0
  6
CONTINUOUS
 62
       7
  5
101
 10
-37.41485901
 20
9.1391138
 30
0.0
 11
-38.44485901
 21
8.5591138
 31
0.0
  0
LINE
  8
0
  6
CONTINUOUS
 62
       7
  5
102
 10
-36.61485901
 20
9.1391138
 30
0.0
 11
-36.30485901
 21
8.5591138
 31
0.0
  0
LINE
  8
0
  6
CONTINUOUS
 62
       7
  5
103
 10
-42.09485901
 20
9.1391138
 30
0.0
 11
-42.69485901
 21
8.5591138
 31
0.0
  0
LINE
  8
0
  6
CONTINUOUS
 62
       7
  5
104
 10
-37.41485901
 20
-5.8208862
 30
0.0
 11
-38.44485901
 21
-6.3608862
 31
0.0
  0
LINE
  8
0
  6
CONTINUOUS
 62
       7
  5
105
 10
-36.61485901
 20
-5.8208862
 30
0.0
 11
-36.30485901
 21
-6.3608862
 31
0.0
  0
LINE
  8
0
  6
CONTINUOUS
 62
       7
  5
106
 10
-43.30485901
 20
-5.8208862
 30
0.0
 11
-42.69485901
 21
-5.8208862
 31
0.0
  0
LINE
  8
0
  6
CONTINUOUS
 62
       7
  5
107
 10
-23.31485901
 20
-5.8208862
 30
0.0
 11
-23.93485901
 21
-5.8208862
 31
0.0
  0
LINE
  8
0
  6
CONTINUOUS
 62
       7
  5
108
 10
-22.37485901
 20
-6.3608862
 30
0.0
 11
-23.93485901
 21
-6.3608862
 31
0.0
  0
LINE
  8
0
  6
CONTINUOUS
 62
       7
  5
109
 10
-23.93485901
 20
8.5591138
 30
0.0
 11
-23.93485901
 21
-6.3608862
 31
0.0
  0
LINE
  8
0
  6
CONTINUOUS
 62
       7
  5
10A
 10
-23.93485901
 20
8.5591138
 30
0.0
 11
-28.16485901
 21
8.5591138
 31
0.0
  0
LINE
  8
0
  6
CONTINUOUS
 62
       7
  5
10B
 10
-24.52485901
 20
9.1391138
 30
0.0
 11
-23.93485901
 21
8.5591138
 31
0.0
  0
LINE
  8
0
  6
CONTINUOUS
 62
       7
  5
10C
 10
-24.52485901
 20
9.1391138
 30
0.0
 11
-29.19485901
 21
9.1391138
 31
0.0
  0
LINE
  8
0
  6
CONTINUOUS
 62
       7
  5
10D
 10
-29.19485901
 20
9.1391138
 30
0.0
 11
-28.16485901
 21
8.5591138
 31
0.0
  0
LINE
  8
0
  6
CONTINUOUS
 62
       7
  5
10E
 10
-28.16485901
 20
8.5591138
 30
0.0
 11
-28.16485901
 21
-6.3608862
 31
0.0
  0
LINE
  8
0
  6
CONTINUOUS
 62
       7
  5
10F
 10
-29.19485901
 20
9.1391138
 30
0.0
 11
-29.19485901
 21
-5.8208862
 31
0.0
  0
LINE
  8
0
  6
CONTINUOUS
 62
       7
  5
110
 10
-29.99485901
 20
9.1391138
 30
0.0
 11
-29.99485901
 21
-5.8208862
 31
0.0
  0
LINE
  8
0
  6
CONTINUOUS
 62
       7
  5
111
 10
-30.30485901
 20
8.5591138
 30
0.0
 11
-30.30485901
 21
-6.3608862
 31
0.0
  0
LINE
  8
0
  6
CONTINUOUS
 62
       7
  5
112
 10
-29.19485901
 20
-5.8208862
 30
0.0
 11
-29.99485901
 21
-5.8208862
 31
0.0
  0
LINE
  8
0
  6
CONTINUOUS
 62
       7
  5
113
 10
-29.99485901
 20
-5.8208862
 30
0.0
 11
-30.30485901
 21
-6.3608862
 31
0.0
  0
LINE
  8
0
  6
CONTINUOUS
 62
       7
  5
114
 10
-28.16485901
 20
-6.3608862
 30
0.0
 11
-30.30485901
 21
-6.3608862
 31
0.0
  0
LINE
  8
0
  6
CONTINUOUS
 62
       7
  5
115
 10
-29.19485901
 20
-5.8208862
 30
0.0
 11
-28.16485901
 21
-6.3608862
 31
0.0
  0
LINE
  8
0
  6
CONTINUOUS
 62
       7
  5
116
 10
-29.99485901
 20
9.1391138
 30
0.0
 11
-30.30485901
 21
8.5591138
 31
0.0
  0
LINE
  8
0
  6
CONTINUOUS
 62
       7
  5
117
 10
-47.10485901
 20
-25.4608862
 30
0.0
 11
-41.30485901
 21
-25.4608862
 31
0.0
  0
LINE
  8
0
  6
CONTINUOUS
 62
       7
  5
118
 10
-25.31485901
 20
-23.1608862
 30
0.0
 11
-25.31485901
 21
-25.4608862
 31
0.0
  0
LINE
  8
0
  6
CONTINUOUS
 62
       7
  5
119
 10
-41.30485901
 20
-23.1608862
 30
0.0
 11
-41.30485901
 21
-25.4608862
 31
0.0
  0
LINE
  8
0
  6
CONTINUOUS
 62
       7
  5
11A
 10
-25.31485901
 20
-25.4608862
 30
0.0
 11
-19.51485901
 21
-25.4608862
 31
0.0
  0
LINE
  8
0
  6
CONTINUOUS
 62
       7
  5
11B
 10
-46.30485901
 20
-22.1608862
 30
0.0
 11
-45.30485901
 21
-22.1608862
 31
0.0
  0
LINE
  8
0
  6
CONTINUOUS
 62
       7
  5
11C
 10
-41.50485901
 20
-23.4908862
 30
0.0
 11
-41.50485901
 21
-25.4608862
 31
0.0
  0
LINE
  8
0
  6
CONTINUOUS
 62
       7
  5
11D
 10
-43.31485901
 20
-22.1608862
 30
0.0
 11
-23.31485901
 21
-22.1608862
 31
0.0
  0
LINE
  8
0
  6
CONTINUOUS
 62
       7
  5
11E
 10
-47.10485901
 20
-24.7608862
 30
0.0
 11
-41.50485901
 21
-24.7608862
 31
0.0
  0
LINE
  8
0
  6
CONTINUOUS
 62
       7
  5
11F
 10
-19.51485901
 20
-23.4908862
 30
0.0
 11
-19.51485901
 21
-25.4608862
 31
0.0
  0
LINE
  8
0
  6
CONTINUOUS
 62
       7
  5
120
 10
-19.51485901
 20
-24.7608862
 30
0.0
 11
-25.11485901
 21
-24.7608862
 31
0.0
  0
LINE
  8
0
  6
CONTINUOUS
 62
       7
  5
121
 10
-25.11485901
 20
-23.4908862
 30
0.0
 11
-25.11485901
 21
-25.4608862
 31
0.0
  0
LINE
  8
0
  6
CONTINUOUS
 62
       7
  5
122
 10
-21.32485901
 20
-22.1608862
 30
0.0
 11
-20.31485901
 21
-22.1608862
 31
0.0
  0
LINE
  8
0
  6
CONTINUOUS
 62
       7
  5
123
 10
-44.30485901
 20
-13.1608862
 30
0.0
 11
-22.31485901
 21
-13.1608862
 31
0.0
  0
LINE
  8
0
  6
CONTINUOUS
 62
       7
  5
124
 10
-41.98485901
 20
-8.8608862
 30
0.0
 11
-41.98485901
 21
-12.1608862
 31
0.0
  0
LINE
  8
0
  6
CONTINUOUS
 62
       7
  5
125
 10
-39.34485901
 20
-8.8608862
 30
0.0
 11
-39.34485901
 21
-12.1608862
 31
0.0
  0
LINE
  8
0
  6
CONTINUOUS
 62
       7
  5
126
 10
-35.94485901
 20
-8.8608862
 30
0.0
 11
-35.94485901
 21
-12.1608862
 31
0.0
  0
LINE
  8
0
  6
CONTINUOUS
 62
       7
  5
127
 10
-30.66485901
 20
-8.8608862
 30
0.0
 11
-30.66485901
 21
-12.1608862
 31
0.0
  0
LINE
  8
0
  6
CONTINUOUS
 62
       7
  5
128
 10
-27.27485901
 20
-8.8608862
 30
0.0
 11
-27.27485901
 21
-12.1608862
 31
0.0
  0
LINE
  8
0
  6
CONTINUOUS
 62
       7
  5
129
 10
-24.63485901
 20
-8.8608862
 30
0.0
 11
-24.63485901
 21
-12.1608862
 31
0.0
  0
LINE
  8
0
  6
CONTINUOUS
 62
       7
  5
12A
 10
-24.41485901
 20
-8.8608862
 30
0.0
 11
-24.41485901
 21
-12.1608862
 31
0.0
  0
LINE
  8
0
  6
CONTINUOUS
 62
       7
  5
12B
 10
-42.20485901
 20
-8.8608862
 30
0.0
 11
-42.20485901
 21
-12.1608862
 31
0.0
  0
LINE
  8
0
  6
CONTINUOUS
 62
       7
  5
12C
 10
-41.79485901
 20
-28.9608862
 30
0.0
 11
-41.79485901
 21
-58.4608862
 31
0.0
  0
LINE
  8
0
  6
CONTINUOUS
 62
       7
  5
12D
 10
-24.83485901
 20
-28.9608862
 30
0.0
 11
-24.83485901
 21
-58.4608862
 31
0.0
  0
LINE
  8
0
  6
CONTINUOUS
 62
       7
  5
12E
 10
-50.30485901
 20
-28.9608862
 30
0.0
 11
-16.31485901
 21
-28.9608862
 31
0.0
  0
LINE
  8
0
  6
CONTINUOUS
 62
       7
  5
12F
 10
-41.79485901
 20
-28.9608862
 30
0.0
 11
-41.70485901
 21
-28.4608862
 31
0.0
  0
LINE
  8
0
  6
CONTINUOUS
 62
       7
  5
130
 10
-24.91485901
 20
-28.4608862
 30
0.0
 11
-24.83485901
 21
-28.9608862
 31
0.0
  0
LINE
  8
0
  6
CENTER
 62
       2
  5
131
 10
-94.64485901
 20
-43.9608862
 30
0.0
 11
-39.60485901
 21
-43.9608862
 31
0.0
  0
LINE
  8
0
  6
CENTER
 62
       2
  5
132
 10
-27.02485901
 20
-43.9608862
 30
0.0
 11
-14.50485901
 21
-43.9608862
 31
0.0
  0
LINE
  8
0
  6
CENTER
 62
       2
  5
133
 10
-33.30485901
 20
-20.6608862
 30
0.0
 11
-33.30485901
 21
-65.6208862
 31
0.0
  0
LINE
  8
0
  6
CONTINUOUS
 62
       7
  5
134
 10
-33.30485901
 20
-17.3708862
 30
0.0
 11
-33.30485901
 21
-20.6608862
 31
0.0
  0
LINE
  8
0
  6
CONTINUOUS
 62
       7
  5
135
 10
-61.30485901
 20
-67.4608862
 30
0.0
 11
-51.30485901
 21
-67.4608862
 31
0.0
  0
LINE
  8
0
  6
CONTINUOUS
 62
       7
  5
136
 10
-5.31485901
 20
-65.4608862
 30
0.0
 11
-5.31485901
 21
-67.4608862
 31
0.0
  0
LINE
  8
0
  6
CONTINUOUS
 62
       7
  5
137
 10
-61.30485901
 20
-65.4608862
 30
0.0
 11
-61.30485901
 21
-67.4608862
 31
0.0
  0
LINE
  8
0
  6
CONTINUOUS
 62
       7
  5
138
 10
-18.31485901
 20
-61.4608862
 30
0.0
 11
-18.31485901
 21
-64.4608862
 31
0.0
  0
LINE
  8
0
  6
CONTINUOUS
 62
       7
  5
139
 10
-48.30485901
 20
-61.4608862
 30
0.0
 11
-48.30485901
 21
-64.4608862
 31
0.0
  0
LINE
  8
0
  6
CONTINUOUS
 62
       7
  5
13A
 10
-50.30485901
 20
-61.4608862
 30
0.0
 11
-50.30485901
 21
-64.4608862
 31
0.0
  0
LINE
  8
0
  6
CONTINUOUS
 62
       7
  5
13B
 10
-61.30485901
 20
-65.4608862
 30
0.0
 11
-51.30485901
 21
-65.4608862
 31
0.0
  0
LINE
  8
0
  6
CONTINUOUS
 62
       7
  5
13C
 10
-16.31485901
 20
-61.4608862
 30
0.0
 11
-16.31485901
 21
-64.4608862
 31
0.0
  0
LINE
  8
0
  6
CONTINUOUS
 62
       7
  5
13D
 10
-15.31485901
 20
-67.4608862
 30
0.0
 11
-5.31485901
 21
-67.4608862
 31
0.0
  0
LINE
  8
0
  6
CONTINUOUS
 62
       7
  5
13E
 10
-15.31485901
 20
-65.4608862
 30
0.0
 11
-5.31485901
 21
-65.4608862
 31
0.0
  0
LINE
  8
0
  6
CONTINUOUS
 62
       7
  5
13F
 10
-47.30485901
 20
-60.4608862
 30
0.0
 11
-19.31485901
 21
-60.4608862
 31
0.0
  0
LINE
  8
0
  6
CENTER
 62
       2
  5
140
 10
-10.81485901
 20
-63.7008862
 30
0.0
 11
-10.81485901
 21
-68.9308862
 31
0.0
  0
LINE
  8
0
  6
CENTER
 62
       2
  5
141
 10
-55.80485901
 20
-63.7008862
 30
0.0
 11
-55.80485901
 21
-69.0108862
 31
0.0
  0
LINE
  8
0
  6
CONTINUOUS
 62
       7
  5
142
 10
-55.30485901
 20
-65.4608862
 30
0.0
 11
-55.30485901
 21
-67.4608862
 31
0.0
  0
LINE
  8
0
  6
CONTINUOUS
 62
       7
  5
143
 10
-11.31485901
 20
-65.4608862
 30
0.0
 11
-11.31485901
 21
-67.4608862
 31
0.0
  0
LINE
  8
0
  6
CONTINUOUS
 62
       7
  5
144
 10
-61.30485901
 20
56.9591138
 30
0.0
 11
-61.30485901
 21
31.9591138
 31
0.0
  0
LINE
  8
0
  6
CONTINUOUS
 62
       7
  5
145
 10
-5.31485901
 20
56.9591138
 30
0.0
 11
-5.31485901
 21
31.9591138
 31
0.0
  0
LINE
  8
0
  6
CONTINUOUS
 62
       7
  5
146
 10
-55.30485901
 20
25.9591138
 30
0.0
 11
-11.31485901
 21
25.9591138
 31
0.0
  0
LINE
  8
0
  6
CONTINUOUS
 62
       7
  5
147
 10
-55.30485901
 20
62.9591138
 30
0.0
 11
-11.31485901
 21
62.9591138
 31
0.0
  0
LINE
  8
0
  6
CONTINUOUS
 62
       7
  5
148
 10
-55.30485901
 20
25.9591138
 30
0.0
 11
-61.30485901
 21
31.9591138
 31
0.0
  0
LINE
  8
0
  6
CONTINUOUS
 62
       7
  5
149
 10
-61.30485901
 20
56.9591138
 30
0.0
 11
-55.30485901
 21
62.9591138
 31
0.0
  0
LINE
  8
0
  6
CONTINUOUS
 62
       7
  5
14A
 10
-11.31485901
 20
62.9591138
 30
0.0
 11
-5.31485901
 21
56.9591138
 31
0.0
  0
LINE
  8
0
  6
CONTINUOUS
 62
       7
  5
14B
 10
-5.31485901
 20
31.9591138
 30
0.0
 11
-11.31485901
 21
25.9591138
 31
0.0
  0
LINE
  8
0
  6
CONTINUOUS
 62
       7
  5
14C
 10
-50.30485901
 20
35.9791138
 30
0.0
 11
-50.30485901
 21
25.9591138
 31
0.0
  0
LINE
  8
0
  6
CONTINUOUS
 62
       7
  5
14D
 10
-16.31485901
 20
35.9791138
 30
0.0
 11
-16.31485901
 21
25.9591138
 31
0.0
  0
LINE
  8
0
  6
CONTINUOUS
 62
       7
  5
14E
 10
-16.31485901
 20
52.9491138
 30
0.0
 11
-16.31485901
 21
35.9791138
 31
0.0
  0
LINE
  8
0
  6
CONTINUOUS
 62
       7
  5
14F
 10
-50.30485901
 20
52.9491138
 30
0.0
 11
-50.30485901
 21
35.9791138
 31
0.0
  0
LINE
  8
0
  6
CONTINUOUS
 62
       7
  5
150
 10
-16.81485901
 20
36.0991138
 30
0.0
 11
-16.31485901
 21
35.9791138
 31
0.0
  0
LINE
  8
0
  6
CONTINUOUS
 62
       7
  5
151
 10
-16.81485901
 20
52.8291138
 30
0.0
 11
-16.31485901
 21
52.9491138
 31
0.0
  0
LINE
  8
0
  6
CONTINUOUS
 62
       7
  5
152
 10
-49.80485901
 20
52.8291138
 30
0.0
 11
-50.30485901
 21
52.9491138
 31
0.0
  0
LINE
  8
0
  6
CONTINUOUS
 62
       7
  5
153
 10
-49.80485901
 20
36.0991138
 30
0.0
 11
-50.30485901
 21
35.9791138
 31
0.0
  0
LINE
  8
0
  6
CONTINUOUS
 62
       7
  5
154
 10
-41.79485901
 20
61.4591138
 30
0.0
 11
-41.67485901
 21
60.9591138
 31
0.0
  0
LINE
  8
0
  6
CONTINUOUS
 62
       7
  5
155
 10
-24.83485901
 20
61.4591138
 30
0.0
 11
-24.94485901
 21
60.9591138
 31
0.0
  0
LINE
  8
0
  6
CONTINUOUS
 62
       7
  5
156
 10
-24.94485901
 20
27.9591138
 30
0.0
 11
-24.83485901
 21
27.4591138
 31
0.0
  0
LINE
  8
0
  6
CONTINUOUS
 62
       7
  5
157
 10
-41.67485901
 20
27.9591138
 30
0.0
 11
-41.79485901
 21
27.4591138
 31
0.0
  0
LINE
  8
0
  6
CENTER
 62
       2
  5
158
 10
-55.80485901
 20
49.0591138
 30
0.0
 11
-55.80485901
 21
40.1391138
 31
0.0
  0
LINE
  8
0
  6
CENTER
 62
       2
  5
159
 10
-10.81485901
 20
48.9691138
 30
0.0
 11
-10.81485901
 21
39.8691138
 31
0.0
  0
LINE
  8
0
  6
CONTINUOUS
 62
       7
  5
15A
 10
-91.79485901
 20
-23.7108862
 30
0.0
 11
-91.79485901
 21
-64.2108862
 31
0.0
  0
LINE
  8
0
  6
CONTINUOUS
 62
       7
  5
15B
 10
-90.79485901
 20
-22.7108862
 30
0.0
 11
-88.79485901
 21
-22.7108862
 31
0.0
  0
LINE
  8
0
  6
CONTINUOUS
 62
       7
  5
15C
 10
-90.79485901
 20
-65.2108862
 30
0.0
 11
-88.79485901
 21
-65.2108862
 31
0.0
  0
LINE
  8
0
  6
CONTINUOUS
 62
       7
  5
15D
 10
-88.79485901
 20
-22.7108862
 30
0.0
 11
-88.79485901
 21
-65.2108862
 31
0.0
  0
LINE
  8
0
  6
CONTINUOUS
 62
       7
  5
15E
 10
-64.99485901
 20
-24.9608862
 30
0.0
 11
-64.99485901
 21
-62.9608862
 31
0.0
  0
LINE
  8
0
  6
CONTINUOUS
 62
       7
  5
15F
 10
-88.79485901
 20
-22.9608862
 30
0.0
 11
-66.99485901
 21
-22.9608862
 31
0.0
  0
LINE
  8
0
  6
CONTINUOUS
 62
       7
  5
160
 10
-88.79485901
 20
-64.9608862
 30
0.0
 11
-66.99485901
 21
-64.9608862
 31
0.0
  0
LINE
  8
0
  6
CONTINUOUS
 62
       7
  5
161
 10
-64.99485901
 20
-50.9608862
 30
0.0
 11
-56.29485901
 21
-50.9608862
 31
0.0
  0
LINE
  8
0
  6
CONTINUOUS
 62
       7
  5
162
 10
-64.99485901
 20
-36.9608862
 30
0.0
 11
-56.29485901
 21
-36.9608862
 31
0.0
  0
LINE
  8
0
  6
CONTINUOUS
 62
       7
  5
163
 10
-56.29485901
 20
-36.9608862
 30
0.0
 11
-56.29485901
 21
-50.9608862
 31
0.0
  0
LINE
  8
0
  6
CONTINUOUS
 62
       7
  5
164
 10
-56.29485901
 20
-37.1908862
 30
0.0
 11
-50.30485901
 21
-37.3808862
 31
0.0
  0
LINE
  8
0
  6
CONTINUOUS
 62
       2
  5
165
 10
-54.29485901
 20
-38.1108862
 30
0.0
 11
-50.30485901
 21
-38.2308862
 31
0.0
  0
LINE
  8
0
  6
CONTINUOUS
 62
       2
  5
166
 10
-54.29485901
 20
-49.8008862
 30
0.0
 11
-50.30485901
 21
-49.6808862
 31
0.0
  0
LINE
  8
0
  6
CONTINUOUS
 62
       7
  5
167
 10
-56.29485901
 20
-50.7208862
 30
0.0
 11
-50.30485901
 21
-50.5308862
 31
0.0
  0
LINE
  8
0
  6
CONTINUOUS
 62
       7
  5
168
 10
-54.29485901
 20
-37.2508862
 30
0.0
 11
-54.29485901
 21
-50.6608862
 31
0.0
  0
LINE
  8
0
  6
CONTINUOUS
 62
       2
  5
169
 10
-64.99485901
 20
-50.9608862
 30
0.0
 11
-56.29485901
 21
-36.9608862
 31
0.0
  0
LINE
  8
0
  6
CONTINUOUS
 62
       2
  5
16A
 10
-64.99485901
 20
-36.9608862
 30
0.0
 11
-56.29485901
 21
-50.9608862
 31
0.0
  0
LINE
  8
0
  6
CENTER
 62
       2
  5
16B
 10
-71.99485901
 20
-61.0308862
 30
0.0
 11
-71.99485901
 21
-67.5408862
 31
0.0
  0
LINE
  8
0
  6
CONTINUOUS
 62
       7
  5
16C
 10
-91.79485901
 20
-23.7108862
 30
0.0
 11
-90.79485901
 21
-22.7108862
 31
0.0
  0
LINE
  8
0
  6
CONTINUOUS
 62
       7
  5
16D
 10
-91.79485901
 20
-64.2108862
 30
0.0
 11
-90.79485901
 21
-65.2108862
 31
0.0
  0
LINE
  8
0
  6
CONTINUOUS
 62
       7
  5
16E
 10
-90.79485901
 20
-22.7108862
 30
0.0
 11
-90.79485901
 21
-65.2108862
 31
0.0
  0
LINE
  8
0
  6
PHANTOM
 62
       2
  5
170
 10
-66.17485901
 20
-55.9608862
 30
0.0
 11
-61.57485901
 21
-55.9608862
 31
0.0
  0
LINE
  8
0
  6
CONTINUOUS
 62
       7
  5
171
 10
-64.99485901
 20
-58.7108862
 30
0.0
 11
-64.40485901
 21
-58.7108862
 31
0.0
  0
LINE
  8
0
  6
CONTINUOUS
 62
       7
  5
172
 10
-64.99485901
 20
-53.2108862
 30
0.0
 11
-64.40485901
 21
-53.2108862
 31
0.0
  0
ARC
  8
0
  6
CONTINUOUS
 62
       7
  5
173
 10
57.68680411
 20
-21.16254933
 30
0.0
 40
0.99833826
 50
269.90455153
 51
0.09544847
  0
ARC
  8
0
  6
CONTINUOUS
 62
       7
  5
174
 10
83.68680612
 20
-21.15922108
 30
0.0
 40
1.00166651
 50
180.09524608
 51
269.90475392
  0
ARC
  8
0
  6
CONTINUOUS
 62
       7
  5
175
 10
83.68680335
 20
-23.15922385
 30
0.0
 40
0.99833903
 50
359.90459546
 51
90.09540454
  0
ARC
  8
0
  6
CONTINUOUS
 62
       7
  5
176
 10
57.68680688
 20
-23.16255209
 30
0.0
 40
1.00166727
 50
90.09528958
 51
179.90471042
  0
ARC
  8
0
  6
CONTINUOUS
 62
       7
  5
177
 10
62.00680655
 20
10.13721016
 30
0.0
 40
1.00190502
 50
90.09524815
 51
178.74730072
  0
ARC
  8
0
  6
CONTINUOUS
 62
       7
  5
178
 10
79.36674469
 20
10.14054614
 30
0.0
 40
0.99856894
 50
1.06543432
 51
90.09201681
  0
ARC
  8
0
  6
CONTINUOUS
 62
       7
  5
179
 10
59.68514099
 20
-27.06088948
 30
0.0
 40
4.99541082
 50
63.22978927
 51
116.77021073
  0
ARC
  8
0
  6
CONTINUOUS
 62
       7
  5
17A
 10
57.88526027
 20
-23.49399362
 30
0.0
 40
1.0001241
 50
116.74775301
 51
179.82197996
  0
ARC
  8
0
  6
CONTINUOUS
 62
       7
  5
17B
 10
61.48984974
 20
-23.49101001
 30
0.0
 40
0.99529126
 50
0.00712735
 51
63.42313968
  0
ARC
  8
0
  6
CONTINUOUS
 62
       7
  5
17C
 10
63.68680688
 20
-23.16255209
 30
0.0
 40
1.00166727
 50
90.09528958
 51
179.90471042
  0
ARC
  8
0
  6
CONTINUOUS
 62
       7
  5
17D
 10
77.68680335
 20
-23.15922385
 30
0.0
 40
0.99833903
 50
359.90459546
 51
90.09540454
  0
ARC
  8
0
  6
CONTINUOUS
 62
       7
  5
17E
 10
83.68680373
 20
-26.45922347
 30
0.0
 40
0.99833865
 50
359.9045735
 51
90.0954265
  0
ARC
  8
0
  6
CONTINUOUS
 62
       7
  5
17F
 10
57.6868065
 20
-26.46255171
 30
0.0
 40
1.00166689
 50
90.09526783
 51
179.90473217
  0
ARC
  8
0
  6
CONTINUOUS
 62
       7
  5
180
 10
83.48984974
 20
-23.49101001
 30
0.0
 40
0.99529126
 50
0.00712735
 51
63.42313968
  0
ARC
  8
0
  6
CONTINUOUS
 62
       7
  5
181
 10
81.68514099
 20
-27.06088948
 30
0.0
 40
4.99541082
 50
63.22978927
 51
116.77021073
  0
ARC
  8
0
  6
CONTINUOUS
 62
       7
  5
182
 10
79.88526027
 20
-23.49399362
 30
0.0
 40
1.0001241
 50
116.74775301
 51
179.82197996
  0
ARC
  8
0
  6
CONTINUOUS
 62
       7
  5
183
 10
58.98640523
 20
-23.06079579
 30
0.0
 40
6.89747865
 50
55.5809913
 51
115.60886135
  0
ARC
  8
0
  6
CONTINUOUS
 62
       7
  5
184
 10
70.68014099
 20
-41.95513492
 30
0.0
 40
25.79044998
 50
72.40758749
 51
107.59241251
  0
ARC
  8
0
  6
CONTINUOUS
 62
       7
  5
185
 10
82.37397427
 20
-23.06206153
 30
0.0
 40
6.89857793
 50
64.3964127
 51
124.41373466
  0
CIRCLE
  8
0
  6
CONTINUOUS
 62
       2
  5
186
 10
70.68846924
 20
-43.9608862
 30
0.0
 40
6.57849979
  0
CIRCLE
  8
0
  6
CONTINUOUS
 62
       7
  5
187
 10
70.68846924
 20
-43.9608862
 30
0.0
 40
5.72249985
  0
ARC
  8
0
  6
CONTINUOUS
 62
       7
  5
188
 10
-33.30852428
 20
44.46359208
 30
0.0
 40
18.49386243
 50
26.89394306
 51
43.05398276
  0
CIRCLE
  8
0
  6
CONTINUOUS
 62
       7
  5
189
 10
-33.31152694
 20
44.46788577
 30
0.0
 40
9.69999981
  0
CIRCLE
  8
0
  6
CONTINUOUS
 62
       7
  5
18A
 10
-33.31152694
 20
44.46788577
 30
0.0
 40
10.69999981
  0
CIRCLE
  8
0
  6
CONTINUOUS
 62
       7
  5
18B
 10
-33.31152694
 20
44.46788577
 30
0.0
 40
11.0
  0
ARC
  8
0
  6
CONTINUOUS
 62
       7
  5
18C
 10
-44.31257305
 20
55.46682784
 30
0.0
 40
2.9922959
 50
89.85229308
 51
180.14770692
  0
ARC
  8
0
  6
CONTINUOUS
 62
       7
  5
18D
 10
-22.30880774
 20
55.46516506
 30
0.0
 40
2.99395485
 50
359.88419599
 51
90.11580401
  0
ARC
  8
0
  6
CONTINUOUS
 62
       7
  5
18E
 10
-22.31758459
 20
33.46183938
 30
0.0
 40
3.00272682
 50
270.05200756
 51
359.94799244
  0
ARC
  8
0
  6
CONTINUOUS
 62
       7
  5
18F
 10
-44.30379135
 20
33.46018145
 30
0.0
 40
3.00106785
 50
180.0203835
 51
269.9796165
  0
ARC
  8
0
  6
CONTINUOUS
 62
       7
  5
190
 10
-33.31758025
 20
44.46183504
 30
0.0
 40
19.00129179
 50
296.51478036
 51
333.48521964
  0
ARC
  8
0
  6
CONTINUOUS
 62
       7
  5
191
 10
-33.31785372
 20
44.46346194
 30
0.0
 40
18.50677033
 50
296.89961624
 51
313.04830958
  0
ARC
  8
0
  6
CONTINUOUS
 62
       7
  5
192
 10
-33.29882575
 20
44.45518105
 30
0.0
 40
19.00128635
 50
206.49236808
 51
243.44034387
  0
ARC
  8
0
  6
CONTINUOUS
 62
       7
  5
193
 10
-33.30989067
 20
44.46554705
 30
0.0
 40
18.49543689
 50
206.89463548
 51
223.05329034
  0
ARC
  8
0
  6
CONTINUOUS
 62
       7
  5
194
 10
-33.31257892
 20
44.46683371
 30
0.0
 40
18.99175236
 50
116.52765179
 51
153.47234821
  0
ARC
  8
0
  6
CONTINUOUS
 62
       7
  5
195
 10
-33.31120148
 20
44.46811344
 30
0.0
 40
18.4906425
 50
116.89252661
 51
133.05539921
  0
ARC
  8
0
  6
CONTINUOUS
 62
       7
  5
196
 10
-33.30382573
 20
44.46018941
 30
0.0
 40
18.99175683
 50
26.55005096
 51
63.51723709
  0
ARC
  8
0
  6
CONTINUOUS
 62
       7
  5
197
 10
-40.30497838
 20
31.46236596
 30
0.0
 40
1.00325217
 50
189.36498229
 51
270.00681739
  0
ARC
  8
0
  6
CONTINUOUS
 62
       7
  5
198
 10
-26.32194581
 20
31.4590484
 30
0.0
 40
0.99995972
 50
270.40606372
 51
350.79652557
  0
ARC
  8
0
  6
CONTINUOUS
 62
       7
  5
199
 10
-20.30881021
 20
51.46516259
 30
0.0
 40
0.99396961
 50
359.6513247
 51
90.3486753
  0
ARC
  8
0
  6
CONTINUOUS
 62
       7
  5
19A
 10
-26.31231987
 20
57.46855759
 30
0.0
 40
0.99055946
 50
9.32801836
 51
90.14686834
  0
ARC
  8
0
  6
CONTINUOUS
 62
       7
  5
19B
 10
-40.31459531
 20
57.46530528
 30
0.0
 40
0.9938562
 50
89.43869369
 51
170.51315579
  0
ARC
  8
0
  6
CONTINUOUS
 62
       7
  5
19C
 10
-46.31257268
 20
51.46682747
 30
0.0
 40
0.99231631
 50
89.55461236
 51
180.44538764
  0
ARC
  8
0
  6
CONTINUOUS
 62
       7
  5
19D
 10
-46.30377151
 20
37.46020129
 30
0.0
 40
1.00108809
 50
180.06224115
 51
269.93775885
  0
ARC
  8
0
  6
CONTINUOUS
 62
       7
  5
19E
 10
-20.3175968
 20
37.46185159
 30
0.0
 40
1.00274153
 50
270.15643542
 51
359.84356458
  0
ARC
  8
0
  6
CONTINUOUS
 62
       7
  5
19F
 10
-44.31331087
 20
55.46477325
 30
0.0
 40
2.8001462
 50
26.84167253
 51
273.24392896
  0
ARC
  8
0
  6
CONTINUOUS
 62
       7
  5
1A0
 10
-22.31156533
 20
55.46795373
 30
0.0
 40
2.80303477
 50
266.86501757
 51
153.2610216
  0
ARC
  8
0
  6
CONTINUOUS
 62
       7
  5
1A1
 10
-22.31617185
 20
33.45982269
 30
0.0
 40
2.80323716
 50
206.95564057
 51
93.04046555
  0
ARC
  8
0
  6
CONTINUOUS
 62
       7
  5
1A2
 10
-44.30870175
 20
33.46298553
 30
0.0
 40
2.80035727
 50
86.85076616
 51
332.94174754
  0
ARC
  8
0
  6
CONTINUOUS
 62
       7
  5
1A3
 10
-33.31153079
 20
44.4591138
 30
0.0
 40
7.00538564
 50
314.46024712
 51
45.53975288
  0
ARC
  8
0
  6
CONTINUOUS
 62
       7
  5
1A4
 10
-33.3115231
 20
44.4591138
 30
0.0
 40
6.99605148
 50
134.38229475
 51
225.61770525
  0
CIRCLE
  8
0
  6
CONTINUOUS
 62
       7
  5
1A5
 10
-33.31152694
 20
44.46788577
 30
0.0
 40
13.5
  0
CIRCLE
  8
0
  6
CONTINUOUS
 62
       7
  5
1A6
 10
-33.31152694
 20
44.46788577
 30
0.0
 40
12.0
  0
ARC
  8
0
  6
CONTINUOUS
 62
       7
  5
1A7
 10
-33.31343393
 20
44.46515916
 30
0.0
 40
18.49115568
 50
136.94482657
 51
153.10724761
  0
ARC
  8
0
  6
CONTINUOUS
 62
       7
  5
1A8
 10
-33.30961266
 20
44.46654649
 30
0.0
 40
18.49253579
 50
46.94543371
 51
63.10664047
  0
ARC
  8
0
  6
CONTINUOUS
 62
       7
  5
1A9
 10
-33.31206701
 20
44.46711376
 30
0.0
 40
18.49814303
 50
316.9478995
 51
333.10417468
  0
ARC
  8
0
  6
CONTINUOUS
 62
       7
  5
1AA
 10
-33.30295958
 20
44.4618962
 30
0.0
 40
18.50487847
 50
226.95085942
 51
243.10121476
  0
ARC
  8
0
  6
CONTINUOUS
 62
       7
  5
1AB
 10
-46.30820007
 20
-21.15754514
 30
0.0
 40
1.00334662
 50
270.1907905
 51
359.8092095
  0
ARC
  8
0
  6
CONTINUOUS
 62
       7
  5
1AC
 10
-20.31319197
 20
-21.15921917
 30
0.0
 40
1.00166843
 50
180.09535519
 51
269.90464481
  0
ARC
  8
0
  6
CONTINUOUS
 62
       7
  5
1AD
 10
-20.31319475
 20
-23.15922194
 30
0.0
 40
0.99833713
 50
359.904486
 51
90.095514
  0
ARC
  8
0
  6
CONTINUOUS
 62
       7
  5
1AE
 10
-46.30818894
 20
-23.15755627
 30
0.0
 40
0.99667563
 50
89.80857235
 51
180.19142765
  0
ARC
  8
0
  6
CONTINUOUS
 62
       7
  5
1AF
 10
-41.98809121
 20
10.14220789
 30
0.0
 40
0.99691115
 50
89.81423404
 51
179.02831483
  0
ARC
  8
0
  6
CONTINUOUS
 62
       7
  5
1B0
 10
-24.63325344
 20
10.14054804
 30
0.0
 40
0.99856704
 50
1.06532708
 51
90.09212405
  0
ARC
  8
0
  6
CONTINUOUS
 62
       7
  5
1B1
 10
-44.30485901
 20
-27.06089247
 30
0.0
 40
4.99541349
 50
63.22980471
 51
116.77019529
  0
ARC
  8
0
  6
CONTINUOUS
 62
       7
  5
1B2
 10
-46.11198949
 20
-23.48951344
 30
0.0
 40
0.99287047
 50
116.49051428
 51
180.07921869
  0
ARC
  8
0
  6
CONTINUOUS
 62
       7
  5
1B3
 10
-42.50740945
 20
-23.49549603
 30
0.0
 40
1.00256104
 50
0.26344963
 51
63.1668174
  0
ARC
  8
0
  6
CONTINUOUS
 62
       7
  5
1B4
 10
-40.30819084
 20
-23.15755437
 30
0.0
 40
0.99667374
 50
89.8084627
 51
180.1915373
  0
ARC
  8
0
  6
CONTINUOUS
 62
       7
  5
1B5
 10
-26.31319475
 20
-23.15922194
 30
0.0
 40
0.99833713
 50
359.904486
 51
90.095514
  0
ARC
  8
0
  6
CONTINUOUS
 62
       7
  5
1B6
 10
-20.31319436
 20
-26.45922156
 30
0.0
 40
0.99833674
 50
359.90446403
 51
90.09553597
  0
ARC
  8
0
  6
CONTINUOUS
 62
       7
  5
1B7
 10
-46.30818932
 20
-26.45755589
 30
0.0
 40
0.99667525
 50
89.80855027
 51
180.19144973
  0
ARC
  8
0
  6
CONTINUOUS
 62
       7
  5
1B8
 10
-20.5101475
 20
-23.49100831
 30
0.0
 40
0.9952885
 50
0.00702903
 51
63.423238
  0
ARC
  8
0
  6
CONTINUOUS
 62
       7
  5
1B9
 10
-22.31485901
 20
-27.06088949
 30
0.0
 40
4.99541082
 50
63.22978928
 51
116.77021072
  0
ARC
  8
0
  6
CONTINUOUS
 62
       7
  5
1BA
 10
-24.11473696
 20
-23.49399533
 30
0.0
 40
1.00012688
 50
116.74785056
 51
179.82188241
  0
ARC
  8
0
  6
CONTINUOUS
 62
       7
  5
1BB
 10
-40.05485901
 20
-35.65733274
 30
0.0
 40
19.49247616
 50
69.73959325
 51
110.26040675
  0
ARC
  8
0
  6
CONTINUOUS
 62
       7
  5
1BC
 10
-26.55985901
 20
-35.65730885
 30
0.0
 40
19.49072287
 50
69.75335775
 51
110.24664225
  0
ARC
  8
0
  6
CONTINUOUS
 62
       7
  5
1BD
 10
-51.30819279
 20
-64.45755242
 30
0.0
 40
1.00333932
 50
270.19037647
 51
359.80962353
  0
ARC
  8
0
  6
CONTINUOUS
 62
       7
  5
1BE
 10
-15.31319159
 20
-64.45921879
 30
0.0
 40
1.00166881
 50
180.09537693
 51
269.90462307
  0
ARC
  8
0
  6
CONTINUOUS
 62
       7
  5
1BF
 10
-47.30818171
 20
-61.4575635
 30
0.0
 40
0.99668283
 50
89.80898885
 51
180.19101115
  0
ARC
  8
0
  6
CONTINUOUS
 62
       7
  5
1C0
 10
-19.31319436
 20
-61.45922156
 30
0.0
 40
0.99833674
 50
359.90446403
 51
90.09553597
  0
ARC
  8
0
  6
CONTINUOUS
 62
       7
  5
1C1
 10
-47.30818541
 20
-61.4575598
 30
0.0
 40
2.99667545
 50
89.93639993
 51
180.06360007
  0
ARC
  8
0
  6
CONTINUOUS
 62
       7
  5
1C2
 10
-19.31319344
 20
-61.45922064
 30
0.0
 40
2.99833489
 50
359.96817232
 51
90.03182768
  0
ARC
  8
0
  6
CONTINUOUS
 62
       7
  5
1C3
 10
-51.3081891
 20
-64.45755611
 30
0.0
 40
3.00333194
 50
270.06352955
 51
359.93647045
  0
ARC
  8
0
  6
CONTINUOUS
 62
       7
  5
1C4
 10
-15.31319251
 20
-64.45921971
 30
0.0
 40
3.00166696
 50
180.03181001
 51
269.96818999
  0
CIRCLE
  8
0
  6
CONTINUOUS
 62
       7
  5
1C5
 10
-10.81153076
 20
44.46788577
 30
0.0
 40
2.75
  0
CIRCLE
  8
0
  6
CONTINUOUS
 62
       7
  5
1C6
 10
-55.8115155
 20
44.46788577
 30
0.0
 40
2.75
  0
ARC
  8
0
  6
CONTINUOUS
 62
       7
  5
1C7
 10
-66.99819125
 20
-62.95755396
 30
0.0
 40
2.00333501
 50
270.09530274
 51
359.90469726
  0
ARC
  8
0
  6
CONTINUOUS
 62
       7
  5
1C8
 10
-66.99819125
 20
-24.96421844
 30
0.0
 40
2.00333501
 50
0.09530274
 51
89.90469726
  0
ARC
  8
0
  6
CONTINUOUS
 62
       7
  5
1C9
 10
-71.99485901
 20
-64.9608862
 30
0.0
 40
1.15
 50
0.0
 51
180.0
  0
ARC
  8
0
  6
CONTINUOUS
 62
       7
  5
1CA
 10
-68.00152019
 20
-55.9558862
 30
0.0
 40
4.99941865
 50
334.08413754
 51
25.91586246
  0
ARC
  8
0
  6
CONTINUOUS
 62
       7
  5
1CB
 10
-64.40336084
 20
-54.21169272
 30
0.0
 40
1.00080763
 50
26.13264677
 51
90.08576962
  0
ARC
  8
0
  6
CONTINUOUS
 62
       7
  5
1CC
 10
-64.40682434
 20
-57.71225673
 30
0.0
 40
0.99863141
 50
270.11275985
 51
334.58212714
  0
TEXT
  8
0
  6
CONTINUOUS
 62
       7
  5
1CD
 10
41.32846919
 20
-38.66088601
 30
0.0
 40
3.19999981
  1
IN
 41
1.19999999
  7
MX_NOTE_STANDARD
  0
TEXT
  8
0
  6
CONTINUOUS
 62
       7
  5
1CE
 10
93.2218178
 20
-38.66088601
 30
0.0
 40
3.19999981
  1
OUT
  7
MX_NOTE_STANDARD
  0
POLYLINE
  8
0
 62
       7
  5
1CF
 66
       1
 10
0.0
 20
0.0
 30
0.0
  0
VERTEX
  8
0
 62
       7
  5
1E1
 10
48.68846924
 20
-39.4608862
 30
0.0
  0
VERTEX
  8
0
 62
       7
  5
1E2
 10
40.68846924
 20
-39.4608862
 30
0.0
  0
SEQEND
  8
0
 62
       7
  5
1E3
  0
INSERT
  8
0
 62
       7
  5
1D6
  2
_OPEN30
 10
48.68846924
 20
-39.4608862
 30
0.0
 41
2.77
 42
2.77
 43
2.77
  0
POLYLINE
  8
0
 62
       7
  5
1D7
 66
       1
 10
0.0
 20
0.0
 30
0.0
  0
VERTEX
  8
0
 62
       7
  5
1E4
 10
100.68846924
 20
-39.4608862
 30
0.0
  0
VERTEX
  8
0
 62
       7
  5
1E5
 10
92.6884845
 20
-39.4608862
 30
0.0
  0
SEQEND
  8
0
 62
       7
  5
1E6
  0
INSERT
  8
0
 62
       7
  5
1D8
  2
_OPEN30
 10
100.68846924
 20
-39.4608862
 30
0.0
 41
2.77
 42
2.77
 43
2.77
  0
CIRCLE
  8
0
  6
CONTINUOUS
 62
       7
  5
1D9
 10
-33.30485901
 20
-39.4608862
 30
0.0
 40
5.72249985
  0
CIRCLE
  8
0
  6
CONTINUOUS
 62
       2
  5
1DA
 10
-33.30485901
 20
-39.4608862
 30
0.0
 40
6.57849979
  0
LINE
  8
0
  6
CONTINUOUS
 62
       7
  5
1DB
 10
-138.3999939
 20
94.5
 30
0.0
 11
138.3500061
 21
94.5
 31
0.0
  0
LINE
  8
0
  6
CONTINUOUS
 62
       7
  5
1DC
 10
138.3500061
 20
94.5
 30
0.0
 11
138.3500061
 21
-94.80000305
 31
0.0
  0
LINE
  8
0
  6
CONTINUOUS
 62
       7
  5
1DD
 10
-138.3999939
 20
-94.80000305
 30
0.0
 11
138.3500061
 21
-94.80000305
 31
0.0
  0
LINE
  8
0
  6
CONTINUOUS
 62
       7
  5
1DE
 10
-138.3999939
 20
94.5
 30
0.0
 11
-138.3999939
 21
-94.80000305
 31
0.0
  0
TEXT
  8
0
  6
CONTINUOUS
 62
       7
  5
1DF
 10
-129.40391541
 20
72.9000001
 30
0.0
 40
3.19999981
  1
MODEL:RS110-02-G1-B
 41
1.11764706
  7
MX_NOTE_STANDARD
 11
-129.40391541
 21
74.5
 31
0.0
 73
       2
  0
ENDSEC
  0
EOF
