  0
SECTION
  2
HEADER
  9
$ACADVER
  1
AC1012
  9
$DWGCODEPAGE
  3
dos932
  9
$INSBASE
 10
0.0
 20
0.0
 30
0.0
  9
$EXTMIN
 10
-138.4094391564276
 20
-94.80677969792248
 30
-0.0015258207003583
  9
$EXTMAX
 10
138.3594524451544
 20
94.50677747942865
 30
0.0000000349246037
  9
$LIMMIN
 10
-138.400994
 20
-94.8010031
  9
$LIMMAX
 10
138.351006
 20
94.501
  9
$ORTHOMODE
 70
     0
  9
$REGENMODE
 70
     1
  9
$FILLMODE
 70
     1
  9
$QTEXTMODE
 70
     0
  9
$MIRRTEXT
 70
     1
  9
$DRAGMODE
 70
     2
  9
$LTSCALE
 40
4.612499999999999
  9
$OSMODE
 70
    37
  9
$ATTMODE
 70
     1
  9
$TEXTSIZE
 40
0.2
  9
$TRACEWID
 40
0.05
  9
$TEXTSTYLE
  7
STANDARD
  9
$CLAYER
  8
0
  9
$CELTYPE
  6
CONTINUOUS
  9
$CECOLOR
 62
   256
  9
$CELTSCALE
 40
1.0
  9
$DELOBJ
 70
     1
  9
$DISPSILH
 70
     0
  9
$DIMSCALE
 40
1.0
  9
$DIMASZ
 40
0.18
  9
$DIMEXO
 40
0.0625
  9
$DIMDLI
 40
0.38
  9
$DIMRND
 40
0.0
  9
$DIMDLE
 40
0.0
  9
$DIMEXE
 40
0.18
  9
$DIMTP
 40
0.0
  9
$DIMTM
 40
0.0
  9
$DIMTXT
 40
0.18
  9
$DIMCEN
 40
0.09
  9
$DIMTSZ
 40
0.0
  9
$DIMTOL
 70
     0
  9
$DIMLIM
 70
     0
  9
$DIMTIH
 70
     1
  9
$DIMTOH
 70
     1
  9
$DIMSE1
 70
     0
  9
$DIMSE2
 70
     0
  9
$DIMTAD
 70
     0
  9
$DIMZIN
 70
     0
  9
$DIMBLK
  1

  9
$DIMASO
 70
     1
  9
$DIMSHO
 70
     1
  9
$DIMPOST
  1

  9
$DIMAPOST
  1

  9
$DIMALT
 70
     0
  9
$DIMALTD
 70
     2
  9
$DIMALTF
 40
25.4
  9
$DIMLFAC
 40
1.0
  9
$DIMTOFL
 70
     0
  9
$DIMTVP
 40
0.0
  9
$DIMTIX
 70
     0
  9
$DIMSOXD
 70
     0
  9
$DIMSAH
 70
     0
  9
$DIMBLK1
  1

  9
$DIMBLK2
  1

  9
$DIMSTYLE
  2
STANDARD
  9
$DIMCLRD
 70
     0
  9
$DIMCLRE
 70
     0
  9
$DIMCLRT
 70
     0
  9
$DIMTFAC
 40
1.0
  9
$DIMGAP
 40
0.09
  9
$DIMJUST
 70
     0
  9
$DIMSD1
 70
     0
  9
$DIMSD2
 70
     0
  9
$DIMTOLJ
 70
     1
  9
$DIMTZIN
 70
     0
  9
$DIMALTZ
 70
     0
  9
$DIMALTTZ
 70
     0
  9
$DIMFIT
 70
     3
  9
$DIMUPT
 70
     0
  9
$DIMUNIT
 70
     2
  9
$DIMDEC
 70
     4
  9
$DIMTDEC
 70
     4
  9
$DIMALTU
 70
     2
  9
$DIMALTTD
 70
     2
  9
$DIMTXSTY
  7
STANDARD
  9
$DIMAUNIT
 70
     0
  9
$LUNITS
 70
     2
  9
$LUPREC
 70
     4
  9
$SKETCHINC
 40
0.1
  9
$FILLETRAD
 40
0.0
  9
$AUNITS
 70
     0
  9
$AUPREC
 70
     0
  9
$MENU
  1
.
  9
$ELEVATION
 40
0.0
  9
$PELEVATION
 40
0.0
  9
$THICKNESS
 40
0.0
  9
$LIMCHECK
 70
     0
  9
$BLIPMODE
 70
     0
  9
$CHAMFERA
 40
0.0
  9
$CHAMFERB
 40
0.0
  9
$CHAMFERC
 40
0.0
  9
$CHAMFERD
 40
0.0
  9
$SKPOLY
 70
     0
  9
$TDCREATE
 40
2451967.780919942
  9
$TDUPDATE
 40
2451967.780924467
  9
$TDINDWG
 40
0.0000048727
  9
$TDUSRTIMER
 40
0.0000048727
  9
$USRTIMER
 70
     1
  9
$ANGBASE
 50
0.0
  9
$ANGDIR
 70
     0
  9
$PDMODE
 70
     0
  9
$PDSIZE
 40
0.0
  9
$PLINEWID
 40
0.0
  9
$COORDS
 70
     0
  9
$SPLFRAME
 70
     0
  9
$SPLINETYPE
 70
     6
  9
$SPLINESEGS
 70
     8
  9
$ATTDIA
 70
     0
  9
$ATTREQ
 70
     1
  9
$HANDLING
 70
 10241
  9
$HANDSEED
  5
219
  9
$SURFTAB1
 70
     6
  9
$SURFTAB2
 70
     6
  9
$SURFTYPE
 70
     6
  9
$SURFU
 70
     6
  9
$SURFV
 70
     6
  9
$UCSNAME
  2

  9
$UCSORG
 10
0.0
 20
0.0
 30
0.0
  9
$UCSXDIR
 10
1.0
 20
0.0
 30
0.0
  9
$UCSYDIR
 10
0.0
 20
1.0
 30
0.0
  9
$PUCSNAME
  2

  9
$PUCSORG
 10
0.0
 20
0.0
 30
0.0
  9
$PUCSXDIR
 10
1.0
 20
0.0
 30
0.0
  9
$PUCSYDIR
 10
0.0
 20
1.0
 30
0.0
  9
$USERI1
 70
     0
  9
$USERI2
 70
     0
  9
$USERI3
 70
     0
  9
$USERI4
 70
     0
  9
$USERI5
 70
     0
  9
$USERR1
 40
0.0
  9
$USERR2
 40
0.0
  9
$USERR3
 40
0.0
  9
$USERR4
 40
0.0
  9
$USERR5
 40
0.0
  9
$WORLDVIEW
 70
     1
  9
$SHADEDGE
 70
     3
  9
$SHADEDIF
 70
    70
  9
$TILEMODE
 70
     1
  9
$MAXACTVP
 70
    64
  9
$PINSBASE
 10
0.0
 20
0.0
 30
0.0
  9
$PLIMCHECK
 70
     0
  9
$PEXTMIN
 10
1.000000000000000E+20
 20
1.000000000000000E+20
 30
1.000000000000000E+20
  9
$PEXTMAX
 10
-1.000000000000000E+20
 20
-1.000000000000000E+20
 30
-1.000000000000000E+20
  9
$PLIMMIN
 10
0.0
 20
0.0
  9
$PLIMMAX
 10
12.0
 20
9.0
  9
$UNITMODE
 70
     0
  9
$VISRETAIN
 70
     1
  9
$PLINEGEN
 70
     0
  9
$PSLTSCALE
 70
     1
  9
$TREEDEPTH
 70
  3020
  9
$PICKSTYLE
 70
     1
  9
$CMLSTYLE
  2
STANDARD
  9
$CMLJUST
 70
     0
  9
$CMLSCALE
 40
1.0
  9
$SAVEIMAGES
 70
     1
  0
ENDSEC
  0
SECTION
  2
CLASSES
  0
CLASS
  1
ACDBDICTIONARYWDFLT
  2
AcDbDictionaryWithDefault
  3
AutoCAD 2000
 90
    32768
280
     0
281
     0
  0
CLASS
  1
ACDBPLACEHOLDER
  2
AcDbPlaceHolder
  3
AutoCAD 2000
 90
    32768
280
     0
281
     0
  0
CLASS
  1
LAYOUT
  2
AcDbLayout
  3
AutoCAD 2000
 90
    32768
280
     0
281
     0
  0
CLASS
  1
LONG_TRANSACTION
  2
AcDbLongTransaction
  3
AutoCAD 2000
 90
    32768
280
     0
281
     0
  0
CLASS
  1
LWPOLYLINE
  2
AcDbPolyline
  3
AutoCAD 2000
 90
    32768
280
     0
281
     1
  0
CLASS
  1
HATCH
  2
AcDbHatch
  3
AutoCAD 2000
 90
    32768
280
     0
281
     1
  0
CLASS
  1
XRECORD
  2
AcDbXrecord
  3
AutoCAD 2000
 90
    32768
280
     0
281
     0
  0
ENDSEC
  0
SECTION
  2
TABLES
  0
TABLE
  2
VPORT
  5
8
330
0
100
AcDbSymbolTable
 70
     3
  0
VPORT
  5
214
330
8
100
AcDbSymbolTableRecord
100
AcDbViewportTableRecord
  2
*ACTIVE
 70
     0
 10
0.0
 20
0.0
 11
1.0
 21
1.0
 12
-0.0249933556365747
 22
-0.1500011092469151
 13
0.0
 23
0.0
 14
1.0
 24
1.0
 15
0.0
 25
0.0
 16
0.0
 26
0.0
 36
1.0
 17
0.0
 27
0.0
 37
0.0
 40
192.1532605350113
 41
2.06766917293233
 42
50.0
 43
0.0
 44
0.0
 50
0.0
 51
0.0
 71
     0
 72
   100
 73
     1
 74
     1
 75
     0
 76
     0
 77
     0
 78
     0
  0
ENDTAB
  0
TABLE
  2
LTYPE
  5
5
330
0
100
AcDbSymbolTable
 70
     5
  0
LTYPE
  5
13
330
5
100
AcDbSymbolTableRecord
100
AcDbLinetypeTableRecord
  2
BYBLOCK
 70
     0
  3

 72
    65
 73
     0
 40
0.0
  0
LTYPE
  5
14
330
5
100
AcDbSymbolTableRecord
100
AcDbLinetypeTableRecord
  2
BYLAYER
 70
     0
  3

 72
    65
 73
     0
 40
0.0
  0
LTYPE
  5
15
330
5
100
AcDbSymbolTableRecord
100
AcDbLinetypeTableRecord
  2
CONTINUOUS
 70
     0
  3
Solid-Line
 72
    65
 73
     0
 40
0.0
  0
LTYPE
  5
22
330
5
100
AcDbSymbolTableRecord
100
AcDbLinetypeTableRecord
  2
DASHED
 70
     0
  3
DASHED
 72
    65
 73
     2
 40
0.75
 49
0.5
 74
     0
 49
-0.25
 74
     0
  0
LTYPE
  5
23
330
5
100
AcDbSymbolTableRecord
100
AcDbLinetypeTableRecord
  2
HIDDEN
 70
     0
  3
HIDDEN
 72
    65
 73
     2
 40
0.375
 49
0.25
 74
     0
 49
-0.125
 74
     0
  0
LTYPE
  5
24
330
5
100
AcDbSymbolTableRecord
100
AcDbLinetypeTableRecord
  2
CENTER
 70
     0
  3
CENTER
 72
    65
 73
     4
 40
2.0
 49
1.25
 74
     0
 49
-0.25
 74
     0
 49
0.25
 74
     0
 49
-0.25
 74
     0
  0
LTYPE
  5
25
330
5
100
AcDbSymbolTableRecord
100
AcDbLinetypeTableRecord
  2
PHANTOM
 70
     0
  3
PHANTOM
 72
    65
 73
     6
 40
2.5
 49
1.25
 74
     0
 49
-0.25
 74
     0
 49
0.25
 74
     0
 49
-0.25
 74
     0
 49
0.25
 74
     0
 49
-0.25
 74
     0
  0
ENDTAB
  0
TABLE
  2
LAYER
  5
2
330
0
100
AcDbSymbolTable
 70
     1
  0
LAYER
  5
10
330
2
100
AcDbSymbolTableRecord
100
AcDbLayerTableRecord
  2
0
 70
     0
 62
     7
  6
CONTINUOUS
  0
ENDTAB
  0
TABLE
  2
STYLE
  5
3
330
0
100
AcDbSymbolTable
 70
     3
  0
STYLE
  5
11
330
3
100
AcDbSymbolTableRecord
100
AcDbTextStyleTableRecord
  2
STANDARD
 70
     0
 40
0.0
 41
1.0
 50
0.0
 71
     0
 42
0.2
  3
txt
  4

  0
STYLE
  5
26
330
3
100
AcDbSymbolTableRecord
100
AcDbTextStyleTableRecord
  2
MONOTXT
 70
     0
 40
0.0
 41
1.0
 50
0.0
 71
     0
 42
0.2
  3
monotxt
  4

  0
STYLE
  5
27
330
3
100
AcDbSymbolTableRecord
100
AcDbTextStyleTableRecord
  2
BIGFONT
 70
     0
 40
0.0
 41
1.0
 50
0.0
 71
     0
 42
0.2
  3
txt
  4
bigfont
  0
ENDTAB
  0
TABLE
  2
VIEW
  5
6
330
0
100
AcDbSymbolTable
 70
     0
  0
ENDTAB
  0
TABLE
  2
UCS
  5
7
330
0
100
AcDbSymbolTable
 70
     0
  0
ENDTAB
  0
TABLE
  2
APPID
  5
9
330
0
100
AcDbSymbolTable
 70
     1
  0
APPID
  5
12
330
9
100
AcDbSymbolTableRecord
100
AcDbRegAppTableRecord
  2
ACAD
 70
     0
  0
ENDTAB
  0
TABLE
  2
DIMSTYLE
  5
A
330
0
100
AcDbSymbolTable
 70
     1
  0
DIMSTYLE
105
1DD
330
A
100
AcDbSymbolTableRecord
100
AcDbDimStyleTableRecord
  2
STANDARD
 70
     0
  3

  4

  5

  6

  7

 40
1.0
 41
0.18
 42
0.0625
 43
0.38
 44
0.18
 45
0.0
 46
0.0
 47
0.0
 48
0.0
140
0.18
141
0.09
142
0.0
143
25.4
144
1.0
145
0.0
146
1.0
147
0.09
 71
     0
 72
     0
 73
     1
 74
     1
 75
     0
 76
     0
 77
     0
 78
     0
170
     0
171
     2
172
     0
173
     0
174
     0
175
     0
176
     0
177
     0
178
     0
270
     2
271
     4
272
     4
273
     2
274
     2
340
11
275
     0
280
     0
281
     0
282
     0
283
     1
284
     0
285
     0
286
     0
287
     3
288
     0
  0
ENDTAB
  0
TABLE
  2
BLOCK_RECORD
  5
1
330
0
100
AcDbSymbolTable
 70
     0
  0
BLOCK_RECORD
  5
1E
102
{ACAD_XDICTIONARY
360
217
102
}
330
1
100
AcDbSymbolTableRecord
100
AcDbBlockTableRecord
  2
*MODEL_SPACE
  0
BLOCK_RECORD
  5
1A
102
{ACAD_XDICTIONARY
360
215
102
}
330
1
100
AcDbSymbolTableRecord
100
AcDbBlockTableRecord
  2
*PAPER_SPACE
  0
ENDTAB
  0
ENDSEC
  0
SECTION
  2
BLOCKS
  0
BLOCK
  5
1F
330
1E
100
AcDbEntity
  8
0
100
AcDbBlockBegin
  2
*MODEL_SPACE
 70
     0
 10
0.0
 20
0.0
 30
0.0
  3
*MODEL_SPACE
  1

  0
ENDBLK
  5
20
330
1E
100
AcDbEntity
  8
0
100
AcDbBlockEnd
  0
BLOCK
  5
1B
330
1A
100
AcDbEntity
 67
     1
  8
0
100
AcDbBlockBegin
  2
*PAPER_SPACE
 70
     0
 10
0.0
 20
0.0
 30
0.0
  3
*PAPER_SPACE
  1

  0
ENDBLK
  5
1C
330
1A
100
AcDbEntity
 67
     1
  8
0
100
AcDbBlockEnd
  0
ENDSEC
  0
SECTION
  2
ENTITIES
  0
LINE
  5
2C
330
1E
100
AcDbEntity
  8
0
 62
     7
100
AcDbLine
 10
-36.5
 20
-22.5
 30
0.0
 11
-13.5
 21
-22.5
 31
0.0
  0
LINE
  5
2D
330
1E
100
AcDbEntity
  8
0
 62
     7
100
AcDbLine
 10
-36.5
 20
-46.2
 30
0.0
 11
-36.5
 21
-22.5
 31
0.0
  0
LINE
  5
2E
330
1E
100
AcDbEntity
  8
0
 62
     7
100
AcDbLine
 10
-13.5
 20
-46.2
 30
0.0
 11
-13.5
 21
-22.5
 31
0.0
  0
LINE
  5
2F
330
1E
100
AcDbEntity
  8
0
 62
     7
100
AcDbLine
 10
-13.5
 20
-22.5
 30
0.0
 11
-13.5
 21
-22.0
 31
0.0
  0
LINE
  5
30
330
1E
100
AcDbEntity
  8
0
 62
     7
100
AcDbLine
 10
-36.5
 20
-22.5
 30
0.0
 11
-36.5
 21
-22.0
 31
0.0
  0
LINE
  5
31
330
1E
100
AcDbEntity
  8
0
 62
     7
100
AcDbLine
 10
-25.0
 20
-25.5
 30
0.0
 11
-28.5
 21
-25.8062103
 31
0.0
  0
LINE
  5
32
330
1E
100
AcDbEntity
  8
0
 62
     7
100
AcDbLine
 10
-21.49999999999999
 20
-28.5
 30
0.0
 11
-21.49999999999999
 21
-25.5
 31
0.0
  0
LINE
  5
33
330
1E
100
AcDbEntity
  8
0
 62
     7
100
AcDbLine
 10
-28.5
 20
-28.5
 30
0.0
 11
-28.5
 21
-25.8062103
 31
0.0
  0
LINE
  5
34
330
1E
100
AcDbEntity
  8
0
 62
     7
100
AcDbLine
 10
-28.6
 20
-28.9
 30
0.0
 11
-28.6
 21
-25.5
 31
0.0
  0
LINE
  5
35
330
1E
100
AcDbEntity
  8
0
 62
     7
100
AcDbLine
 10
-19.69999999999999
 20
-28.9
 30
0.0
 11
-19.69999999999999
 21
-25.5
 31
0.0
  0
LINE
  5
36
330
1E
100
AcDbEntity
  8
0
 62
     7
100
AcDbLine
 10
-28.6
 20
-25.5
 30
0.0
 11
-19.69999999999999
 21
-25.5
 31
0.0
  0
LINE
  5
37
330
1E
100
AcDbEntity
  8
0
 62
     7
100
AcDbLine
 10
-28.5
 20
-28.5
 30
0.0
 11
-21.49999999999999
 21
-28.5
 31
0.0
  0
LINE
  5
38
330
1E
100
AcDbEntity
  8
0
 62
     7
100
AcDbLine
 10
-19.69999999999999
 20
-28.9
 30
0.0
 11
-28.6
 21
-28.9
 31
0.0
  0
LINE
  5
39
330
1E
100
AcDbEntity
  8
0
  6
CENTER
 62
     2
100
AcDbLine
 10
-30.5
 20
-58.2149695
 30
0.0
 11
-30.5
 21
-46.42827809999999
 31
0.0
  0
LINE
  5
3A
330
1E
100
AcDbEntity
  8
0
  6
CENTER
 62
     2
100
AcDbLine
 10
-19.5
 20
-57.95597719999999
 30
0.0
 11
-19.5
 21
-46.2847075
 31
0.0
  0
LINE
  5
3B
330
1E
100
AcDbEntity
  8
0
  6
CENTER
 62
     2
100
AcDbLine
 10
-30.83263119999999
 20
-36.2
 30
0.0
 11
-37.14974039999999
 21
-36.2
 31
0.0
  0
CIRCLE
  5
3C
330
1E
100
AcDbEntity
  8
0
 62
     7
100
AcDbCircle
 10
-34.0
 20
-36.2
 30
0.0
 40
1.3
  0
CIRCLE
  5
3D
330
1E
100
AcDbEntity
  8
0
 62
     7
100
AcDbCircle
 10
-16.0
 20
-36.2
 30
0.0
 40
1.3
  0
LINE
  5
3E
330
1E
100
AcDbEntity
  8
0
  6
CENTER
 62
     2
100
AcDbLine
 10
-16.0
 20
-39.7761707
 30
0.0
 11
-16.0
 21
-32.7890651
 31
0.0
  0
LINE
  5
3F
330
1E
100
AcDbEntity
  8
0
  6
CENTER
 62
     2
100
AcDbLine
 10
-34.0
 20
-39.5847432
 30
0.0
 11
-34.0
 21
-32.5976376
 31
0.0
  0
LINE
  5
40
330
1E
100
AcDbEntity
  8
0
  6
CENTER
 62
     2
100
AcDbLine
 10
-12.8862983
 20
-36.2
 30
0.0
 11
-19.4905488
 21
-36.2
 31
0.0
  0
LINE
  5
41
330
1E
100
AcDbEntity
  8
0
 62
     7
100
AcDbLine
 10
-14.5
 20
-47.2
 30
0.0
 11
-35.5
 21
-47.2
 31
0.0
  0
ARC
  5
42
330
1E
100
AcDbEntity
  8
0
 62
     7
100
AcDbCircle
 10
-14.5
 20
-46.2
 30
0.0
 40
1.0
100
AcDbArc
 50
270.0
 51
0.0
  0
ARC
  5
43
330
1E
100
AcDbEntity
  8
0
 62
     7
100
AcDbCircle
 10
-35.5
 20
-46.2
 30
0.0
 40
1.0
100
AcDbArc
 50
180.0
 51
270.0
  0
ARC
  5
44
330
1E
100
AcDbEntity
  8
0
 62
     7
100
AcDbCircle
 10
-14.8
 20
-56.4
 30
0.0
 40
0.2
100
AcDbArc
 50
270.0
 51
0.0
  0
ARC
  5
45
330
1E
100
AcDbEntity
  8
0
 62
     7
100
AcDbCircle
 10
-24.19999999999999
 20
-56.4
 30
0.0
 40
0.2
100
AcDbArc
 50
180.0
 51
270.0
  0
LINE
  5
46
330
1E
100
AcDbEntity
  8
0
  6
DASHED
 62
     2
100
AcDbLine
 10
-16.5
 20
-56.6
 30
0.0
 11
-16.5
 21
-53.5
 31
0.0
  0
LINE
  5
47
330
1E
100
AcDbEntity
  8
0
  6
DASHED
 62
     2
100
AcDbLine
 10
-22.5
 20
-56.6
 30
0.0
 11
-22.5
 21
-53.5
 31
0.0
  0
LINE
  5
48
330
1E
100
AcDbEntity
  8
0
 62
     7
100
AcDbLine
 10
-14.95
 20
-54.5
 30
0.0
 11
-14.55
 21
-53.8071797
 31
0.0
  0
LINE
  5
49
330
1E
100
AcDbEntity
  8
0
 62
     7
100
AcDbLine
 10
-24.05
 20
-54.5
 30
0.0
 11
-24.45
 21
-53.8071797
 31
0.0
  0
LINE
  5
4A
330
1E
100
AcDbEntity
  8
0
 62
     7
100
AcDbLine
 10
-24.19999999999999
 20
-56.6
 30
0.0
 11
-14.8
 21
-56.6
 31
0.0
  0
LINE
  5
4B
330
1E
100
AcDbEntity
  8
0
 62
     7
100
AcDbLine
 10
-14.55
 20
-53.8071797
 30
0.0
 11
-14.55
 21
-47.2
 31
0.0
  0
LINE
  5
4C
330
1E
100
AcDbEntity
  8
0
 62
     7
100
AcDbLine
 10
-14.59999999999999
 20
-56.4
 30
0.0
 11
-14.59999999999999
 21
-55.6
 31
0.0
  0
LINE
  5
4D
330
1E
100
AcDbEntity
  8
0
 62
     7
100
AcDbLine
 10
-14.59999999999999
 20
-55.6
 30
0.0
 11
-15.4660254
 21
-55.1
 31
0.0
  0
LINE
  5
4E
330
1E
100
AcDbEntity
  8
0
 62
     7
100
AcDbLine
 10
-16.0
 20
-55.1
 30
0.0
 11
-16.0
 21
-54.5
 31
0.0
  0
LINE
  5
4F
330
1E
100
AcDbEntity
  8
0
 62
     7
100
AcDbLine
 10
-14.59999999999999
 20
-55.6
 30
0.0
 11
-24.39999999999999
 21
-55.6
 31
0.0
  0
LINE
  5
50
330
1E
100
AcDbEntity
  8
0
 62
     7
100
AcDbLine
 10
-15.4660254
 20
-55.1
 30
0.0
 11
-23.5339746
 21
-55.1
 31
0.0
  0
LINE
  5
51
330
1E
100
AcDbEntity
  8
0
 62
     7
100
AcDbLine
 10
-14.95
 20
-54.5
 30
0.0
 11
-24.05
 21
-54.5
 31
0.0
  0
LINE
  5
52
330
1E
100
AcDbEntity
  8
0
 62
     7
100
AcDbLine
 10
-23.0
 20
-55.1
 30
0.0
 11
-23.0
 21
-54.5
 31
0.0
  0
LINE
  5
53
330
1E
100
AcDbEntity
  8
0
 62
     7
100
AcDbLine
 10
-24.39999999999999
 20
-55.6
 30
0.0
 11
-23.5339746
 21
-55.1
 31
0.0
  0
LINE
  5
54
330
1E
100
AcDbEntity
  8
0
 62
     7
100
AcDbLine
 10
-24.39999999999999
 20
-56.4
 30
0.0
 11
-24.39999999999999
 21
-55.6
 31
0.0
  0
LINE
  5
55
330
1E
100
AcDbEntity
  8
0
 62
     7
100
AcDbLine
 10
-24.45
 20
-53.8071797
 30
0.0
 11
-24.45
 21
-47.2
 31
0.0
  0
LINE
  5
56
330
1E
100
AcDbEntity
  8
0
 62
     7
100
AcDbLine
 10
-25.55
 20
-53.8071797
 30
0.0
 11
-25.55
 21
-47.2
 31
0.0
  0
LINE
  5
57
330
1E
100
AcDbEntity
  8
0
 62
     7
100
AcDbLine
 10
-25.6
 20
-56.4
 30
0.0
 11
-25.6
 21
-55.6
 31
0.0
  0
LINE
  5
58
330
1E
100
AcDbEntity
  8
0
 62
     7
100
AcDbLine
 10
-25.6
 20
-55.6
 30
0.0
 11
-26.46602539999999
 21
-55.1
 31
0.0
  0
LINE
  5
59
330
1E
100
AcDbEntity
  8
0
 62
     7
100
AcDbLine
 10
-27.0
 20
-55.1
 30
0.0
 11
-27.0
 21
-54.5
 31
0.0
  0
LINE
  5
5A
330
1E
100
AcDbEntity
  8
0
 62
     7
100
AcDbLine
 10
-35.04999999999999
 20
-54.5
 30
0.0
 11
-25.95
 21
-54.5
 31
0.0
  0
LINE
  5
5B
330
1E
100
AcDbEntity
  8
0
 62
     7
100
AcDbLine
 10
-34.53397460000001
 20
-55.1
 30
0.0
 11
-26.46602539999999
 21
-55.1
 31
0.0
  0
LINE
  5
5C
330
1E
100
AcDbEntity
  8
0
 62
     7
100
AcDbLine
 10
-35.4
 20
-55.6
 30
0.0
 11
-25.6
 21
-55.6
 31
0.0
  0
LINE
  5
5D
330
1E
100
AcDbEntity
  8
0
 62
     7
100
AcDbLine
 10
-34.0
 20
-55.1
 30
0.0
 11
-34.0
 21
-54.5
 31
0.0
  0
LINE
  5
5E
330
1E
100
AcDbEntity
  8
0
 62
     7
100
AcDbLine
 10
-35.4
 20
-55.6
 30
0.0
 11
-34.53397460000001
 21
-55.1
 31
0.0
  0
LINE
  5
5F
330
1E
100
AcDbEntity
  8
0
 62
     7
100
AcDbLine
 10
-35.4
 20
-56.4
 30
0.0
 11
-35.4
 21
-55.6
 31
0.0
  0
LINE
  5
60
330
1E
100
AcDbEntity
  8
0
 62
     7
100
AcDbLine
 10
-35.45
 20
-53.8071797
 30
0.0
 11
-35.45
 21
-47.2
 31
0.0
  0
LINE
  5
61
330
1E
100
AcDbEntity
  8
0
 62
     7
100
AcDbLine
 10
-25.8
 20
-56.6
 30
0.0
 11
-35.2
 21
-56.6
 31
0.0
  0
LINE
  5
62
330
1E
100
AcDbEntity
  8
0
 62
     7
100
AcDbLine
 10
-25.95
 20
-54.5
 30
0.0
 11
-25.55
 21
-53.8071797
 31
0.0
  0
LINE
  5
63
330
1E
100
AcDbEntity
  8
0
 62
     7
100
AcDbLine
 10
-35.04999999999999
 20
-54.5
 30
0.0
 11
-35.45
 21
-53.8071797
 31
0.0
  0
LINE
  5
64
330
1E
100
AcDbEntity
  8
0
  6
DASHED
 62
     2
100
AcDbLine
 10
-27.5
 20
-56.6
 30
0.0
 11
-27.5
 21
-53.5
 31
0.0
  0
LINE
  5
65
330
1E
100
AcDbEntity
  8
0
  6
DASHED
 62
     2
100
AcDbLine
 10
-33.5
 20
-56.6
 30
0.0
 11
-33.5
 21
-53.5
 31
0.0
  0
ARC
  5
66
330
1E
100
AcDbEntity
  8
0
 62
     7
100
AcDbCircle
 10
-25.8
 20
-56.4
 30
0.0
 40
0.2
100
AcDbArc
 50
270.0
 51
0.0
  0
ARC
  5
67
330
1E
100
AcDbEntity
  8
0
 62
     7
100
AcDbCircle
 10
-35.2
 20
-56.4
 30
0.0
 40
0.2
100
AcDbArc
 50
180.0
 51
270.0
  0
LINE
  5
68
330
1E
100
AcDbEntity
  8
0
  6
CENTER
 62
     2
100
AcDbLine
 10
-18.2448048
 20
-40.0
 30
0.0
 11
-31.80100069999999
 21
-40.0
 31
0.0
  0
CIRCLE
  5
69
330
1E
100
AcDbEntity
  8
0
 62
     7
100
AcDbCircle
 10
-25.0
 20
-40.0
 30
0.0
 40
3.0
  0
CIRCLE
  5
6A
330
1E
100
AcDbEntity
  8
0
 62
     2
100
AcDbCircle
 10
-25.0
 20
-40.0
 30
0.0
 40
4.86399937
  0
CIRCLE
  5
6B
330
1E
100
AcDbEntity
  8
0
 62
     7
100
AcDbCircle
 10
-25.0
 20
-40.0
 30
0.0
 40
4.27799988
  0
ARC
  5
6C
330
1E
100
AcDbEntity
  8
0
 62
     7
100
AcDbCircle
 10
-34.0
 20
-36.2
 30
0.0
 40
2.75
100
AcDbArc
 50
270.0
 51
90.00000020000001
  0
ARC
  5
6D
330
1E
100
AcDbEntity
  8
0
 62
     7
100
AcDbCircle
 10
-16.0
 20
-36.2
 30
0.0
 40
2.75
100
AcDbArc
 50
90.00000020000001
 51
270.0
  0
LINE
  5
6E
330
1E
100
AcDbEntity
  8
0
 62
     7
100
AcDbLine
 10
-16.0
 20
-33.45
 30
0.0
 11
-13.8
 21
-33.45
 31
0.0
  0
LINE
  5
6F
330
1E
100
AcDbEntity
  8
0
 62
     7
100
AcDbLine
 10
-16.0
 20
-38.95
 30
0.0
 11
-13.8
 21
-38.95
 31
0.0
  0
LINE
  5
70
330
1E
100
AcDbEntity
  8
0
 62
     7
100
AcDbLine
 10
-34.0
 20
-33.45
 30
0.0
 11
-36.2
 21
-33.45
 31
0.0
  0
LINE
  5
71
330
1E
100
AcDbEntity
  8
0
 62
     7
100
AcDbLine
 10
-34.0
 20
-38.95
 30
0.0
 11
-36.2
 21
-38.95
 31
0.0
  0
ARC
  5
72
330
1E
100
AcDbEntity
  8
0
 62
     7
100
AcDbCircle
 10
-13.8
 20
-33.14999999999999
 30
0.0
 40
0.3
100
AcDbArc
 50
270.0
 51
0.0
  0
ARC
  5
73
330
1E
100
AcDbEntity
  8
0
 62
     7
100
AcDbCircle
 10
-13.8
 20
-39.25
 30
0.0
 40
0.3
100
AcDbArc
 50
0.0
 51
90.00000020000001
  0
ARC
  5
74
330
1E
100
AcDbEntity
  8
0
 62
     7
100
AcDbCircle
 10
-36.2
 20
-39.25
 30
0.0
 40
0.3
100
AcDbArc
 50
90.00000020000001
 51
180.0
  0
ARC
  5
75
330
1E
100
AcDbEntity
  8
0
 62
     7
100
AcDbCircle
 10
-36.2
 20
-33.14999999999999
 30
0.0
 40
0.3
100
AcDbArc
 50
180.0
 51
270.0
  0
CIRCLE
  5
76
330
1E
100
AcDbEntity
  8
0
 62
     7
100
AcDbCircle
 10
-30.5
 20
-44.7
 30
0.0
 40
1.5
  0
CIRCLE
  5
77
330
1E
100
AcDbEntity
  8
0
 62
     7
100
AcDbCircle
 10
-19.5
 20
-44.7
 30
0.0
 40
1.5
  0
LINE
  5
78
330
1E
100
AcDbEntity
  8
0
 62
     7
100
AcDbLine
 10
-30.5
 20
-43.45
 30
0.0
 11
-29.4174682
 21
-45.325
 31
0.0
  0
LINE
  5
79
330
1E
100
AcDbEntity
  8
0
 62
     7
100
AcDbLine
 10
-30.5
 20
-43.45
 30
0.0
 11
-31.5825318
 21
-45.325
 31
0.0
  0
LINE
  5
7A
330
1E
100
AcDbEntity
  8
0
 62
     7
100
AcDbLine
 10
-19.5
 20
-45.95
 30
0.0
 11
-18.4174682
 21
-44.075
 31
0.0
  0
LINE
  5
7B
330
1E
100
AcDbEntity
  8
0
 62
     7
100
AcDbLine
 10
-19.5
 20
-45.95
 30
0.0
 11
-20.58253179999999
 21
-44.075
 31
0.0
  0
LINE
  5
7C
330
1E
100
AcDbEntity
  8
0
 62
     7
100
AcDbLine
 10
-18.4174682
 20
-44.075
 30
0.0
 11
-20.58253179999999
 21
-44.075
 31
0.0
  0
LINE
  5
7D
330
1E
100
AcDbEntity
  8
0
 62
     7
100
AcDbLine
 10
-29.4174682
 20
-45.325
 30
0.0
 11
-31.5825318
 21
-45.325
 31
0.0
  0
LINE
  5
7E
330
1E
100
AcDbEntity
  8
0
 62
     7
100
AcDbLine
 10
-33.0
 20
-13.5
 30
0.0
 11
-17.0
 21
-13.5
 31
0.0
  0
LINE
  5
7F
330
1E
100
AcDbEntity
  8
0
 62
     7
100
AcDbLine
 10
-31.25
 20
-13.5
 30
0.0
 11
-31.25
 21
-10.8
 31
0.0
  0
LINE
  5
80
330
1E
100
AcDbEntity
  8
0
 62
     7
100
AcDbLine
 10
-18.75
 20
-13.5
 30
0.0
 11
-18.75
 21
-10.8
 31
0.0
  0
LINE
  5
81
330
1E
100
AcDbEntity
  8
0
 62
     7
100
AcDbLine
 10
-16.95
 20
-10.8
 30
0.0
 11
-33.04999999999999
 21
-10.8
 31
0.0
  0
LINE
  5
82
330
1E
100
AcDbEntity
  8
0
 62
     7
100
AcDbLine
 10
-16.75
 20
-10.6
 30
0.0
 11
-16.95
 21
-10.8
 31
0.0
  0
LINE
  5
83
330
1E
100
AcDbEntity
  8
0
 62
     7
100
AcDbLine
 10
-31.7331726
 20
4.2
 30
0.0
 11
-18.3036433
 21
4.2
 31
0.0
  0
LINE
  5
84
330
1E
100
AcDbEntity
  8
0
 62
     7
100
AcDbLine
 10
-33.25
 20
-10.6
 30
0.0
 11
-33.04999999999999
 21
-10.8
 31
0.0
  0
LINE
  5
85
330
1E
100
AcDbEntity
  8
0
 62
     7
100
AcDbLine
 10
-33.25
 20
-10.6
 30
0.0
 11
-32.769357
 21
3.16381564
 31
0.0
  0
LINE
  5
86
330
1E
100
AcDbEntity
  8
0
 62
     7
100
AcDbLine
 10
-16.75
 20
-10.6
 30
0.0
 11
-17.23192789999999
 21
3.200609169999999
 31
0.0
  0
LINE
  5
87
330
1E
100
AcDbEntity
  8
0
 62
     7
100
AcDbLine
 10
-17.23192789999999
 20
3.200609169999999
 30
0.0
 11
-18.3036433
 21
4.2
 31
0.0
  0
LINE
  5
88
330
1E
100
AcDbEntity
  8
0
 62
     7
100
AcDbLine
 10
-31.7331726
 20
4.2
 30
0.0
 11
-32.769357
 21
3.16381564
 31
0.0
  0
LINE
  5
89
330
1E
100
AcDbEntity
  8
0
 62
     7
100
AcDbLine
 10
-35.5
 20
-21.0
 30
0.0
 11
-14.5
 21
-21.0
 31
0.0
  0
LINE
  5
8A
330
1E
100
AcDbEntity
  8
0
 62
     7
100
AcDbLine
 10
-33.0
 20
-14.0
 30
0.0
 11
-17.0
 21
-14.0
 31
0.0
  0
LINE
  5
8B
330
1E
100
AcDbEntity
  8
0
 62
     7
100
AcDbLine
 10
-33.0
 20
-20.5
 30
0.0
 11
-17.0
 21
-20.5
 31
0.0
  0
LINE
  5
8C
330
1E
100
AcDbEntity
  8
0
  6
PHANTOM
 62
     6
100
AcDbLine
 10
-37.0
 20
-18.3
 30
0.0
 11
-37.0
 21
-14.3
 31
0.0
  0
LINE
  5
8D
330
1E
100
AcDbEntity
  8
0
  6
PHANTOM
 62
     6
100
AcDbLine
 10
-37.0
 20
-14.3
 30
0.0
 11
-13.0
 21
-14.3
 31
0.0
  0
ARC
  5
8E
330
1E
100
AcDbEntity
  8
0
  6
PHANTOM
 62
     6
100
AcDbCircle
 10
-33.48528139999999
 20
-25.4058404
 30
0.0
 40
11.1058404
100
AcDbArc
 50
71.55013120000001
 51
108.4498689999999
  0
ARC
  5
8F
330
1E
100
AcDbEntity
  8
0
  6
PHANTOM
 62
     6
100
AcDbCircle
 10
-33.48528139999999
 20
-7.19415956
 30
0.0
 40
11.1058404
100
AcDbArc
 50
251.550131
 51
288.449869
  0
LINE
  5
90
330
1E
100
AcDbEntity
  8
0
  6
PHANTOM
 62
     6
100
AcDbLine
 10
-37.0
 20
-18.3
 30
0.0
 11
-13.0
 21
-18.3
 31
0.0
  0
LINE
  5
91
330
1E
100
AcDbEntity
  8
0
  6
PHANTOM
 62
     6
100
AcDbLine
 10
-29.9705628
 20
-17.72917
 30
0.0
 11
-29.9705628
 21
-14.87082999999999
 31
0.0
  0
ARC
  5
92
330
1E
100
AcDbEntity
  8
0
  6
PHANTOM
 62
     6
100
AcDbCircle
 10
-25.0
 20
-36.2262661
 30
0.0
 40
21.9262661
100
AcDbArc
 50
76.8974621
 51
103.1025379999999
  0
ARC
  5
93
330
1E
100
AcDbEntity
  8
0
  6
PHANTOM
 62
     6
100
AcDbCircle
 10
-25.0
 20
3.626266069999999
 30
0.0
 40
21.9262661
100
AcDbArc
 50
256.897462
 51
283.1025369999999
  0
LINE
  5
94
330
1E
100
AcDbEntity
  8
0
  6
PHANTOM
 62
     6
100
AcDbLine
 10
-20.0294373
 20
-17.72917
 30
0.0
 11
-20.0294373
 21
-14.87082999999999
 31
0.0
  0
ARC
  5
95
330
1E
100
AcDbEntity
  8
0
  6
PHANTOM
 62
     6
100
AcDbCircle
 10
-16.5147186
 20
-25.4058406
 30
0.0
 40
11.1058406
100
AcDbArc
 50
71.55013120000001
 51
108.4498689999999
  0
ARC
  5
96
330
1E
100
AcDbEntity
  8
0
  6
PHANTOM
 62
     6
100
AcDbCircle
 10
-16.5147186
 20
-7.194159359999999
 30
0.0
 40
11.1058406
100
AcDbArc
 50
251.550131
 51
288.449869
  0
LINE
  5
97
330
1E
100
AcDbEntity
  8
0
  6
PHANTOM
 62
     6
100
AcDbLine
 10
-13.0
 20
-18.3
 30
0.0
 11
-13.0
 21
-14.3
 31
0.0
  0
LINE
  5
98
330
1E
100
AcDbEntity
  8
0
 62
     7
100
AcDbLine
 10
-26.2
 20
-9.3
 30
0.0
 11
-26.2
 21
4.046043209999999
 31
0.0
  0
LINE
  5
99
330
1E
100
AcDbEntity
  8
0
 62
     7
100
AcDbLine
 10
-23.8
 20
-9.3
 30
0.0
 11
-23.8
 21
4.046043209999999
 31
0.0
  0
LINE
  5
9A
330
1E
100
AcDbEntity
  8
0
 62
     7
100
AcDbLine
 10
-26.1999999
 20
4.046043189999999
 30
0.0
 11
-23.8
 21
4.046043189999999
 31
0.0
  0
LINE
  5
9B
330
1E
100
AcDbEntity
  8
0
 62
     7
100
AcDbLine
 10
-30.79781089999999
 20
3.16381564
 30
0.0
 11
-26.6253741
 21
3.16381564
 31
0.0
  0
LINE
  5
9C
330
1E
100
AcDbEntity
  8
0
 62
     7
100
AcDbLine
 10
-26.1999999
 20
4.046043189999999
 30
0.0
 11
-26.6253741
 21
3.16381564
 31
0.0
  0
LINE
  5
9D
330
1E
100
AcDbEntity
  8
0
 62
     7
100
AcDbLine
 10
-26.8458297
 20
-10.10427769999999
 30
0.0
 11
-23.15417019999999
 21
-10.10427769999999
 31
0.0
  0
LINE
  5
9E
330
1E
100
AcDbEntity
  8
0
 62
     7
100
AcDbLine
 10
-26.6253741
 20
3.16381564
 30
0.0
 11
-26.8458297
 21
-10.10427769999999
 31
0.0
  0
LINE
  5
9F
330
1E
100
AcDbEntity
  8
0
 62
     7
100
AcDbLine
 10
-23.8
 20
4.046043209999999
 30
0.0
 11
-23.37462579999999
 21
3.16381564
 31
0.0
  0
LINE
  5
A0
330
1E
100
AcDbEntity
  8
0
 62
     7
100
AcDbLine
 10
-23.37462579999999
 20
3.16381564
 30
0.0
 11
-23.15417019999999
 21
-10.10427769999999
 31
0.0
  0
LINE
  5
A1
330
1E
100
AcDbEntity
  8
0
 62
     7
100
AcDbLine
 10
-26.1999999
 20
-9.3
 30
0.0
 11
-23.8
 21
-9.3
 31
0.0
  0
LINE
  5
A2
330
1E
100
AcDbEntity
  8
0
 62
     7
100
AcDbLine
 10
-31.57243669999999
 20
4.046043189999999
 30
0.0
 11
-30.3724367
 21
4.046043189999999
 31
0.0
  0
LINE
  5
A3
330
1E
100
AcDbEntity
  8
0
 62
     7
100
AcDbLine
 10
-31.57243669999999
 20
4.046043189999999
 30
0.0
 11
-32.42318499999999
 21
3.16381564
 31
0.0
  0
LINE
  5
A4
330
1E
100
AcDbEntity
  8
0
 62
     7
100
AcDbLine
 10
-30.3724367
 20
4.046043189999999
 30
0.0
 11
-30.7978108
 21
3.16381564
 31
0.0
  0
LINE
  5
A5
330
1E
100
AcDbEntity
  8
0
 62
     7
100
AcDbLine
 10
-32.8640962
 20
-10.10427769999999
 30
0.0
 11
-31.0182664
 21
-10.10427769999999
 31
0.0
  0
LINE
  5
A6
330
1E
100
AcDbEntity
  8
0
 62
     7
100
AcDbLine
 10
-31.94114
 20
-9.3
 30
0.0
 11
-31.004903
 21
-9.3
 31
0.0
  0
LINE
  5
A7
330
1E
100
AcDbEntity
  8
0
 62
     7
100
AcDbLine
 10
-30.7978108
 20
3.16381564
 30
0.0
 11
-31.0182664
 21
-10.10427769999999
 31
0.0
  0
LINE
  5
A8
330
1E
100
AcDbEntity
  8
0
 62
     7
100
AcDbLine
 10
-32.42318499999999
 20
3.16381564
 30
0.0
 11
-32.8640962
 21
-10.10427769999999
 31
0.0
  0
LINE
  5
A9
330
1E
100
AcDbEntity
  8
0
 62
     7
100
AcDbLine
 10
-31.57243669999999
 20
4.046043189999999
 30
0.0
 11
-31.94114
 21
-9.3
 31
0.0
  0
LINE
  5
AA
330
1E
100
AcDbEntity
  8
0
 62
     7
100
AcDbLine
 10
-32.769357
 20
3.16381564
 30
0.0
 11
-32.42318499999999
 21
3.16381564
 31
0.0
  0
LINE
  5
AB
330
1E
100
AcDbEntity
  8
0
 62
     7
100
AcDbLine
 10
-19.2021891
 20
3.16381564
 30
0.0
 11
-23.37462589999999
 21
3.16381564
 31
0.0
  0
LINE
  5
AC
330
1E
100
AcDbEntity
  8
0
 62
     7
100
AcDbLine
 10
-18.4275633
 20
4.046043189999999
 30
0.0
 11
-17.576815
 21
3.16381564
 31
0.0
  0
LINE
  5
AD
330
1E
100
AcDbEntity
  8
0
 62
     7
100
AcDbLine
 10
-19.62756329999999
 20
4.046043189999999
 30
0.0
 11
-19.20218919999999
 21
3.16381564
 31
0.0
  0
LINE
  5
AE
330
1E
100
AcDbEntity
  8
0
 62
     7
100
AcDbLine
 10
-17.1359038
 20
-10.10427769999999
 30
0.0
 11
-18.9817336
 21
-10.10427769999999
 31
0.0
  0
LINE
  5
AF
330
1E
100
AcDbEntity
  8
0
 62
     7
100
AcDbLine
 10
-17.576815
 20
3.16381564
 30
0.0
 11
-17.1359038
 21
-10.10427769999999
 31
0.0
  0
LINE
  5
B0
330
1E
100
AcDbEntity
  8
0
 62
     7
100
AcDbLine
 10
-18.4275633
 20
4.046043189999999
 30
0.0
 11
-18.05886
 21
-9.3
 31
0.0
  0
LINE
  5
B1
330
1E
100
AcDbEntity
  8
0
 62
     7
100
AcDbLine
 10
-17.230643
 20
3.16381564
 30
0.0
 11
-17.576815
 21
3.16381564
 31
0.0
  0
LINE
  5
B2
330
1E
100
AcDbEntity
  8
0
 62
     7
100
AcDbLine
 10
-19.20218919999999
 20
3.16381564
 30
0.0
 11
-18.9817336
 21
-10.10427769999999
 31
0.0
  0
LINE
  5
B3
330
1E
100
AcDbEntity
  8
0
 62
     7
100
AcDbLine
 10
-18.05886
 20
-9.3
 30
0.0
 11
-18.995097
 21
-9.3
 31
0.0
  0
LINE
  5
B4
330
1E
100
AcDbEntity
  8
0
 62
     7
100
AcDbLine
 10
-18.4275633
 20
4.046043189999999
 30
0.0
 11
-19.62756329999999
 21
4.046043189999999
 31
0.0
  0
LINE
  5
B5
330
1E
100
AcDbEntity
  8
0
 62
     7
100
AcDbLine
 10
-33.25
 20
-10.6
 30
0.0
 11
-16.75
 21
-10.6
 31
0.0
  0
LINE
  5
B6
330
1E
100
AcDbEntity
  8
0
 62
     7
100
AcDbLine
 10
-18.05886
 20
-9.3
 30
0.0
 11
-17.1359038
 21
-10.10427769999999
 31
0.0
  0
LINE
  5
B7
330
1E
100
AcDbEntity
  8
0
 62
     7
100
AcDbLine
 10
-23.8
 20
-9.3
 30
0.0
 11
-23.15417019999999
 21
-10.10427769999999
 31
0.0
  0
LINE
  5
B8
330
1E
100
AcDbEntity
  8
0
 62
     7
100
AcDbLine
 10
-26.2
 20
-9.3
 30
0.0
 11
-26.8458297
 21
-10.10427769999999
 31
0.0
  0
LINE
  5
B9
330
1E
100
AcDbEntity
  8
0
 62
     7
100
AcDbLine
 10
-31.94114
 20
-9.3
 30
0.0
 11
-32.8640962
 21
-10.10427769999999
 31
0.0
  0
LINE
  5
BA
330
1E
100
AcDbEntity
  8
0
 62
     7
100
AcDbLine
 10
-17.0
 20
-21.0
 30
0.0
 11
-17.0
 21
-13.5
 31
0.0
  0
LINE
  5
BB
330
1E
100
AcDbEntity
  8
0
 62
     7
100
AcDbLine
 10
-33.0
 20
-21.0
 30
0.0
 11
-33.0
 21
-13.5
 31
0.0
  0
ARC
  5
BC
330
1E
100
AcDbEntity
  8
0
 62
     7
100
AcDbCircle
 10
-14.5
 20
-22.0
 30
0.0
 40
1.0
100
AcDbArc
 50
0.0
 51
90.00000020000001
  0
ARC
  5
BD
330
1E
100
AcDbEntity
  8
0
 62
     7
100
AcDbCircle
 10
-35.5
 20
-22.0
 30
0.0
 40
1.0
100
AcDbArc
 50
90.00000020000001
 51
180.0
  0
LINE
  5
BE
330
1E
100
AcDbEntity
  8
0
  6
CENTER
 62
     2
100
AcDbLine
 10
-25.0
 20
-59.0497998
 30
0.0
 11
-25.0
 21
6.13850222
 31
0.0
  0
LINE
  5
BF
330
1E
100
AcDbEntity
  8
0
  6
CENTER
 62
     2
100
AcDbLine
 10
75.0
 20
-48.9599891
 30
0.0
 11
75.0
 21
10.3404019
 31
0.0
  0
LINE
  5
C0
330
1E
100
AcDbEntity
  8
0
 62
     7
100
AcDbLine
 10
81.7680934
 20
4.2
 30
0.0
 11
82.76809339999999
 21
3.2
 31
0.0
  0
LINE
  5
C1
330
1E
100
AcDbEntity
  8
0
 62
     7
100
AcDbLine
 10
67.2331033
 20
3.234269429999999
 30
0.0
 11
68.26872259999999
 21
4.2
 31
0.0
  0
LINE
  5
C2
330
1E
100
AcDbEntity
  8
0
 62
     7
100
AcDbLine
 10
83.25000000000001
 20
-10.6
 30
0.0
 11
82.76809339999999
 21
3.2
 31
0.0
  0
LINE
  5
C3
330
1E
100
AcDbEntity
  8
0
 62
     7
100
AcDbLine
 10
66.75
 20
-10.6
 30
0.0
 11
67.2331033
 21
3.234269429999999
 31
0.0
  0
LINE
  5
C4
330
1E
100
AcDbEntity
  8
0
 62
     7
100
AcDbLine
 10
66.75
 20
-10.6
 30
0.0
 11
66.95
 21
-10.8
 31
0.0
  0
LINE
  5
C5
330
1E
100
AcDbEntity
  8
0
 62
     7
100
AcDbLine
 10
68.26872259999999
 20
4.2
 30
0.0
 11
81.7680934
 21
4.2
 31
0.0
  0
LINE
  5
C6
330
1E
100
AcDbEntity
  8
0
 62
     7
100
AcDbLine
 10
83.25000000000001
 20
-10.6
 30
0.0
 11
83.04999999999999
 21
-10.8
 31
0.0
  0
LINE
  5
C7
330
1E
100
AcDbEntity
  8
0
 62
     7
100
AcDbLine
 10
66.95
 20
-10.8
 30
0.0
 11
83.04999999999999
 21
-10.8
 31
0.0
  0
LINE
  5
C8
330
1E
100
AcDbEntity
  8
0
 62
     7
100
AcDbLine
 10
81.25
 20
-13.5
 30
0.0
 11
81.25
 21
-10.8
 31
0.0
  0
LINE
  5
C9
330
1E
100
AcDbEntity
  8
0
 62
     7
100
AcDbLine
 10
68.75
 20
-13.5
 30
0.0
 11
68.75
 21
-10.8
 31
0.0
  0
LINE
  5
CA
330
1E
100
AcDbEntity
  8
0
 62
     7
100
AcDbLine
 10
83.49999999999999
 20
-13.5
 30
0.0
 11
84.0
 21
-14.0
 31
0.0
  0
LINE
  5
CB
330
1E
100
AcDbEntity
  8
0
 62
     7
100
AcDbLine
 10
84.0
 20
-21.0
 30
0.0
 11
84.0
 21
-14.0
 31
0.0
  0
LINE
  5
CC
330
1E
100
AcDbEntity
  8
0
 62
     7
100
AcDbLine
 10
84.0
 20
-21.0
 30
0.0
 11
83.49999999999999
 21
-20.5
 31
0.0
  0
LINE
  5
CD
330
1E
100
AcDbEntity
  8
0
 62
     7
100
AcDbLine
 10
66.5
 20
-13.5
 30
0.0
 11
83.49999999999999
 21
-13.5
 31
0.0
  0
LINE
  5
CE
330
1E
100
AcDbEntity
  8
0
 62
     7
100
AcDbLine
 10
66.5
 20
-13.5
 30
0.0
 11
66.0
 21
-14.0
 31
0.0
  0
LINE
  5
CF
330
1E
100
AcDbEntity
  8
0
 62
     2
100
AcDbLine
 10
66.5
 20
-20.5
 30
0.0
 11
66.5
 21
-13.5
 31
0.0
  0
LINE
  5
D0
330
1E
100
AcDbEntity
  8
0
 62
     7
100
AcDbLine
 10
66.0
 20
-21.0
 30
0.0
 11
66.5
 21
-20.5
 31
0.0
  0
LINE
  5
D1
330
1E
100
AcDbEntity
  8
0
 62
     7
100
AcDbLine
 10
66.0
 20
-14.0
 30
0.0
 11
70.8768944
 21
-14.0
 31
0.0
  0
LINE
  5
D2
330
1E
100
AcDbEntity
  8
0
 62
     2
100
AcDbLine
 10
83.49999999999999
 20
-20.5
 30
0.0
 11
83.49999999999999
 21
-13.5
 31
0.0
  0
LINE
  5
D3
330
1E
100
AcDbEntity
  8
0
 62
     7
100
AcDbLine
 10
66.0
 20
-21.0
 30
0.0
 11
66.0
 21
-14.0
 31
0.0
  0
LINE
  5
D4
330
1E
100
AcDbEntity
  8
0
 62
     7
100
AcDbLine
 10
66.5
 20
-20.5
 30
0.0
 11
70.8768944
 21
-20.5
 31
0.0
  0
LINE
  5
D5
330
1E
100
AcDbEntity
  8
0
 62
     7
100
AcDbLine
 10
70.29566080000001
 20
-9.3
 30
0.0
 11
72.37412179999999
 21
-9.3
 31
0.0
  0
LINE
  5
D6
330
1E
100
AcDbEntity
  8
0
 62
     7
100
AcDbLine
 10
70.5301517
 20
4.046043189999999
 30
0.0
 11
70.29566080000001
 21
-9.3
 31
0.0
  0
LINE
  5
D7
330
1E
100
AcDbEntity
  8
0
 62
     7
100
AcDbLine
 10
72.60861269999999
 20
4.046043189999999
 30
0.0
 11
72.59311190000001
 21
3.16381564
 31
0.0
  0
LINE
  5
D8
330
1E
100
AcDbEntity
  8
0
 62
     7
100
AcDbLine
 10
70.5301517
 20
4.046043189999999
 30
0.0
 11
72.60861269999999
 21
4.046043189999999
 31
0.0
  0
LINE
  5
D9
330
1E
100
AcDbEntity
  8
0
 62
     7
100
AcDbLine
 10
69.3866062
 20
-10.10427769999999
 30
0.0
 11
72.59104259999999
 21
-10.10427769999999
 31
0.0
  0
LINE
  5
DA
330
1E
100
AcDbEntity
  8
0
 62
     7
100
AcDbLine
 10
72.59104259999999
 20
-10.10427769999999
 30
0.0
 11
72.59104259999999
 21
3.16381564
 31
0.0
  0
LINE
  5
DB
330
1E
100
AcDbEntity
  8
0
 62
     7
100
AcDbLine
 10
69.80753709999999
 20
3.16381564
 30
0.0
 11
69.3866062
 21
-10.10427769999999
 31
0.0
  0
LINE
  5
DC
330
1E
100
AcDbEntity
  8
0
 62
     7
100
AcDbLine
 10
80.19246290000001
 20
3.16381564
 30
0.0
 11
80.61339379999999
 21
-10.10427769999999
 31
0.0
  0
LINE
  5
DD
330
1E
100
AcDbEntity
  8
0
 62
     7
100
AcDbLine
 10
77.4089574
 20
-10.10427769999999
 30
0.0
 11
77.4089574
 21
3.16381564
 31
0.0
  0
LINE
  5
DE
330
1E
100
AcDbEntity
  8
0
 62
     7
100
AcDbLine
 10
80.61339379999999
 20
-10.10427769999999
 30
0.0
 11
77.4089574
 21
-10.10427769999999
 31
0.0
  0
LINE
  5
DF
330
1E
100
AcDbEntity
  8
0
 62
     7
100
AcDbLine
 10
79.46984829999999
 20
4.046043189999999
 30
0.0
 11
77.3913873
 21
4.046043189999999
 31
0.0
  0
LINE
  5
E0
330
1E
100
AcDbEntity
  8
0
 62
     7
100
AcDbLine
 10
77.3913873
 20
4.046043189999999
 30
0.0
 11
77.40688809999999
 21
3.16381564
 31
0.0
  0
LINE
  5
E1
330
1E
100
AcDbEntity
  8
0
 62
     7
100
AcDbLine
 10
79.46984829999999
 20
4.046043189999999
 30
0.0
 11
79.70433919999999
 21
-9.3
 31
0.0
  0
LINE
  5
E2
330
1E
100
AcDbEntity
  8
0
 62
     7
100
AcDbLine
 10
79.70433919999999
 20
-9.3
 30
0.0
 11
77.6258782
 21
-9.3
 31
0.0
  0
LINE
  5
E3
330
1E
100
AcDbEntity
  8
0
 62
     7
100
AcDbLine
 10
72.59104259999999
 20
3.16381564
 30
0.0
 11
77.4089574
 21
3.16381564
 31
0.0
  0
LINE
  5
E4
330
1E
100
AcDbEntity
  8
0
 62
     7
100
AcDbLine
 10
66.75
 20
-10.6
 30
0.0
 11
83.25000000000001
 21
-10.6
 31
0.0
  0
LINE
  5
E5
330
1E
100
AcDbEntity
  8
0
 62
     7
100
AcDbLine
 10
66.97920239999999
 20
-10.10427769999999
 30
0.0
 11
67.39188730000001
 21
3.16381564
 31
0.0
  0
LINE
  5
E6
330
1E
100
AcDbEntity
  8
0
 62
     7
100
AcDbLine
 10
69.80753709999999
 20
3.16381564
 30
0.0
 11
67.39188730000001
 21
3.16381564
 31
0.0
  0
LINE
  5
E7
330
1E
100
AcDbEntity
  8
0
 62
     7
100
AcDbLine
 10
68.0200332
 20
3.96809338
 30
0.0
 11
68.10362409999999
 21
3.96809338
 31
0.0
  0
LINE
  5
E8
330
1E
100
AcDbEntity
  8
0
 62
     7
100
AcDbLine
 10
80.19246290000001
 20
3.16381564
 30
0.0
 11
82.60811269999999
 21
3.16381564
 31
0.0
  0
LINE
  5
E9
330
1E
100
AcDbEntity
  8
0
 62
     7
100
AcDbLine
 10
81.97996680000001
 20
3.96809338
 30
0.0
 11
81.89637590000002
 21
3.96809338
 31
0.0
  0
LINE
  5
EA
330
1E
100
AcDbEntity
  8
0
 62
     7
100
AcDbLine
 10
83.02079759999999
 20
-10.10427769999999
 30
0.0
 11
82.60811269999999
 21
3.16381564
 31
0.0
  0
LINE
  5
EB
330
1E
100
AcDbEntity
  8
0
  6
PHANTOM
 62
     6
100
AcDbLine
 10
70.02943720000001
 20
-17.72917
 30
0.0
 11
70.02943720000001
 21
-14.87082999999999
 31
0.0
  0
LINE
  5
EC
330
1E
100
AcDbEntity
  8
0
  6
PHANTOM
 62
     6
100
AcDbLine
 10
79.9705627
 20
-17.72917
 30
0.0
 11
79.9705627
 21
-14.87082999999999
 31
0.0
  0
LINE
  5
ED
330
1E
100
AcDbEntity
  8
0
  6
PHANTOM
 62
     6
100
AcDbLine
 10
87.0
 20
-18.3
 30
0.0
 11
87.0
 21
-14.3
 31
0.0
  0
ARC
  5
EE
330
1E
100
AcDbEntity
  8
0
  6
PHANTOM
 62
     6
100
AcDbCircle
 10
75.0
 20
-36.2262661
 30
0.0
 40
21.9262661
100
AcDbArc
 50
76.8974621
 51
103.1025379999999
  0
ARC
  5
EF
330
1E
100
AcDbEntity
  8
0
  6
PHANTOM
 62
     6
100
AcDbCircle
 10
83.4852814
 20
-25.4058406
 30
0.0
 40
11.1058406
100
AcDbArc
 50
71.55013120000001
 51
108.4498689999999
  0
ARC
  5
F0
330
1E
100
AcDbEntity
  8
0
  6
PHANTOM
 62
     6
100
AcDbCircle
 10
83.4852814
 20
-7.194159359999999
 30
0.0
 40
11.1058406
100
AcDbArc
 50
251.550131
 51
288.449869
  0
ARC
  5
F1
330
1E
100
AcDbEntity
  8
0
  6
PHANTOM
 62
     6
100
AcDbCircle
 10
75.0
 20
3.626266069999999
 30
0.0
 40
21.9262661
100
AcDbArc
 50
256.897462
 51
283.1025369999999
  0
LINE
  5
F2
330
1E
100
AcDbEntity
  8
0
 62
     7
100
AcDbLine
 10
80.19246290000001
 20
3.16381564
 30
0.0
 11
79.46984829999999
 21
4.046043189999999
 31
0.0
  0
LINE
  5
F3
330
1E
100
AcDbEntity
  8
0
 62
     7
100
AcDbLine
 10
82.60811269999999
 20
3.16381564
 30
0.0
 11
81.89637590000002
 21
3.96809338
 31
0.0
  0
LINE
  5
F4
330
1E
100
AcDbEntity
  8
0
 62
     7
100
AcDbLine
 10
67.39188730000001
 20
3.16381564
 30
0.0
 11
68.10362409999999
 21
3.96809338
 31
0.0
  0
LINE
  5
F5
330
1E
100
AcDbEntity
  8
0
 62
     7
100
AcDbLine
 10
69.80753709999999
 20
3.16381564
 30
0.0
 11
70.5301517
 21
4.046043189999999
 31
0.0
  0
LINE
  5
F6
330
1E
100
AcDbEntity
  8
0
 62
     7
100
AcDbLine
 10
72.59104259999999
 20
3.046043899999999
 30
0.0
 11
72.37412179999999
 21
-9.3
 31
0.0
  0
LINE
  5
F7
330
1E
100
AcDbEntity
  8
0
 62
     7
100
AcDbLine
 10
77.4089574
 20
3.046043899999999
 30
0.0
 11
77.6258782
 21
-9.3
 31
0.0
  0
LINE
  5
F8
330
1E
100
AcDbEntity
  8
0
 62
     7
100
AcDbLine
 10
77.4089574
 20
3.16381564
 30
0.0
 11
77.3913873
 21
4.046043189999999
 31
0.0
  0
LINE
  5
F9
330
1E
100
AcDbEntity
  8
0
 62
     7
100
AcDbLine
 10
72.59104259999999
 20
3.16381564
 30
0.0
 11
72.60861269999999
 21
4.046043189999999
 31
0.0
  0
LINE
  5
FA
330
1E
100
AcDbEntity
  8
0
  6
CENTER
 62
     6
100
AcDbLine
 10
42.05626089999999
 20
-40.0
 30
0.0
 11
65.88783259999999
 21
-40.0
 31
0.0
  0
LINE
  5
FB
330
1E
100
AcDbEntity
  8
0
 62
     7
100
AcDbLine
 10
80.29999999999999
 20
-28.9
 30
0.0
 11
71.4
 21
-28.9
 31
0.0
  0
LINE
  5
FC
330
1E
100
AcDbEntity
  8
0
 62
     7
100
AcDbLine
 10
71.5
 20
-28.5
 30
0.0
 11
78.5
 21
-28.5
 31
0.0
  0
LINE
  5
FD
330
1E
100
AcDbEntity
  8
0
 62
     7
100
AcDbLine
 10
71.4
 20
-25.5
 30
0.0
 11
80.29999999999999
 21
-25.5
 31
0.0
  0
LINE
  5
FE
330
1E
100
AcDbEntity
  8
0
 62
     7
100
AcDbLine
 10
63.5
 20
-22.5
 30
0.0
 11
86.5
 21
-22.5
 31
0.0
  0
LINE
  5
FF
330
1E
100
AcDbEntity
  8
0
 62
     7
100
AcDbLine
 10
63.5
 20
-46.2
 30
0.0
 11
63.5
 21
-22.5
 31
0.0
  0
LINE
  5
100
330
1E
100
AcDbEntity
  8
0
 62
     7
100
AcDbLine
 10
86.5
 20
-46.2
 30
0.0
 11
86.5
 21
-22.5
 31
0.0
  0
ARC
  5
101
330
1E
100
AcDbEntity
  8
0
 62
     7
100
AcDbCircle
 10
85.5
 20
-22.0
 30
0.0
 40
1.0
100
AcDbArc
 50
0.0
 51
90.00000020000001
  0
LINE
  5
102
330
1E
100
AcDbEntity
  8
0
 62
     7
100
AcDbLine
 10
63.5
 20
-22.5
 30
0.0
 11
63.5
 21
-22.0
 31
0.0
  0
LINE
  5
103
330
1E
100
AcDbEntity
  8
0
 62
     7
100
AcDbLine
 10
86.5
 20
-22.5
 30
0.0
 11
86.5
 21
-22.0
 31
0.0
  0
LINE
  5
104
330
1E
100
AcDbEntity
  8
0
 62
     7
100
AcDbLine
 10
80.29999999999999
 20
-28.9
 30
0.0
 11
80.29999999999999
 21
-25.5
 31
0.0
  0
LINE
  5
105
330
1E
100
AcDbEntity
  8
0
 62
     7
100
AcDbLine
 10
71.4
 20
-28.9
 30
0.0
 11
71.4
 21
-25.5
 31
0.0
  0
LINE
  5
106
330
1E
100
AcDbEntity
  8
0
 62
     7
100
AcDbLine
 10
71.5
 20
-28.5
 30
0.0
 11
71.5
 21
-25.8062103
 31
0.0
  0
LINE
  5
107
330
1E
100
AcDbEntity
  8
0
 62
     7
100
AcDbLine
 10
78.5
 20
-28.5
 30
0.0
 11
78.5
 21
-25.5
 31
0.0
  0
LINE
  5
108
330
1E
100
AcDbEntity
  8
0
 62
     7
100
AcDbLine
 10
75.0
 20
-25.5
 30
0.0
 11
71.5
 21
-25.8062103
 31
0.0
  0
LINE
  5
109
330
1E
100
AcDbEntity
  8
0
 62
     7
100
AcDbLine
 10
64.5
 20
-47.2
 30
0.0
 11
85.5
 21
-47.2
 31
0.0
  0
ARC
  5
10A
330
1E
100
AcDbEntity
  8
0
 62
     7
100
AcDbCircle
 10
64.5
 20
-46.2
 30
0.0
 40
1.0
100
AcDbArc
 50
180.0
 51
270.0
  0
ARC
  5
10B
330
1E
100
AcDbEntity
  8
0
 62
     7
100
AcDbCircle
 10
85.5
 20
-46.2
 30
0.0
 40
1.0
100
AcDbArc
 50
270.0
 51
0.0
  0
LINE
  5
10C
330
1E
100
AcDbEntity
  8
0
  6
CENTER
 62
     2
100
AcDbLine
 10
76.5
 20
-57.95597719999999
 30
0.0
 11
76.5
 21
-46.1991356
 31
0.0
  0
LINE
  5
10D
330
1E
100
AcDbEntity
  8
0
 62
     7
100
AcDbLine
 10
81.45000000000001
 20
-53.8071797
 30
0.0
 11
81.45000000000001
 21
-47.2
 31
0.0
  0
LINE
  5
10E
330
1E
100
AcDbEntity
  8
0
 62
     7
100
AcDbLine
 10
71.55
 20
-53.8071797
 30
0.0
 11
71.55
 21
-47.2
 31
0.0
  0
LINE
  5
10F
330
1E
100
AcDbEntity
  8
0
 62
     7
100
AcDbLine
 10
71.6
 20
-56.4
 30
0.0
 11
71.6
 21
-55.6
 31
0.0
  0
LINE
  5
110
330
1E
100
AcDbEntity
  8
0
 62
     7
100
AcDbLine
 10
71.6
 20
-55.6
 30
0.0
 11
72.46602540000001
 21
-55.1
 31
0.0
  0
LINE
  5
111
330
1E
100
AcDbEntity
  8
0
 62
     7
100
AcDbLine
 10
73.0
 20
-55.1
 30
0.0
 11
73.0
 21
-54.5
 31
0.0
  0
LINE
  5
112
330
1E
100
AcDbEntity
  8
0
 62
     7
100
AcDbLine
 10
81.05
 20
-54.5
 30
0.0
 11
71.95
 21
-54.5
 31
0.0
  0
LINE
  5
113
330
1E
100
AcDbEntity
  8
0
 62
     7
100
AcDbLine
 10
80.53397459999999
 20
-55.1
 30
0.0
 11
72.46602540000001
 21
-55.1
 31
0.0
  0
LINE
  5
114
330
1E
100
AcDbEntity
  8
0
 62
     7
100
AcDbLine
 10
81.4
 20
-55.6
 30
0.0
 11
71.6
 21
-55.6
 31
0.0
  0
LINE
  5
115
330
1E
100
AcDbEntity
  8
0
 62
     7
100
AcDbLine
 10
80.0
 20
-55.1
 30
0.0
 11
80.0
 21
-54.5
 31
0.0
  0
LINE
  5
116
330
1E
100
AcDbEntity
  8
0
 62
     7
100
AcDbLine
 10
81.4
 20
-55.6
 30
0.0
 11
80.53397459999999
 21
-55.1
 31
0.0
  0
LINE
  5
117
330
1E
100
AcDbEntity
  8
0
 62
     7
100
AcDbLine
 10
81.4
 20
-56.4
 30
0.0
 11
81.4
 21
-55.6
 31
0.0
  0
LINE
  5
118
330
1E
100
AcDbEntity
  8
0
 62
     7
100
AcDbLine
 10
71.79999999999999
 20
-56.6
 30
0.0
 11
81.2
 21
-56.6
 31
0.0
  0
LINE
  5
119
330
1E
100
AcDbEntity
  8
0
 62
     7
100
AcDbLine
 10
71.95
 20
-54.5
 30
0.0
 11
71.55
 21
-53.8071797
 31
0.0
  0
LINE
  5
11A
330
1E
100
AcDbEntity
  8
0
 62
     7
100
AcDbLine
 10
81.05
 20
-54.5
 30
0.0
 11
81.45000000000001
 21
-53.8071797
 31
0.0
  0
LINE
  5
11B
330
1E
100
AcDbEntity
  8
0
  6
DASHED
 62
     2
100
AcDbLine
 10
73.5
 20
-56.6
 30
0.0
 11
73.5
 21
-53.5
 31
0.0
  0
LINE
  5
11C
330
1E
100
AcDbEntity
  8
0
  6
DASHED
 62
     2
100
AcDbLine
 10
79.5
 20
-56.6
 30
0.0
 11
79.5
 21
-53.5
 31
0.0
  0
ARC
  5
11D
330
1E
100
AcDbEntity
  8
0
 62
     7
100
AcDbCircle
 10
71.79999999999999
 20
-56.4
 30
0.0
 40
0.2
100
AcDbArc
 50
180.0
 51
270.0
  0
ARC
  5
11E
330
1E
100
AcDbEntity
  8
0
 62
     7
100
AcDbCircle
 10
81.2
 20
-56.4
 30
0.0
 40
0.2
100
AcDbArc
 50
270.0
 51
0.0
  0
LINE
  5
11F
330
1E
100
AcDbEntity
  8
0
 62
     7
100
AcDbLine
 10
83.02079759999999
 20
-10.10427769999999
 30
0.0
 11
83.232689
 21
-10.10427769999999
 31
0.0
  0
LINE
  5
120
330
1E
100
AcDbEntity
  8
0
 62
     7
100
AcDbLine
 10
66.97920239999999
 20
-10.10427769999999
 30
0.0
 11
66.76731099999999
 21
-10.10427769999999
 31
0.0
  0
LINE
  5
121
330
1E
100
AcDbEntity
  8
0
 62
     7
100
AcDbLine
 10
79.70433919999999
 20
-9.3
 30
0.0
 11
80.61339379999999
 21
-10.10427769999999
 31
0.0
  0
LINE
  5
122
330
1E
100
AcDbEntity
  8
0
 62
     7
100
AcDbLine
 10
77.6258782
 20
-9.3
 30
0.0
 11
77.4089574
 21
-10.10427769999999
 31
0.0
  0
LINE
  5
123
330
1E
100
AcDbEntity
  8
0
 62
     7
100
AcDbLine
 10
72.37412179999999
 20
-9.3
 30
0.0
 11
72.59104259999999
 21
-10.10427769999999
 31
0.0
  0
LINE
  5
124
330
1E
100
AcDbEntity
  8
0
 62
     7
100
AcDbLine
 10
70.29566080000001
 20
-9.3
 30
0.0
 11
69.3866062
 21
-10.10427769999999
 31
0.0
  0
LINE
  5
125
330
1E
100
AcDbEntity
  8
0
 62
     7
100
AcDbLine
 10
78.5
 20
-45.0
 30
0.0
 11
69.5
 21
-45.0
 31
0.0
  0
LINE
  5
126
330
1E
100
AcDbEntity
  8
0
 62
     7
100
AcDbLine
 10
78.5
 20
-43.7
 30
0.0
 11
69.5
 21
-43.7
 31
0.0
  0
LINE
  5
127
330
1E
100
AcDbEntity
  8
0
 62
     7
100
AcDbLine
 10
78.5
 20
-45.0
 30
0.0
 11
78.5
 21
-43.7
 31
0.0
  0
LINE
  5
128
330
1E
100
AcDbEntity
  8
0
 62
     7
100
AcDbLine
 10
70.456
 20
-45.0
 30
0.0
 11
70.456
 21
-43.7
 31
0.0
  0
LINE
  5
129
330
1E
100
AcDbEntity
  8
0
 62
     7
100
AcDbLine
 10
69.5
 20
-45.0
 30
0.0
 11
69.5
 21
-43.7
 31
0.0
  0
LINE
  5
12A
330
1E
100
AcDbEntity
  8
0
 62
     7
100
AcDbLine
 10
86.5
 20
-45.0
 30
0.0
 11
85.5
 21
-45.0
 31
0.0
  0
LINE
  5
12B
330
1E
100
AcDbEntity
  8
0
 62
     7
100
AcDbLine
 10
86.5
 20
-43.7
 30
0.0
 11
85.5
 21
-43.7
 31
0.0
  0
LINE
  5
12C
330
1E
100
AcDbEntity
  8
0
 62
     7
100
AcDbLine
 10
85.5
 20
-45.0
 30
0.0
 11
85.5
 21
-43.7
 31
0.0
  0
LINE
  5
12D
330
1E
100
AcDbEntity
  8
0
 62
     7
100
AcDbLine
 10
79.1231056
 20
-21.0
 30
0.0
 11
79.1231056
 21
-14.0
 31
0.0
  0
LINE
  5
12E
330
1E
100
AcDbEntity
  8
0
 62
     7
100
AcDbLine
 10
77.87228129999999
 20
-13.5
 30
0.0
 11
79.1231056
 21
-14.0
 31
0.0
  0
LINE
  5
12F
330
1E
100
AcDbEntity
  8
0
 62
     7
100
AcDbLine
 10
72.1277187
 20
-13.5
 30
0.0
 11
70.8768944
 21
-14.0
 31
0.0
  0
LINE
  5
130
330
1E
100
AcDbEntity
  8
0
 62
     7
100
AcDbLine
 10
70.8768944
 20
-21.0
 30
0.0
 11
70.8768944
 21
-14.0
 31
0.0
  0
LINE
  5
131
330
1E
100
AcDbEntity
  8
0
 62
     7
100
AcDbLine
 10
79.1231056
 20
-20.5
 30
0.0
 11
83.49999999999999
 21
-20.5
 31
0.0
  0
LINE
  5
132
330
1E
100
AcDbEntity
  8
0
 62
     7
100
AcDbLine
 10
79.1231056
 20
-14.0
 30
0.0
 11
84.0
 21
-14.0
 31
0.0
  0
LINE
  5
133
330
1E
100
AcDbEntity
  8
0
 62
     2
100
AcDbLine
 10
70.8768944
 20
-21.0
 30
0.0
 11
79.1231056
 21
-14.0
 31
0.0
  0
LINE
  5
134
330
1E
100
AcDbEntity
  8
0
 62
     2
100
AcDbLine
 10
70.8768944
 20
-14.0
 30
0.0
 11
79.1231056
 21
-21.0
 31
0.0
  0
ARC
  5
135
330
1E
100
AcDbEntity
  8
0
 62
     7
100
AcDbCircle
 10
63.79999999999999
 20
-33.14999999999999
 30
0.0
 40
0.3
100
AcDbArc
 50
180.0
 51
270.0
  0
LINE
  5
136
330
1E
100
AcDbEntity
  8
0
 62
     7
100
AcDbLine
 10
63.79999999999999
 20
-33.45
 30
0.0
 11
66.7
 21
-33.45
 31
0.0
  0
ARC
  5
137
330
1E
100
AcDbEntity
  8
0
 62
     7
100
AcDbCircle
 10
66.7
 20
-33.75
 30
0.0
 40
0.3
100
AcDbArc
 50
0.0
 51
90.00000020000001
  0
LINE
  5
138
330
1E
100
AcDbEntity
  8
0
 62
     7
100
AcDbLine
 10
67.0
 20
-33.75
 30
0.0
 11
67.0
 21
-38.65
 31
0.0
  0
ARC
  5
139
330
1E
100
AcDbEntity
  8
0
 62
     7
100
AcDbCircle
 10
66.7
 20
-38.65
 30
0.0
 40
0.3
100
AcDbArc
 50
270.0
 51
0.0
  0
LINE
  5
13A
330
1E
100
AcDbEntity
  8
0
 62
     7
100
AcDbLine
 10
63.79999999999999
 20
-38.95
 30
0.0
 11
66.7
 21
-38.95
 31
0.0
  0
ARC
  5
13B
330
1E
100
AcDbEntity
  8
0
 62
     7
100
AcDbCircle
 10
63.79999999999999
 20
-39.25
 30
0.0
 40
0.3
100
AcDbArc
 50
90.00000020000001
 51
180.0
  0
LINE
  5
13C
330
1E
100
AcDbEntity
  8
0
  6
PHANTOM
 62
     6
100
AcDbLine
 10
58.9755221
 20
-34.9938987
 30
0.0
 11
63.5
 21
-35.13528970000001
 31
0.0
  0
LINE
  5
13D
330
1E
100
AcDbEntity
  8
0
  6
PHANTOM
 62
     6
100
AcDbLine
 10
60.5
 20
-35.627482
 30
0.0
 11
63.5
 21
-35.7212327
 31
0.0
  0
LINE
  5
13E
330
1E
100
AcDbEntity
  8
0
  6
PHANTOM
 62
     6
100
AcDbLine
 10
58.0
 20
-49.0
 30
0.0
 11
58.0
 21
-31.0
 31
0.0
  0
LINE
  5
13F
330
1E
100
AcDbEntity
  8
0
  6
PHANTOM
 62
     6
100
AcDbLine
 10
44.9
 20
-44.73205079999999
 30
0.0
 11
44.9
 21
-35.2679492
 31
0.0
  0
LINE
  5
140
330
1E
100
AcDbEntity
  8
0
  6
PHANTOM
 62
     6
100
AcDbLine
 10
54.0
 20
-44.1231056
 30
0.0
 11
54.0
 21
-35.8768944
 31
0.0
  0
LINE
  5
141
330
1E
100
AcDbEntity
  8
0
  6
PHANTOM
 62
     6
100
AcDbLine
 10
53.5
 20
-49.0
 30
0.0
 11
53.5
 21
-31.0
 31
0.0
  0
LINE
  5
142
330
1E
100
AcDbEntity
  8
0
  6
PHANTOM
 62
     6
100
AcDbLine
 10
60.5
 20
-35.0571632
 30
0.0
 11
60.5
 21
-44.94306179999999
 31
0.0
  0
ARC
  5
143
330
1E
100
AcDbEntity
  8
0
  6
PHANTOM
 62
     6
100
AcDbCircle
 10
58.5
 20
-34.4938987
 30
0.0
 40
0.5
100
AcDbArc
 50
180.0
 51
270.0
  0
LINE
  5
144
330
1E
100
AcDbEntity
  8
0
  6
PHANTOM
 62
     6
100
AcDbLine
 10
58.9755221
 20
-34.9938987
 30
0.0
 11
58.5
 21
-34.9938987
 31
0.0
  0
LINE
  5
145
330
1E
100
AcDbEntity
  8
0
  6
PHANTOM
 62
     6
100
AcDbLine
 10
60.5
 20
-35.627482
 30
0.0
 11
58.9755221
 21
-34.9938987
 31
0.0
  0
LINE
  5
146
330
1E
100
AcDbEntity
  8
0
  6
PHANTOM
 62
     6
100
AcDbLine
 10
54.0
 20
-35.1333496
 30
0.0
 11
54.0
 21
-31.0
 31
0.0
  0
LINE
  5
147
330
1E
100
AcDbEntity
  8
0
  6
PHANTOM
 62
     6
100
AcDbLine
 10
58.0
 20
-35.8768944
 30
0.0
 11
54.0
 21
-35.8768944
 31
0.0
  0
LINE
  5
148
330
1E
100
AcDbEntity
  8
0
  6
PHANTOM
 62
     6
100
AcDbLine
 10
58.0
 20
-35.1333496
 30
0.0
 11
54.0
 21
-35.1333496
 31
0.0
  0
LINE
  5
149
330
1E
100
AcDbEntity
  8
0
  6
PHANTOM
 62
     6
100
AcDbLine
 10
45.0162446
 20
-34.9636323
 30
0.0
 11
45.0162446
 21
-34.82471379999999
 31
0.0
  0
ARC
  5
14A
330
1E
100
AcDbEntity
  8
0
  6
PHANTOM
 62
     6
100
AcDbCircle
 10
45.89999999999999
 20
-35.2679492
 30
0.0
 40
1.0
100
AcDbArc
 50
150.0
 51
180.0
  0
ARC
  5
14B
330
1E
100
AcDbEntity
  8
0
  6
PHANTOM
 62
     6
100
AcDbCircle
 10
47.78675129999999
 20
-32.0
 30
0.0
 40
1.0
100
AcDbArc
 50
90.00000020000001
 51
150.0
  0
LINE
  5
14C
330
1E
100
AcDbEntity
  8
0
  6
PHANTOM
 62
     6
100
AcDbLine
 10
45.03397460000001
 20
-34.7679492
 30
0.0
 11
46.92072589999999
 21
-31.5
 31
0.0
  0
LINE
  5
14D
330
1E
100
AcDbEntity
  8
0
  6
PHANTOM
 62
     6
100
AcDbLine
 10
58.0
 20
-31.0
 30
0.0
 11
47.78675129999999
 21
-31.0
 31
0.0
  0
LINE
  5
14E
330
1E
100
AcDbEntity
  8
0
  6
PHANTOM
 62
     6
100
AcDbLine
 10
60.5
 20
-44.37268529999999
 30
0.0
 11
63.5
 21
-44.2789361
 31
0.0
  0
LINE
  5
14F
330
1E
100
AcDbEntity
  8
0
  6
PHANTOM
 62
     6
100
AcDbLine
 10
58.9999985
 20
-45.00556219999999
 30
0.0
 11
63.5
 21
-44.8649382
 31
0.0
  0
LINE
  5
150
330
1E
100
AcDbEntity
  8
0
  6
PHANTOM
 62
     6
100
AcDbLine
 10
58.9755221
 20
-45.0061013
 30
0.0
 11
58.5
 21
-45.0061013
 31
0.0
  0
ARC
  5
151
330
1E
100
AcDbEntity
  8
0
  6
PHANTOM
 62
     6
100
AcDbCircle
 10
58.5
 20
-45.50610129999999
 30
0.0
 40
0.5
100
AcDbArc
 50
90.00000020000001
 51
180.0
  0
LINE
  5
152
330
1E
100
AcDbEntity
  8
0
  6
PHANTOM
 62
     6
100
AcDbLine
 10
60.5
 20
-44.37268529999999
 30
0.0
 11
58.9999985
 21
-45.00556219999999
 31
0.0
  0
LINE
  5
153
330
1E
100
AcDbEntity
  8
0
  6
PHANTOM
 62
     6
100
AcDbLine
 10
54.0
 20
-44.8666504
 30
0.0
 11
54.0
 21
-49.0
 31
0.0
  0
LINE
  5
154
330
1E
100
AcDbEntity
  8
0
  6
PHANTOM
 62
     6
100
AcDbLine
 10
58.0
 20
-44.1231056
 30
0.0
 11
54.0
 21
-44.1231056
 31
0.0
  0
LINE
  5
155
330
1E
100
AcDbEntity
  8
0
  6
PHANTOM
 62
     6
100
AcDbLine
 10
58.0
 20
-44.8666504
 30
0.0
 11
54.0
 21
-44.8666504
 31
0.0
  0
ARC
  5
156
330
1E
100
AcDbEntity
  8
0
  6
PHANTOM
 62
     6
100
AcDbCircle
 10
45.89999999999999
 20
-44.73205079999999
 30
0.0
 40
1.0
100
AcDbArc
 50
180.0
 51
210.0
  0
LINE
  5
157
330
1E
100
AcDbEntity
  8
0
  6
PHANTOM
 62
     6
100
AcDbLine
 10
45.03397460000001
 20
-45.23205079999999
 30
0.0
 11
46.92072589999999
 21
-48.5
 31
0.0
  0
ARC
  5
158
330
1E
100
AcDbEntity
  8
0
  6
PHANTOM
 62
     6
100
AcDbCircle
 10
47.78675129999999
 20
-48.0
 30
0.0
 40
1.0
100
AcDbArc
 50
210.0
 51
270.0
  0
LINE
  5
159
330
1E
100
AcDbEntity
  8
0
  6
PHANTOM
 62
     6
100
AcDbLine
 10
58.0
 20
-49.0
 30
0.0
 11
47.78675129999999
 21
-49.0
 31
0.0
  0
LINE
  5
15A
330
1E
100
AcDbEntity
  8
0
  6
CENTER
 62
     2
100
AcDbLine
 10
62.7005192
 20
-36.2
 30
0.0
 11
68.0711878
 21
-36.2
 31
0.0
  0
LINE
  5
15B
330
1E
100
AcDbEntity
  8
0
  6
PHANTOM
 62
     6
100
AcDbLine
 10
63.0
 20
-18.3
 30
0.0
 11
63.0
 21
-14.3
 31
0.0
  0
LINE
  5
15C
330
1E
100
AcDbEntity
  8
0
 62
     7
100
AcDbLine
 10
64.5
 20
-21.0
 30
0.0
 11
85.5
 21
-21.0
 31
0.0
  0
ARC
  5
15D
330
1E
100
AcDbEntity
  8
0
 62
     7
100
AcDbCircle
 10
64.5
 20
-22.0
 30
0.0
 40
1.0
100
AcDbArc
 50
90.00000020000001
 51
180.0
  0
ARC
  5
15E
330
1E
100
AcDbEntity
  8
0
  6
PHANTOM
 62
     6
100
AcDbCircle
 10
66.5147186
 20
-7.19415956
 30
0.0
 40
11.1058404
100
AcDbArc
 50
251.550131
 51
288.449869
  0
ARC
  5
15F
330
1E
100
AcDbEntity
  8
0
  6
PHANTOM
 62
     6
100
AcDbCircle
 10
66.5147186
 20
-25.4058404
 30
0.0
 40
11.1058404
100
AcDbArc
 50
71.55013120000001
 51
108.4498689999999
  0
LINE
  5
160
330
1E
100
AcDbEntity
  8
0
  6
PHANTOM
 62
     6
100
AcDbLine
 10
63.0
 20
-18.3
 30
0.0
 11
87.0
 21
-18.3
 31
0.0
  0
LINE
  5
161
330
1E
100
AcDbEntity
  8
0
  6
PHANTOM
 62
     6
100
AcDbLine
 10
63.0
 20
-14.3
 30
0.0
 11
87.0
 21
-14.3
 31
0.0
  0
LINE
  5
162
330
1E
100
AcDbEntity
  8
0
  6
CENTER
 62
     2
100
AcDbLine
 10
-16.0
 20
49.0
 30
0.0
 11
-16.0
 21
54.0
 31
0.0
  0
LINE
  5
163
330
1E
100
AcDbEntity
  8
0
  6
CENTER
 62
     2
100
AcDbLine
 10
-34.0
 20
49.0
 30
0.0
 11
-34.0
 21
54.0
 31
0.0
  0
LINE
  5
164
330
1E
100
AcDbEntity
  8
0
 62
     7
100
AcDbLine
 10
-17.0
 20
37.9844354
 30
0.0
 11
-17.0
 21
35.8768944
 31
0.0
  0
ARC
  5
165
330
1E
100
AcDbEntity
  8
0
 62
     2
100
AcDbCircle
 10
-25.0
 20
40.0
 30
0.0
 40
8.5
100
AcDbArc
 50
199.749923
 51
340.2500769999999
  0
ARC
  5
166
330
1E
100
AcDbEntity
  8
0
 62
     7
100
AcDbCircle
 10
-25.0
 20
40.0
 30
0.0
 40
9.0
100
AcDbArc
 50
207.2660439999999
 51
332.7339559999999
  0
LINE
  5
167
330
1E
100
AcDbEntity
  8
0
 62
     7
100
AcDbLine
 10
-33.0
 20
37.9844354
 30
0.0
 11
-33.0
 21
35.8768944
 31
0.0
  0
ARC
  5
168
330
1E
100
AcDbEntity
  8
0
  6
PHANTOM
 62
     6
100
AcDbCircle
 10
-25.0
 20
40.0
 30
0.0
 40
8.5
100
AcDbArc
 50
160.2500769999999
 51
199.749923
  0
ARC
  5
169
330
1E
100
AcDbEntity
  8
0
  6
PHANTOM
 62
     6
100
AcDbCircle
 10
-25.0
 20
40.0
 30
0.0
 40
9.0
100
AcDbArc
 50
152.733955
 51
207.2660439999999
  0
LINE
  5
16A
330
1E
100
AcDbEntity
  8
0
 62
     7
100
AcDbLine
 10
-33.0
 20
42.01556459999999
 30
0.0
 11
-33.0
 21
44.1231056
 31
0.0
  0
ARC
  5
16B
330
1E
100
AcDbEntity
  8
0
 62
     7
100
AcDbCircle
 10
-25.0
 20
40.0
 30
0.0
 40
9.0
100
AcDbArc
 50
27.2660445
 51
152.733955
  0
ARC
  5
16C
330
1E
100
AcDbEntity
  8
0
 62
     2
100
AcDbCircle
 10
-25.0
 20
40.0
 30
0.0
 40
8.5
100
AcDbArc
 50
19.7499228
 51
160.2500769999999
  0
LINE
  5
16D
330
1E
100
AcDbEntity
  8
0
 62
     7
100
AcDbLine
 10
-17.0
 20
42.01556459999999
 30
0.0
 11
-17.0
 21
44.1231056
 31
0.0
  0
ARC
  5
16E
330
1E
100
AcDbEntity
  8
0
  6
PHANTOM
 62
     6
100
AcDbCircle
 10
-25.0
 20
40.0
 30
0.0
 40
8.5
100
AcDbArc
 50
340.2500769999999
 51
19.7499228
  0
ARC
  5
16F
330
1E
100
AcDbEntity
  8
0
  6
PHANTOM
 62
     6
100
AcDbCircle
 10
-25.0
 20
40.0
 30
0.0
 40
9.0
100
AcDbArc
 50
332.7339559999999
 51
27.2660445
  0
LINE
  5
170
330
1E
100
AcDbEntity
  8
0
 62
     7
100
AcDbLine
 10
-13.5
 20
31.5
 30
0.0
 11
-13.5
 21
48.5
 31
0.0
  0
LINE
  5
171
330
1E
100
AcDbEntity
  8
0
 62
     7
100
AcDbLine
 10
-33.5
 20
28.5
 30
0.0
 11
-16.5
 21
28.5
 31
0.0
  0
LINE
  5
172
330
1E
100
AcDbEntity
  8
0
  6
PHANTOM
 62
     6
100
AcDbLine
 10
-37.0000001
 20
35.0294373
 30
0.0
 11
-29.9705628
 21
28.0
 31
0.0
  0
LINE
  5
173
330
1E
100
AcDbEntity
  8
0
  6
PHANTOM
 62
     6
100
AcDbLine
 10
-20.0294373
 20
52.0000001
 30
0.0
 11
-13.0
 21
44.97056279999999
 31
0.0
  0
LINE
  5
174
330
1E
100
AcDbEntity
  8
0
  6
PHANTOM
 62
     6
100
AcDbLine
 10
-20.0294372
 20
28.0
 30
0.0
 11
-13.0
 21
35.0294372
 31
0.0
  0
LINE
  5
175
330
1E
100
AcDbEntity
  8
0
  6
PHANTOM
 62
     6
100
AcDbLine
 10
-37.0000001
 20
44.9705627
 30
0.0
 11
-29.9705628
 21
52.0
 31
0.0
  0
LINE
  5
176
330
1E
100
AcDbEntity
  8
0
  6
PHANTOM
 62
     6
100
AcDbLine
 10
-13.0
 20
35.0294372
 30
0.0
 11
-13.0
 21
44.97056279999999
 31
0.0
  0
LINE
  5
177
330
1E
100
AcDbEntity
  8
0
  6
PHANTOM
 62
     6
100
AcDbLine
 10
-37.0
 20
35.0294373
 30
0.0
 11
-37.0
 21
44.9705627
 31
0.0
  0
LINE
  5
178
330
1E
100
AcDbEntity
  8
0
  6
PHANTOM
 62
     6
100
AcDbLine
 10
-29.9705628
 20
28.0
 30
0.0
 11
-20.0294372
 21
28.0
 31
0.0
  0
LINE
  5
179
330
1E
100
AcDbEntity
  8
0
  6
PHANTOM
 62
     6
100
AcDbLine
 10
-29.9705628
 20
52.0
 30
0.0
 11
-20.0294372
 21
52.0
 31
0.0
  0
CIRCLE
  5
17A
330
1E
100
AcDbEntity
  8
0
  6
PHANTOM
 62
     6
100
AcDbCircle
 10
-25.0
 20
40.0
 30
0.0
 40
12.0
  0
LINE
  5
17B
330
1E
100
AcDbEntity
  8
0
  6
CENTER
 62
     2
100
AcDbLine
 10
-25.0
 20
27.0328227
 30
0.0
 11
-25.0
 21
52.63606809999999
 31
0.0
  0
ARC
  5
17C
330
1E
100
AcDbEntity
  8
0
 62
     7
100
AcDbCircle
 10
-33.5
 20
48.5
 30
0.0
 40
3.0
100
AcDbArc
 50
90.00000020000001
 51
180.0
  0
ARC
  5
17D
330
1E
100
AcDbEntity
  8
0
 62
     7
100
AcDbCircle
 10
-16.5
 20
48.5
 30
0.0
 40
3.0
100
AcDbArc
 50
0.0
 51
90.00000020000001
  0
ARC
  5
17E
330
1E
100
AcDbEntity
  8
0
 62
     7
100
AcDbCircle
 10
-16.5
 20
31.5
 30
0.0
 40
3.0
100
AcDbArc
 50
270.0
 51
0.0
  0
ARC
  5
17F
330
1E
100
AcDbEntity
  8
0
 62
     7
100
AcDbCircle
 10
-33.5
 20
31.5
 30
0.0
 40
3.0
100
AcDbArc
 50
180.0
 51
270.0
  0
LINE
  5
180
330
1E
100
AcDbEntity
  8
0
 62
     7
100
AcDbLine
 10
-36.5
 20
31.5
 30
0.0
 11
-36.5
 21
48.5
 31
0.0
  0
LINE
  5
181
330
1E
100
AcDbEntity
  8
0
 62
     7
100
AcDbLine
 10
-33.5
 20
51.5
 30
0.0
 11
-16.5
 21
51.5
 31
0.0
  0
CIRCLE
  5
182
330
1E
100
AcDbEntity
  8
0
 62
     7
100
AcDbCircle
 10
-25.0
 20
40.0
 30
0.0
 40
8.25
  0
CIRCLE
  5
183
330
1E
100
AcDbEntity
  8
0
 62
     7
100
AcDbCircle
 10
-25.0
 20
40.0
 30
0.0
 40
6.0
  0
CIRCLE
  5
184
330
1E
100
AcDbEntity
  8
0
 62
     7
100
AcDbCircle
 10
-25.0
 20
40.0
 30
0.0
 40
6.768093379999999
  0
ARC
  5
185
330
1E
100
AcDbEntity
  8
0
 62
     7
100
AcDbCircle
 10
-24.9999999
 20
40.0
 30
0.0
 40
7.0
100
AcDbArc
 50
20.12911099999999
 51
39.87089029999999
  0
LINE
  5
186
330
1E
100
AcDbEntity
  8
0
 62
     7
100
AcDbLine
 10
-19.62756329999999
 20
44.4874185
 30
0.0
 11
-19.3279261
 21
44.66041409999999
 31
0.0
  0
LINE
  5
187
330
1E
100
AcDbEntity
  8
0
 62
     7
100
AcDbLine
 10
-18.4275633
 20
42.40895749999999
 30
0.0
 11
-18.127926
 21
42.5819532
 31
0.0
  0
LINE
  5
188
330
1E
100
AcDbEntity
  8
0
 62
     7
100
AcDbLine
 10
-19.62756329999999
 20
44.4874185
 30
0.0
 11
-19.02327219999999
 21
45.5340813
 31
0.0
  0
LINE
  5
189
330
1E
100
AcDbEntity
  8
0
 62
     7
100
AcDbLine
 10
-18.4275633
 20
42.40895749999999
 30
0.0
 11
-17.2189811
 21
42.40895749999999
 31
0.0
  0
ARC
  5
18A
330
1E
100
AcDbEntity
  8
0
 62
     7
100
AcDbCircle
 10
-25.0
 20
40.0
 30
0.0
 40
7.804277779999999
100
AcDbArc
 50
42.0208183
 51
77.97918229999999
  0
ARC
  5
18B
330
1E
100
AcDbEntity
  8
0
 62
     7
100
AcDbCircle
 10
-25.0
 20
40.0
 30
0.0
 40
7.804277779999999
100
AcDbArc
 50
102.020818
 51
137.979182
  0
ARC
  5
18C
330
1E
100
AcDbEntity
  8
0
 62
     7
100
AcDbCircle
 10
-25.0
 20
40.0
 30
0.0
 40
7.804277779999999
100
AcDbArc
 50
162.0208189999999
 51
197.979182
  0
ARC
  5
18D
330
1E
100
AcDbEntity
  8
0
 62
     7
100
AcDbCircle
 10
-25.0
 20
40.0
 30
0.0
 40
7.804277779999999
100
AcDbArc
 50
222.020818
 51
257.979182
  0
ARC
  5
18E
330
1E
100
AcDbEntity
  8
0
 62
     7
100
AcDbCircle
 10
-25.0
 20
40.0
 30
0.0
 40
7.804277779999999
100
AcDbArc
 50
282.020818
 51
317.979183
  0
ARC
  5
18F
330
1E
100
AcDbEntity
  8
0
 62
     7
100
AcDbCircle
 10
-25.0
 20
40.0
 30
0.0
 40
7.804277779999999
100
AcDbArc
 50
342.020818
 51
17.9791824
  0
ARC
  5
190
330
1E
100
AcDbEntity
  8
0
 62
     7
100
AcDbCircle
 10
-25.0
 20
40.0
 30
0.0
 40
4.0
100
AcDbArc
 50
150.0
 51
209.999999
  0
ARC
  5
191
330
1E
100
AcDbEntity
  8
0
 62
     7
100
AcDbCircle
 10
-24.9999999
 20
40.0
 30
0.0
 40
4.5
100
AcDbArc
 50
150.0
 51
209.999999
  0
LINE
  5
192
330
1E
100
AcDbEntity
  8
0
 62
     7
100
AcDbLine
 10
-28.0052037
 20
43.0052038
 30
0.0
 11
-29.1136206
 21
42.37499999999999
 31
0.0
  0
LINE
  5
193
330
1E
100
AcDbEntity
  8
0
 62
     7
100
AcDbLine
 10
-28.0052037
 20
43.0052038
 30
0.0
 11
-28.2475952
 21
41.875
 31
0.0
  0
LINE
  5
194
330
1E
100
AcDbEntity
  8
0
 62
     7
100
AcDbLine
 10
-28.0052038
 20
36.9947962
 30
0.0
 11
-28.2475952
 21
38.125
 31
0.0
  0
LINE
  5
195
330
1E
100
AcDbEntity
  8
0
 62
     7
100
AcDbLine
 10
-28.0052038
 20
36.9947962
 30
0.0
 11
-29.1136206
 21
37.625
 31
0.0
  0
LINE
  5
196
330
1E
100
AcDbEntity
  8
0
 62
     7
100
AcDbLine
 10
-29.1136206
 20
42.37499999999999
 30
0.0
 11
-28.8971142
 21
42.25
 31
0.0
  0
LINE
  5
197
330
1E
100
AcDbEntity
  8
0
 62
     7
100
AcDbLine
 10
-29.1136206
 20
37.625
 30
0.0
 11
-28.8971143
 21
37.75
 31
0.0
  0
LINE
  5
198
330
1E
100
AcDbEntity
  8
0
 62
     7
100
AcDbLine
 10
-28.46410159999999
 20
38.0
 30
0.0
 11
-28.2475952
 21
38.125
 31
0.0
  0
LINE
  5
199
330
1E
100
AcDbEntity
  8
0
 62
     7
100
AcDbLine
 10
-28.46410159999999
 20
42.0
 30
0.0
 11
-28.2475952
 21
41.875
 31
0.0
  0
ARC
  5
19A
330
1E
100
AcDbEntity
  8
0
 62
     7
100
AcDbCircle
 10
-24.9999999
 20
40.0
 30
0.0
 40
7.341109
100
AcDbArc
 50
20.59203969999999
 51
39.4079617
  0
ARC
  5
19B
330
1E
100
AcDbEntity
  8
0
 62
     7
100
AcDbCircle
 10
-24.9999999
 20
40.0
 30
0.0
 40
8.145386999999999
100
AcDbArc
 50
17.2022165
 51
42.7977847
  0
LINE
  5
19C
330
1E
100
AcDbEntity
  8
0
 62
     7
100
AcDbLine
 10
-19.3279261
 20
44.66041409999999
 30
0.0
 11
-19.02327219999999
 21
45.5340813
 31
0.0
  0
LINE
  5
19D
330
1E
100
AcDbEntity
  8
0
 62
     7
100
AcDbLine
 10
-18.127926
 20
42.5819532
 30
0.0
 11
-17.2189811
 21
42.40895749999999
 31
0.0
  0
LINE
  5
19E
330
1E
100
AcDbEntity
  8
0
 62
     7
100
AcDbLine
 10
-26.2
 20
47.2423672
 30
0.0
 11
-26.8042911
 21
47.9430387
 31
0.0
  0
LINE
  5
19F
330
1E
100
AcDbEntity
  8
0
 62
     7
100
AcDbLine
 10
-26.2
 20
46.89637589999999
 30
0.0
 11
-26.8042911
 21
47.9430387
 31
0.0
  0
LINE
  5
1A0
330
1E
100
AcDbEntity
  8
0
 62
     7
100
AcDbLine
 10
-26.2
 20
46.89637589999999
 30
0.0
 11
-26.2
 21
47.2423672
 31
0.0
  0
ARC
  5
1A1
330
1E
100
AcDbEntity
  8
0
 62
     7
100
AcDbCircle
 10
-25.0
 20
40.00000009999999
 30
0.0
 40
7.341109
100
AcDbArc
 50
80.5920395
 51
99.40796150000002
  0
ARC
  5
1A2
330
1E
100
AcDbEntity
  8
0
 62
     7
100
AcDbCircle
 10
-25.0
 20
40.00000009999999
 30
0.0
 40
7.0
100
AcDbArc
 50
80.1291108
 51
99.8708901
  0
LINE
  5
1A3
330
1E
100
AcDbEntity
  8
0
 62
     7
100
AcDbLine
 10
-23.8
 20
46.89637589999999
 30
0.0
 11
-23.8
 21
47.2423672
 31
0.0
  0
LINE
  5
1A4
330
1E
100
AcDbEntity
  8
0
 62
     7
100
AcDbLine
 10
-23.8
 20
46.89637589999999
 30
0.0
 11
-23.19570899999999
 21
47.9430388
 31
0.0
  0
LINE
  5
1A5
330
1E
100
AcDbEntity
  8
0
 62
     7
100
AcDbLine
 10
-23.8
 20
47.2423672
 30
0.0
 11
-23.19570899999999
 21
47.9430388
 31
0.0
  0
ARC
  5
1A6
330
1E
100
AcDbEntity
  8
0
 62
     7
100
AcDbCircle
 10
-25.0
 20
40.00000009999999
 30
0.0
 40
8.145386999999999
100
AcDbArc
 50
77.20221659999999
 51
102.797785
  0
LINE
  5
1A7
330
1E
100
AcDbEntity
  8
0
 62
     7
100
AcDbLine
 10
-31.872074
 20
42.5819531
 30
0.0
 11
-32.7810189
 21
42.4089574
 31
0.0
  0
LINE
  5
1A8
330
1E
100
AcDbEntity
  8
0
 62
     7
100
AcDbLine
 10
-31.57243669999999
 20
42.4089574
 30
0.0
 11
-32.7810189
 21
42.4089574
 31
0.0
  0
LINE
  5
1A9
330
1E
100
AcDbEntity
  8
0
 62
     7
100
AcDbLine
 10
-31.57243669999999
 20
42.4089574
 30
0.0
 11
-31.872074
 21
42.5819531
 31
0.0
  0
ARC
  5
1AA
330
1E
100
AcDbEntity
  8
0
 62
     7
100
AcDbCircle
 10
-25.0
 20
40.00000009999999
 30
0.0
 40
7.341109
100
AcDbArc
 50
140.592039
 51
159.407962
  0
ARC
  5
1AB
330
1E
100
AcDbEntity
  8
0
 62
     7
100
AcDbCircle
 10
-25.0
 20
40.00000009999999
 30
0.0
 40
7.0
100
AcDbArc
 50
140.129111
 51
159.87089
  0
LINE
  5
1AC
330
1E
100
AcDbEntity
  8
0
 62
     7
100
AcDbLine
 10
-30.3724368
 20
44.4874184
 30
0.0
 11
-30.672074
 21
44.660414
 31
0.0
  0
LINE
  5
1AD
330
1E
100
AcDbEntity
  8
0
 62
     7
100
AcDbLine
 10
-30.3724368
 20
44.4874184
 30
0.0
 11
-30.97672779999999
 21
45.5340812
 31
0.0
  0
LINE
  5
1AE
330
1E
100
AcDbEntity
  8
0
 62
     7
100
AcDbLine
 10
-30.672074
 20
44.660414
 30
0.0
 11
-30.97672779999999
 21
45.5340812
 31
0.0
  0
ARC
  5
1AF
330
1E
100
AcDbEntity
  8
0
 62
     7
100
AcDbCircle
 10
-25.0
 20
40.00000009999999
 30
0.0
 40
8.145386999999999
100
AcDbArc
 50
137.2022169999999
 51
162.797785
  0
LINE
  5
1B0
330
1E
100
AcDbEntity
  8
0
 62
     7
100
AcDbLine
 10
-30.6720739
 20
35.3395859
 30
0.0
 11
-30.97672779999999
 21
34.4659187
 31
0.0
  0
LINE
  5
1B1
330
1E
100
AcDbEntity
  8
0
 62
     7
100
AcDbLine
 10
-30.3724367
 20
35.5125815
 30
0.0
 11
-30.97672779999999
 21
34.4659187
 31
0.0
  0
LINE
  5
1B2
330
1E
100
AcDbEntity
  8
0
 62
     7
100
AcDbLine
 10
-30.3724367
 20
35.5125815
 30
0.0
 11
-30.6720739
 21
35.3395859
 31
0.0
  0
ARC
  5
1B3
330
1E
100
AcDbEntity
  8
0
 62
     7
100
AcDbCircle
 10
-25.0000001
 20
40.0
 30
0.0
 40
7.341109
100
AcDbArc
 50
200.5920399999999
 51
219.407962
  0
ARC
  5
1B4
330
1E
100
AcDbEntity
  8
0
 62
     7
100
AcDbCircle
 10
-25.0000001
 20
40.0
 30
0.0
 40
7.0
100
AcDbArc
 50
200.129111
 51
219.8708899999999
  0
LINE
  5
1B5
330
1E
100
AcDbEntity
  8
0
 62
     7
100
AcDbLine
 10
-31.57243669999999
 20
37.5910425
 30
0.0
 11
-31.872074
 21
37.41804679999999
 31
0.0
  0
LINE
  5
1B6
330
1E
100
AcDbEntity
  8
0
 62
     7
100
AcDbLine
 10
-31.57243669999999
 20
37.5910425
 30
0.0
 11
-32.7810189
 21
37.5910425
 31
0.0
  0
LINE
  5
1B7
330
1E
100
AcDbEntity
  8
0
 62
     7
100
AcDbLine
 10
-31.872074
 20
37.41804679999999
 30
0.0
 11
-32.7810189
 21
37.5910425
 31
0.0
  0
ARC
  5
1B8
330
1E
100
AcDbEntity
  8
0
 62
     7
100
AcDbCircle
 10
-25.0000001
 20
40.0
 30
0.0
 40
8.145386999999999
100
AcDbArc
 50
197.202216
 51
222.797785
  0
LINE
  5
1B9
330
1E
100
AcDbEntity
  8
0
 62
     7
100
AcDbLine
 10
-23.8
 20
32.75763279999999
 30
0.0
 11
-23.19570889999999
 21
32.0569613
 31
0.0
  0
LINE
  5
1BA
330
1E
100
AcDbEntity
  8
0
 62
     7
100
AcDbLine
 10
-23.8
 20
33.1036241
 30
0.0
 11
-23.19570889999999
 21
32.0569613
 31
0.0
  0
LINE
  5
1BB
330
1E
100
AcDbEntity
  8
0
 62
     7
100
AcDbLine
 10
-23.8
 20
33.1036241
 30
0.0
 11
-23.8
 21
32.75763279999999
 31
0.0
  0
ARC
  5
1BC
330
1E
100
AcDbEntity
  8
0
 62
     7
100
AcDbCircle
 10
-25.0
 20
39.9999999
 30
0.0
 40
7.341109
100
AcDbArc
 50
260.59204
 51
279.407962
  0
ARC
  5
1BD
330
1E
100
AcDbEntity
  8
0
 62
     7
100
AcDbCircle
 10
-25.0
 20
39.9999999
 30
0.0
 40
7.0
100
AcDbArc
 50
260.1291109999999
 51
279.870891
  0
LINE
  5
1BE
330
1E
100
AcDbEntity
  8
0
 62
     7
100
AcDbLine
 10
-26.2
 20
33.1036241
 30
0.0
 11
-26.2
 21
32.75763279999999
 31
0.0
  0
LINE
  5
1BF
330
1E
100
AcDbEntity
  8
0
 62
     7
100
AcDbLine
 10
-26.2
 20
33.1036241
 30
0.0
 11
-26.804291
 21
32.05696119999999
 31
0.0
  0
LINE
  5
1C0
330
1E
100
AcDbEntity
  8
0
 62
     7
100
AcDbLine
 10
-26.2
 20
32.75763279999999
 30
0.0
 11
-26.804291
 21
32.05696119999999
 31
0.0
  0
ARC
  5
1C1
330
1E
100
AcDbEntity
  8
0
 62
     7
100
AcDbCircle
 10
-25.0
 20
39.9999999
 30
0.0
 40
8.145386999999999
100
AcDbArc
 50
257.202216
 51
282.797785
  0
LINE
  5
1C2
330
1E
100
AcDbEntity
  8
0
 62
     7
100
AcDbLine
 10
-18.127926
 20
37.4180469
 30
0.0
 11
-17.2189811
 21
37.5910426
 31
0.0
  0
LINE
  5
1C3
330
1E
100
AcDbEntity
  8
0
 62
     7
100
AcDbLine
 10
-18.4275633
 20
37.5910426
 30
0.0
 11
-17.2189811
 21
37.5910426
 31
0.0
  0
LINE
  5
1C4
330
1E
100
AcDbEntity
  8
0
 62
     7
100
AcDbLine
 10
-18.4275633
 20
37.5910426
 30
0.0
 11
-18.127926
 21
37.4180469
 31
0.0
  0
ARC
  5
1C5
330
1E
100
AcDbEntity
  8
0
 62
     7
100
AcDbCircle
 10
-25.0
 20
39.9999999
 30
0.0
 40
7.341109
100
AcDbArc
 50
320.59204
 51
339.4079619999999
  0
ARC
  5
1C6
330
1E
100
AcDbEntity
  8
0
 62
     7
100
AcDbCircle
 10
-25.0
 20
39.9999999
 30
0.0
 40
7.0
100
AcDbArc
 50
320.1291109999999
 51
339.8708899999999
  0
LINE
  5
1C7
330
1E
100
AcDbEntity
  8
0
 62
     7
100
AcDbLine
 10
-19.62756319999999
 20
35.51258159999999
 30
0.0
 11
-19.327926
 21
35.339586
 31
0.0
  0
LINE
  5
1C8
330
1E
100
AcDbEntity
  8
0
 62
     7
100
AcDbLine
 10
-19.62756319999999
 20
35.51258159999999
 30
0.0
 11
-19.02327219999999
 21
34.46591879999999
 31
0.0
  0
LINE
  5
1C9
330
1E
100
AcDbEntity
  8
0
 62
     7
100
AcDbLine
 10
-19.327926
 20
35.339586
 30
0.0
 11
-19.02327219999999
 21
34.46591879999999
 31
0.0
  0
ARC
  5
1CA
330
1E
100
AcDbEntity
  8
0
 62
     7
100
AcDbCircle
 10
-25.0
 20
39.9999999
 30
0.0
 40
8.145386999999999
100
AcDbArc
 50
317.202216
 51
342.797785
  0
LINE
  5
1CB
330
1E
100
AcDbEntity
  8
0
  6
CENTER
 62
     2
100
AcDbLine
 10
-38.9523753
 20
40.0
 30
0.0
 11
-10.55620059999999
 21
40.0
 31
0.0
  0
LINE
  5
1CC
330
1E
100
AcDbEntity
  8
0
 62
     7
100
AcDbLine
 10
-67.9999939
 20
94.50000000000001
 30
0.0
 11
-67.9999939
 21
84.50000000000001
 31
0.0
  0
LINE
  5
1CD
330
1E
100
AcDbEntity
  8
0
 62
     7
100
AcDbLine
 10
-138.399994
 20
84.50000000000001
 30
0.0
 11
-67.9999939
 21
84.50000000000001
 31
0.0
  0
TEXT
  5
1CE
330
1E
100
AcDbEntity
  8
0
 62
     7
100
AcDbText
 10
-136.3428499999999
 20
87.90000009999999
 30
0.0
 40
3.19999981
  1
SMALL-SIZED FR SERIES
 41
1.06060606
  7
MONOTXT
100
AcDbText
  0
TEXT
  5
1CF
330
1E
100
AcDbEntity
  8
0
 62
     7
100
AcDbText
 10
-109.885995
 20
62.9000001
 30
0.0
 40
3.19999981
  1
RDN110-J6(J4)
  7
MONOTXT
100
AcDbText
  0
TEXT
  5
1D0
330
1E
100
AcDbEntity
  8
0
 62
     7
100
AcDbText
 10
-109.885995
 20
57.9000001
 30
0.0
 40
3.19999981
  1
RDN111-J6(J4)
  7
MONOTXT
100
AcDbText
  0
TEXT
  5
1D1
330
1E
100
AcDbEntity
  8
0
 62
     7
100
AcDbText
 10
-109.885995
 20
67.90000009999999
 30
0.0
 40
3.19999981
  1
RDN101-J6(J4)
  7
MONOTXT
100
AcDbText
  0
LINE
  5
1D2
330
1E
100
AcDbEntity
  8
0
 62
     7
100
AcDbLine
 10
-138.399994
 20
94.50000000000001
 30
0.0
 11
138.350006
 21
94.50000000000001
 31
0.0
  0
LINE
  5
1D3
330
1E
100
AcDbEntity
  8
0
 62
     7
100
AcDbLine
 10
138.350006
 20
94.50000000000001
 30
0.0
 11
138.350006
 21
-94.80000309999999
 31
0.0
  0
LINE
  5
1D4
330
1E
100
AcDbEntity
  8
0
 62
     7
100
AcDbLine
 10
-138.399994
 20
-94.80000309999999
 30
0.0
 11
138.350006
 21
-94.80000309999999
 31
0.0
  0
LINE
  5
1D5
330
1E
100
AcDbEntity
  8
0
 62
     7
100
AcDbLine
 10
-138.399994
 20
94.50000000000001
 30
0.0
 11
-138.399994
 21
-94.80000309999999
 31
0.0
  0
LINE
  5
1D6
330
1E
100
AcDbEntity
  8
0
 62
     7
100
AcDbLine
 10
73.3500061
 20
-84.80000309999999
 30
0.0
 11
138.350006
 21
-84.80000309999999
 31
0.0
  0
LINE
  5
1D7
330
1E
100
AcDbEntity
  8
0
 62
     7
100
AcDbLine
 10
73.3500061
 20
84.50000000000001
 30
0.0
 11
138.350006
 21
84.50000000000001
 31
0.0
  0
LINE
  5
1D8
330
1E
100
AcDbEntity
  8
0
 62
     7
100
AcDbLine
 10
73.3500061
 20
-84.80000309999999
 30
0.0
 11
73.3500061
 21
-94.80000309999999
 31
0.0
  0
LINE
  5
1D9
330
1E
100
AcDbEntity
  8
0
 62
     7
100
AcDbLine
 10
73.3500061
 20
94.50000000000001
 30
0.0
 11
73.3500061
 21
84.50000000000001
 31
0.0
  0
TEXT
  5
1DA
330
1E
100
AcDbEntity
  8
0
 62
     7
100
AcDbText
 10
77.2426624
 20
-92.0500031
 30
0.0
 40
4.5
  1
KOGANEI CORP.
 41
1.0483871
  7
MONOTXT
100
AcDbText
  0
TEXT
  5
1DB
330
1E
100
AcDbEntity
  8
0
 62
     7
100
AcDbText
 10
93.5071493
 20
87.90000009999999
 30
0.0
 40
3.19999981
  1
Ver. 1.0
 41
1.081081079999999
  7
MONOTXT
100
AcDbText
  0
TEXT
  5
1DC
330
1E
100
AcDbEntity
  8
0
 62
     7
100
AcDbText
 10
-129.085994
 20
72.90000009999999
 30
0.0
 40
3.19999981
  1
MODEL:RDN100-J6(J4)
  7
MONOTXT
100
AcDbText
  0
ENDSEC
  0
SECTION
  2
OBJECTS
  0
DICTIONARY
  5
C
330
0
100
AcDbDictionary
  3
ACAD_GROUP
350
D
  3
ACAD_MLINESTYLE
350
16
  3
ACAD_PLOTSETTINGS
350
18
  3
ACAD_LAYOUT
350
19
1001
ACAD
1000
TREAT_AS_HARD
1070
     0
  0
DICTIONARY
  5
217
330
1E
100
AcDbDictionary
  3
ACAD_LAYOUTSELFREF
350
218
  0
DICTIONARY
  5
215
330
1A
100
AcDbDictionary
  3
ACAD_LAYOUTSELFREF
350
216
  0
DICTIONARY
  5
D
102
{ACAD_REACTORS
330
C
102
}
330
C
100
AcDbDictionary
1001
ACAD
1000
TREAT_AS_HARD
1070
     0
  0
DICTIONARY
  5
16
102
{ACAD_REACTORS
330
C
102
}
330
C
100
AcDbDictionary
  3
STANDARD
350
17
1001
ACAD
1000
TREAT_AS_HARD
1070
     0
  0
DICTIONARY
  5
18
102
{ACAD_REACTORS
330
C
102
}
330
C
100
AcDbDictionary
1001
ACAD
1000
TREAT_AS_HARD
1070
     0
  0
DICTIONARY
  5
19
102
{ACAD_REACTORS
330
C
102
}
330
C
100
AcDbDictionary
1001
ACAD
1000
TREAT_AS_HARD
1070
     0
  0
XRECORD
  5
218
102
{ACAD_REACTORS
330
217
102
}
330
217
100
AcDbXrecord
340
1E
  0
XRECORD
  5
216
102
{ACAD_REACTORS
330
215
102
}
330
215
100
AcDbXrecord
340
1A
  0
MLINESTYLE
  5
17
102
{ACAD_REACTORS
330
16
102
}
330
16
100
AcDbMlineStyle
  2
STANDARD
 70
     0
  3

 62
   256
 51
90.0
 52
90.0
 71
     2
 49
0.5
 62
   256
  6
BYLAYER
 49
-0.5
 62
   256
  6
BYLAYER
  0
ENDSEC
  0
EOF
