  0
SECTION
  2
HEADER
  9
$ACADVER
  1
AC1006
  9
$INSBASE
 10
0.0
 20
0.0
 30
0.0
  9
$EXTMIN
 10
-281.25
 20
-195.0
  9
$EXTMAX
 10
282.099976
 20
195.5
  9
$LIMMIN
 10
0.0
 20
0.0
  9
$LIMMAX
 10
12.0
 20
9.0
  9
$ORTHOMODE
 70
     0
  9
$REGENMODE
 70
     1
  9
$FILLMODE
 70
     1
  9
$QTEXTMODE
 70
     0
  9
$MIRRTEXT
 70
     1
  9
$DRAGMODE
 70
     2
  9
$LTSCALE
 40
1.0
  9
$OSMODE
 70
     0
  9
$ATTMODE
 70
     1
  9
$TEXTSIZE
 40
0.2
  9
$TRACEWID
 40
0.05
  9
$TEXTSTYLE
  7
STANDARD
  9
$CLAYER
  8
0
  9
$CELTYPE
  6
BYLAYER
  9
$CECOLOR
 62
   256
  9
$DIMSCALE
 40
1.0
  9
$DIMASZ
 40
0.18
  9
$DIMEXO
 40
0.0625
  9
$DIMDLI
 40
0.38
  9
$DIMRND
 40
0.0
  9
$DIMDLE
 40
0.0
  9
$DIMEXE
 40
0.18
  9
$DIMTP
 40
0.0
  9
$DIMTM
 40
0.0
  9
$DIMTXT
 40
0.18
  9
$DIMCEN
 40
0.09
  9
$DIMTSZ
 40
0.0
  9
$DIMTOL
 70
     0
  9
$DIMLIM
 70
     0
  9
$DIMTIH
 70
     1
  9
$DIMTOH
 70
     1
  9
$DIMSE1
 70
     0
  9
$DIMSE2
 70
     0
  9
$DIMTAD
 70
     0
  9
$DIMZIN
 70
     0
  9
$DIMBLK
  1

  9
$DIMASO
 70
     1
  9
$DIMSHO
 70
     0
  9
$DIMPOST
  1

  9
$DIMAPOST
  1

  9
$DIMALT
 70
     0
  9
$DIMALTD
 70
     2
  9
$DIMALTF
 40
25.4
  9
$DIMLFAC
 40
1.0
  9
$DIMTOFL
 70
     0
  9
$DIMTVP
 40
0.0
  9
$DIMTIX
 70
     0
  9
$DIMSOXD
 70
     0
  9
$DIMSAH
 70
     0
  9
$DIMBLK1
  1

  9
$DIMBLK2
  1

  9
$LUNITS
 70
     2
  9
$LUPREC
 70
     4
  9
$AXISMODE
 70
     0
  9
$AXISUNIT
 10
0.0
 20
0.0
  9
$SKETCHINC
 40
0.1
  9
$FILLETRAD
 40
0.0
  9
$AUNITS
 70
     0
  9
$AUPREC
 70
     0
  9
$MENU
  1
acad
  9
$ELEVATION
 40
0.0
  9
$THICKNESS
 40
0.0
  9
$LIMCHECK
 70
     0
  9
$BLIPMODE
 70
     1
  9
$CHAMFERA
 40
0.0
  9
$CHAMFERB
 40
0.0
  9
$SKPOLY
 70
     0
  9
$TDCREATE
 40
2449646.6949652778
  9
$TDUPDATE
 40
2449646.6949652778
  9
$TDINDWG
 40
0.0000000000
  9
$TDUSRTIMER
 40
0.0000000000
  9
$USRTIMER
 70
     1
  9
$ANGBASE
 50
0.0
  9
$ANGDIR
 70
     0
  9
$PDMODE
 70
     0
  9
$PDSIZE
 40
0.0
  9
$PLINEWID
 40
0.0
  9
$COORDS
 70
     0
  9
$SPLFRAME
 70
     0
  9
$SPLINETYPE
 70
     6
  9
$SPLINESEGS
 70
     8
  9
$ATTDIA
 70
     0
  9
$ATTREQ
 70
     1
  9
$HANDLING
 70
     0
  9
$HANDSEED
  5
0
  9
$SURFTAB1
 70
     6
  9
$SURFTAB2
 70
     6
  9
$SURFTYPE
 70
     6
  9
$SURFU
 70
     6
  9
$SURFV
 70
     6
  9
$FLATLAND
 70
     0
  9
$UCSNAME
  2

  9
$UCSORG
 10
0.0
 20
0.0
 30
0.0
  9
$UCSXDIR
 10
1.0
 20
0.0
 30
0.0
  9
$UCSYDIR
 10
0.0
 20
1.0
 30
0.0
  9
$USERI1
 70
     0
  9
$USERI2
 70
     0
  9
$USERI3
 70
     0
  9
$USERI4
 70
     0
  9
$USERI5
 70
     0
  9
$USERR1
 40
0.0
  9
$USERR2
 40
0.0
  9
$USERR3
 40
0.0
  9
$USERR4
 40
0.0
  9
$USERR5
 40
0.0
  9
$WORLDVIEW
 70
     1
  0
ENDSEC
  0
SECTION
  2
TABLES
  0
TABLE
  2
VPORT
 70
     3
  0
VPORT
  2
*ACTIVE
 70
     0
 10
0.0
 20
0.0
 11
1.0
 21
1.0
 12
37.802124
 22
0.25
 13
0.0
 23
0.0
 14
1.0
 24
1.0
 15
0.0
 25
0.0
 16
0.0
 26
0.0
 36
1.0
 17
0.0
 27
0.0
 37
0.0
 40
390.5
 41
1.63407
 42
50.0
 43
0.0
 44
0.0
 50
0.0
 51
0.0
 71
     0
 72
   100
 73
     1
 74
     1
 75
     0
 76
     0
 77
     0
 78
     0
  0
ENDTAB
  0
TABLE
  2
LTYPE
 70
    22
  0
LTYPE
  2
CONTINUOUS
 70
    64
  3
Solid line
 72
    65
 73
     0
 40
0.0
  0
LTYPE
  2
DASHED
 70
    64
  3
__ __ __ __ __ __ __ __ __ __ __ __ __ __ __
 72
    65
 73
     2
 40
3.5
 49
2.0
 49
-1.5
  0
LTYPE
  2
CENTER
 70
    64
  3
____ _ ____ _ ____ _ ____ _ ____ _ ____ _ ____
 72
    65
 73
     4
 40
17.5
 49
13.0
 49
-1.5
 49
1.5
 49
-1.5
  0
LTYPE
  2
PHANTOM
 70
    64
  3
_____ _ _ _____ _ _ _____ _ _ _____ _ _ ____  
 72
    65
 73
     6
 40
15.5
 49
8.0
 49
-1.5
 49
1.5
 49
-1.5
 49
1.5
 49
-1.5
  0
LTYPE
  2
DASHED1
 70
    64
  3
__ __ __ __ __ __ __ __ __ __ __ __ __ __ __
 72
    65
 73
     2
 40
1.5
 49
1.0
 49
-0.5
  0
LTYPE
  2
DASHED2
 70
    64
  3
__ __ __ __ __ __ __ __ __ __ __ __ __ __ __
 72
    65
 73
     2
 40
3.5
 49
2.5
 49
-1.0
  0
LTYPE
  2
DASHED3
 70
    64
  3
__ __ __ __ __ __ __ __ __ __ __ __ __ __ __
 72
    65
 73
     2
 40
6.0
 49
4.0
 49
-2.0
  0
LTYPE
  2
DASHED4
 70
    64
  3
__ __ __ __ __ __ __ __ __ __ __ __ __ __ __
 72
    65
 73
     2
 40
12.0
 49
10.0
 49
-2.0
  0
LTYPE
  2
DASHED5
 70
    64
  3
__ __ __ __ __ __ __ __ __ __ __ __ __ __ __
 72
    65
 73
     2
 40
17.0
 49
15.0
 49
-2.0
  0
LTYPE
  2
DASHED6
 70
    64
  3
__ __ __ __ __ __ __ __ __ __ __ __ __ __ __
 72
    65
 73
     2
 40
29.0
 49
27.0
 49
-2.0
  0
LTYPE
  2
PHANTOM1
 70
    64
  3
_____ _ _ _____ _ _ _____ _ _ _____ _ _ ____  
 72
    65
 73
     6
 40
31.0
 49
25.0
 49
-1.5
 49
1.0
 49
-1.0
 49
1.0
 49
-1.5
  0
LTYPE
  2
PHANTOM2
 70
    64
  3
_____ _ _ _____ _ _ _____ _ _ _____ _ _ ____  
 72
    65
 73
     6
 40
36.0
 49
27.0
 49
-1.5
 49
2.5
 49
-1.0
 49
2.5
 49
-1.5
  0
LTYPE
  2
PHANTOM3
 70
    64
  3
_____ _ _ _____ _ _ _____ _ _ _____ _ _ ____  
 72
    65
 73
     6
 40
78.0
 49
64.0
 49
-2.0
 49
4.0
 49
-2.0
 49
4.0
 49
-2.0
  0
LTYPE
  2
CENTER1
 70
    64
  3
____ _ ____ _ ____ _ ____ _ ____ _ ____ _ ____
 72
    65
 73
     4
 40
19.0
 49
14.0
 49
-1.0
 49
3.0
 49
-1.0
  0
LTYPE
  2
CENTER2
 70
    64
  3
____ _ ____ _ ____ _ ____ _ ____ _ ____ _ ____
 72
    65
 73
     4
 40
28.5
 49
25.0
 49
-1.0
 49
1.5
 49
-1.0
  0
LTYPE
  2
CENTER3
 70
    64
  3
____ _ ____ _ ____ _ ____ _ ____ _ ____ _ ____
 72
    65
 73
     4
 40
31.5
 49
27.0
 49
-1.0
 49
2.5
 49
-1.0
  0
LTYPE
  2
CENTER4
 70
    64
  3
____ _ ____ _ ____ _ ____ _ ____ _ ____ _ ____
 72
    65
 73
     4
 40
50.0
 49
45.0
 49
-1.0
 49
3.0
 49
-1.0
  0
LTYPE
  2
CENTER5
 70
    64
  3
____ _ ____ _ ____ _ ____ _ ____ _ ____ _ ____
 72
    65
 73
     4
 40
100.0
 49
92.0
 49
-2.0
 49
4.0
 49
-2.0
  0
LTYPE
  2
SBK1
 70
    64
  3
______ _ _ _ ______ _ _ _ ______ _ _ _ _____  
 72
    65
 73
     8
 40
60.5
 49
45.0
 49
-2.0
 49
2.5
 49
-2.0
 49
2.5
 49
-2.0
 49
2.5
 49
-2.0
  0
LTYPE
  2
SBK2
 70
    64
  3
______ _ _ _ ______ _ _ _ ______ _ _ _ _____  
 72
    65
 73
     8
 40
84.0
 49
64.0
 49
-2.0
 49
4.0
 49
-2.0
 49
4.0
 49
-2.0
 49
4.0
 49
-2.0
  0
LTYPE
  2
STCH
 70
    64
  3
__ __ __ __ __ __ __ __ __ __ __ __ __ __ __
 72
    65
 73
     2
 40
3.0
 49
1.0
 49
-2.0
  0
LTYPE
  2
MTCH
 70
    64
  3
_____ _ _ _____ _ _ _____ _ _ _____ _ _ ____  
 72
    65
 73
     6
 40
80.0
 49
66.0
 49
-2.0
 49
4.0
 49
-2.0
 49
4.0
 49
-2.0
  0
ENDTAB
  0
TABLE
  2
LAYER
 70
     1
  0
LAYER
  2
0
 70
     0
 62
     7
  6
CONTINUOUS
  0
ENDTAB
  0
TABLE
  2
STYLE
 70
     1
  0
STYLE
  2
STANDARD
 70
     0
 40
0.0
 41
1.0
 50
0.0
 71
     0
 42
0.2
  3
txt
  4
BIGFONT
  0
ENDTAB
  0
TABLE
  2
VIEW
 70
     0
  0
ENDTAB
  0
TABLE
  2
UCS
 70
     0
  0
ENDTAB
  0
TABLE
  2
DWGMGR
 70
     0
  0
ENDTAB
  0
ENDSEC
  0
SECTION
  2
BLOCKS
  0
ENDSEC
  0
SECTION
  2
ENTITIES
  0
LINE
  8
0
 10
-281.25
 20
195.5
 30
0.0
 11
282.099976
 21
195.5
 31
0.0
  0
LINE
  8
0
 10
-281.25
 20
195.5
 30
0.0
 11
-281.25
 21
-195.0
 31
0.0
  0
LINE
  8
0
 10
282.099976
 20
195.5
 30
0.0
 11
282.099976
 21
-195.0
 31
0.0
  0
LINE
  8
0
 10
162.099976
 20
-175.0
 30
0.0
 11
162.099976
 21
-195.0
 31
0.0
  0
LINE
  8
0
 10
162.099976
 20
-175.0
 30
0.0
 11
282.099976
 21
-175.0
 31
0.0
  0
LINE
  8
0
 10
162.099976
 20
175.5
 30
0.0
 11
282.099976
 21
175.5
 31
0.0
  0
LINE
  8
0
 10
-281.25
 20
175.5
 30
0.0
 11
-161.25
 21
175.5
 31
0.0
  0
LINE
  8
0
 10
162.099976
 20
195.5
 30
0.0
 11
162.099976
 21
175.5
 31
0.0
  0
LINE
  8
0
 10
-161.25
 20
195.5
 30
0.0
 11
-161.25
 21
175.5
 31
0.0
  0
LINE
  8
0
 10
94.316635
 20
195.5
 30
0.0
 11
94.316635
 21
-195.0
 31
0.0
  0
LINE
  8
0
 10
-93.466705
 20
195.5
 30
0.0
 11
-93.466705
 21
-195.0
 31
0.0
  0
LINE
  8
0
 10
-281.25
 20
195.5
 30
0.0
 11
282.099976
 21
195.5
 31
0.0
  0
LINE
  8
0
 10
-281.25
 20
8.25
 30
0.0
 11
282.099976
 21
8.25
 31
0.0
  0
LINE
  8
0
 10
-281.25
 20
-7.75
 30
0.0
 11
282.099976
 21
-7.75
 31
0.0
  0
LINE
  8
0
 10
-281.25
 20
-195.0
 30
0.0
 11
282.099976
 21
-195.0
 31
0.0
  0
LINE
  8
0
  6
CENTER
 62
     2
 10
-193.999985
 20
96.536133
 30
0.0
 11
-193.999985
 21
78.897438
 31
0.0
  0
LINE
  8
0
 10
-173.999985
 20
91.666649
 30
0.0
 11
-173.999985
 21
83.666649
 31
0.0
  0
LINE
  8
0
  6
CENTER
 62
     2
 10
-202.485855
 20
87.666649
 30
0.0
 11
-173.070251
 21
87.666649
 31
0.0
  0
LINE
  8
0
 10
-185.62915
 20
90.916649
 30
0.0
 11
-177.749985
 21
90.916649
 31
0.0
  0
LINE
  8
0
 10
-176.999985
 20
91.666649
 30
0.0
 11
-176.999985
 21
89.603142
 31
0.0
  0
LINE
  8
0
 10
-176.999985
 20
91.666649
 30
0.0
 11
-173.999985
 21
91.666649
 31
0.0
  0
LINE
  8
0
 10
-176.999985
 20
83.666649
 30
0.0
 11
-173.999985
 21
83.666649
 31
0.0
  0
LINE
  8
0
 10
-177.75
 20
90.916649
 30
0.0
 11
-176.999985
 21
91.666649
 31
0.0
  0
LINE
  8
0
 10
-177.75
 20
84.416664
 30
0.0
 11
-177.0
 21
83.666656
 31
0.0
  0
LINE
  8
0
 10
-177.749985
 20
90.916649
 30
0.0
 11
-177.749985
 21
84.416649
 31
0.0
  0
LINE
  8
0
 10
-176.999985
 20
85.730156
 30
0.0
 11
-176.999985
 21
83.666649
 31
0.0
  0
LINE
  8
0
 10
-176.999985
 20
89.603142
 30
0.0
 11
-173.999985
 21
89.603142
 31
0.0
  0
LINE
  8
0
 10
-176.999985
 20
85.730156
 30
0.0
 11
-173.999985
 21
85.730156
 31
0.0
  0
LINE
  8
0
  6
CENTER
 62
     2
 10
-173.999969
 20
89.603134
 30
0.0
 11
-176.999969
 21
85.730156
 31
0.0
  0
LINE
  8
0
  6
CENTER
 62
     2
 10
-176.999969
 20
89.603127
 30
0.0
 11
-173.999969
 21
85.730148
 31
0.0
  0
LINE
  8
0
 10
-190.5
 20
93.728836
 30
0.0
 11
-185.629166
 21
90.916656
 31
0.0
  0
LINE
  8
0
 10
-190.68573
 20
93.407143
 30
0.0
 11
-186.372101
 21
90.916664
 31
0.0
  0
LINE
  8
0
 10
-190.685699
 20
81.926155
 30
0.0
 11
-186.372055
 21
84.416641
 31
0.0
  0
LINE
  8
0
 10
-190.499985
 20
81.604485
 30
0.0
 11
-185.62915
 21
84.416664
 31
0.0
  0
LINE
  8
0
 10
-185.62915
 20
84.416649
 30
0.0
 11
-177.749985
 21
84.416649
 31
0.0
  0
LINE
  8
0
 10
-186.37207
 20
90.916649
 30
0.0
 11
-186.37207
 21
84.416649
 31
0.0
  0
LINE
  8
0
  6
CENTER
 62
     2
 10
-134.999954
 20
91.676697
 30
0.0
 11
-134.999954
 21
73.967728
 31
0.0
  0
LINE
  8
0
  6
CENTER
 62
     2
 10
-129.999954
 20
82.666664
 30
0.0
 11
-139.999954
 21
82.666664
 31
0.0
  0
LINE
  8
0
 10
-137.249954
 20
89.295197
 30
0.0
 11
-137.249954
 21
85.973854
 31
0.0
  0
LINE
  8
0
 10
-132.749954
 20
89.295197
 30
0.0
 11
-132.749954
 21
85.973854
 31
0.0
  0
LINE
  8
0
 10
-138.499954
 20
84.603157
 30
0.0
 11
-138.499954
 21
80.795044
 31
0.0
  0
LINE
  8
0
 10
-131.499954
 20
84.538284
 30
0.0
 11
-131.499954
 21
80.795044
 31
0.0
  0
LINE
  8
0
 10
-137.249954
 20
79.359474
 30
0.0
 11
-137.249954
 21
76.038132
 31
0.0
  0
LINE
  8
0
 10
-132.749954
 20
79.359474
 30
0.0
 11
-132.749954
 21
76.038132
 31
0.0
  0
LINE
  8
0
  6
CENTER
 62
     2
 10
-240.364319
 20
96.676697
 30
0.0
 11
-240.364319
 21
78.967728
 31
0.0
  0
LINE
  8
0
  6
CENTER
 62
     2
 10
-245.025085
 20
87.666664
 30
0.0
 11
-235.364319
 21
87.666664
 31
0.0
  0
LINE
  8
0
 10
-237.364319
 20
90.265312
 30
0.0
 11
-237.364319
 21
85.068016
 31
0.0
  0
LINE
  8
0
 10
-243.364319
 20
90.265312
 30
0.0
 11
-243.364319
 21
85.068016
 31
0.0
  0
LINE
  8
0
 10
-238.114319
 20
94.295197
 30
0.0
 11
-238.114319
 21
81.038132
 31
0.0
  0
LINE
  8
0
 10
-242.614319
 20
94.295197
 30
0.0
 11
-242.614319
 21
81.038132
 31
0.0
  0
LINE
  8
0
  6
DASHED
 62
     2
 10
-243.364319
 20
89.166664
 30
0.0
 11
-237.364319
 21
89.166664
 31
0.0
  0
LINE
  8
0
  6
DASHED
 62
     2
 10
-243.364319
 20
86.166664
 30
0.0
 11
-237.364319
 21
86.166664
 31
0.0
  0
LINE
  8
0
  6
CENTER
 62
     2
 10
-4.216995
 20
96.536148
 30
0.0
 11
-4.216995
 21
77.666664
 31
0.0
  0
LINE
  8
0
  6
CENTER
 62
     2
 10
-14.216995
 20
87.666664
 30
0.0
 11
20.783005
 21
87.666664
 31
0.0
  0
LINE
  8
0
 10
19.783005
 20
92.666664
 30
0.0
 11
19.783005
 21
82.666664
 31
0.0
  0
LINE
  8
0
 10
16.283005
 20
92.666664
 30
0.0
 11
19.783005
 21
92.666664
 31
0.0
  0
LINE
  8
0
 10
16.283005
 20
82.666664
 30
0.0
 11
19.783005
 21
82.666664
 31
0.0
  0
LINE
  8
0
 10
16.283005
 20
92.666664
 30
0.0
 11
16.283005
 21
90.666664
 31
0.0
  0
LINE
  8
0
 10
4.854801
 20
91.666664
 30
0.0
 11
15.283005
 21
91.666664
 31
0.0
  0
LINE
  8
0
 10
15.283002
 20
91.666664
 30
0.0
 11
16.283003
 21
92.666672
 31
0.0
  0
LINE
  8
0
 10
16.283005
 20
90.666664
 30
0.0
 11
19.783005
 21
90.666664
 31
0.0
  0
LINE
  8
0
 10
15.283006
 20
83.666656
 30
0.0
 11
16.283003
 21
82.666656
 31
0.0
  0
LINE
  8
0
 10
16.283005
 20
84.666664
 30
0.0
 11
19.783005
 21
84.666664
 31
0.0
  0
LINE
  8
0
 10
15.283
 20
91.666664
 30
0.0
 11
15.283
 21
83.666664
 31
0.0
  0
LINE
  8
0
 10
16.283005
 20
84.666664
 30
0.0
 11
16.283005
 21
82.666664
 31
0.0
  0
LINE
  8
0
 62
     2
 10
19.783009
 20
90.666672
 30
0.0
 11
16.283007
 21
84.666672
 31
0.0
  0
LINE
  8
0
 62
     2
 10
16.283007
 20
90.666679
 30
0.0
 11
19.78301
 21
84.666672
 31
0.0
  0
LINE
  8
0
 10
-0.216993
 20
94.594872
 30
0.0
 11
4.854805
 21
91.666664
 31
0.0
  0
LINE
  8
0
 10
-0.434144
 20
94.218773
 30
0.0
 11
3.986225
 21
91.666672
 31
0.0
  0
LINE
  8
0
 10
4.854801
 20
83.666664
 30
0.0
 11
15.283005
 21
83.666664
 31
0.0
  0
LINE
  8
0
 10
-0.217
 20
80.738449
 30
0.0
 11
4.8548
 21
83.666656
 31
0.0
  0
LINE
  8
0
 10
-0.434139
 20
81.114555
 30
0.0
 11
3.986227
 21
83.666656
 31
0.0
  0
LINE
  8
0
 10
3.986225
 20
91.666664
 30
0.0
 11
3.986225
 21
83.666664
 31
0.0
  0
LINE
  8
0
  6
CENTER
 62
     2
 10
50.783005
 20
96.676697
 30
0.0
 11
50.783005
 21
78.967728
 31
0.0
  0
LINE
  8
0
  6
CENTER
 62
     2
 10
55.783005
 20
87.666664
 30
0.0
 11
45.783005
 21
87.666664
 31
0.0
  0
LINE
  8
0
 10
54.783005
 20
90.666664
 30
0.0
 11
54.783005
 21
84.666664
 31
0.0
  0
LINE
  8
0
 10
46.783005
 20
90.666664
 30
0.0
 11
46.783005
 21
84.666664
 31
0.0
  0
LINE
  8
0
 10
53.383003
 20
95.232376
 30
0.0
 11
53.383003
 21
91.9375
 31
0.0
  0
LINE
  8
0
 10
48.183006
 20
95.232376
 30
0.0
 11
48.183006
 21
91.9375
 31
0.0
  0
LINE
  8
0
 10
48.183006
 20
80.100952
 30
0.0
 11
48.183006
 21
83.395828
 31
0.0
  0
LINE
  8
0
 10
53.383003
 20
80.100952
 30
0.0
 11
53.383003
 21
83.395828
 31
0.0
  0
LINE
  8
0
  6
CENTER
 62
     2
 10
-49.581314
 20
96.676697
 30
0.0
 11
-49.581314
 21
78.967728
 31
0.0
  0
LINE
  8
0
  6
CENTER
 62
     2
 10
-54.497982
 20
87.666664
 30
0.0
 11
-44.581314
 21
87.666664
 31
0.0
  0
LINE
  8
0
 10
-52.181313
 20
95.232376
 30
0.0
 11
-52.181313
 21
80.100952
 31
0.0
  0
LINE
  8
0
 10
-46.081314
 20
90.896431
 30
0.0
 11
-46.081314
 21
84.436897
 31
0.0
  0
LINE
  8
0
 10
-53.081314
 20
90.896431
 30
0.0
 11
-53.081314
 21
84.436897
 31
0.0
  0
LINE
  8
0
 10
-46.981316
 20
95.232376
 30
0.0
 11
-46.981316
 21
80.100952
 31
0.0
  0
LINE
  8
0
  6
DASHED
 10
-53.081314
 20
89.666664
 30
0.0
 11
-46.081314
 21
89.666664
 31
0.0
  0
LINE
  8
0
  6
DASHED
 10
-53.081314
 20
85.666664
 30
0.0
 11
-46.081314
 21
85.666664
 31
0.0
  0
LINE
  8
0
  6
CENTER
 62
     2
 10
178.06601
 20
98.47187
 30
0.0
 11
178.06601
 21
77.666664
 31
0.0
  0
LINE
  8
0
  6
CENTER
 62
     2
 10
168.06601
 20
87.666664
 30
0.0
 11
208.06601
 21
87.666664
 31
0.0
  0
LINE
  8
0
 10
205.06601
 20
93.166664
 30
0.0
 11
205.06601
 21
82.166664
 31
0.0
  0
LINE
  8
0
 10
201.06601
 20
93.166664
 30
0.0
 11
205.06601
 21
93.166664
 31
0.0
  0
LINE
  8
0
 10
188.271774
 20
92.166664
 30
0.0
 11
200.06601
 21
92.166664
 31
0.0
  0
LINE
  8
0
 10
201.06601
 20
93.166664
 30
0.0
 11
201.06601
 21
90.828941
 31
0.0
  0
LINE
  8
0
 10
200.066025
 20
92.166679
 30
0.0
 11
201.06601
 21
93.166672
 31
0.0
  0
LINE
  8
0
 10
201.06601
 20
90.828941
 30
0.0
 11
205.06601
 21
90.828941
 31
0.0
  0
LINE
  8
0
 10
200.065994
 20
83.166664
 30
0.0
 11
201.06601
 21
82.166664
 31
0.0
  0
LINE
  8
0
 10
201.06601
 20
82.166664
 30
0.0
 11
201.06601
 21
84.504387
 31
0.0
  0
LINE
  8
0
 10
201.06601
 20
82.166664
 30
0.0
 11
205.06601
 21
82.166664
 31
0.0
  0
LINE
  8
0
 10
201.06601
 20
84.504387
 30
0.0
 11
205.06601
 21
84.504387
 31
0.0
  0
LINE
  8
0
 10
200.06601
 20
92.166664
 30
0.0
 11
200.06601
 21
83.166664
 31
0.0
  0
LINE
  8
0
 62
     2
 10
201.06601
 20
90.828941
 30
0.0
 11
205.06601
 21
84.504387
 31
0.0
  0
LINE
  8
0
 62
     2
 10
201.06601
 20
84.504395
 30
0.0
 11
205.06601
 21
90.828941
 31
0.0
  0
LINE
  8
0
 10
182.56601
 20
95.460899
 30
0.0
 11
188.271774
 21
92.166672
 31
0.0
  0
LINE
  8
0
 10
182.30867
 20
95.015137
 30
0.0
 11
187.242355
 21
92.166672
 31
0.0
  0
LINE
  8
0
 10
188.271774
 20
83.166664
 30
0.0
 11
200.06601
 21
83.166664
 31
0.0
  0
LINE
  8
0
 10
182.565979
 20
79.872421
 30
0.0
 11
188.271759
 21
83.166649
 31
0.0
  0
LINE
  8
0
 10
182.30867
 20
80.318199
 30
0.0
 11
187.242371
 21
83.166672
 31
0.0
  0
LINE
  8
0
 10
187.24234
 20
92.166664
 30
0.0
 11
187.24234
 21
83.166664
 31
0.0
  0
LINE
  8
0
  6
CENTER
 62
     2
 10
230.06601
 20
97.666664
 30
0.0
 11
230.06601
 21
77.666664
 31
0.0
  0
LINE
  8
0
  6
CENTER
 62
     2
 10
235.981049
 20
87.666664
 30
0.0
 11
223.330978
 21
87.666664
 31
0.0
  0
LINE
  8
0
 10
234.56601
 20
90.828941
 30
0.0
 11
234.56601
 21
84.504387
 31
0.0
  0
LINE
  8
0
 10
225.56601
 20
90.828941
 30
0.0
 11
225.56601
 21
84.504387
 31
0.0
  0
LINE
  8
0
 10
233.06601
 20
96.151947
 30
0.0
 11
233.06601
 21
92.276436
 31
0.0
  0
LINE
  8
0
 10
227.06601
 20
96.151947
 30
0.0
 11
227.06601
 21
92.276436
 31
0.0
  0
LINE
  8
0
 10
227.06601
 20
79.181381
 30
0.0
 11
227.06601
 21
83.056892
 31
0.0
  0
LINE
  8
0
 10
233.06601
 20
79.181381
 30
0.0
 11
233.06601
 21
83.056892
 31
0.0
  0
LINE
  8
0
  6
CENTER
 62
     2
 10
139.201691
 20
97.666664
 30
0.0
 11
139.201691
 21
77.666664
 31
0.0
  0
LINE
  8
0
  6
CENTER
 62
     2
 10
134.451691
 20
87.666664
 30
0.0
 11
144.201691
 21
87.666664
 31
0.0
  0
LINE
  8
0
 10
142.201691
 20
96.151947
 30
0.0
 11
142.201691
 21
79.181381
 31
0.0
  0
LINE
  8
0
 10
136.201691
 20
96.151947
 30
0.0
 11
136.201691
 21
79.181381
 31
0.0
  0
LINE
  8
0
 10
142.201691
 20
96.151947
 30
0.0
 11
142.201691
 21
79.181381
 31
0.0
  0
LINE
  8
0
 10
136.201691
 20
96.151947
 30
0.0
 11
136.201691
 21
79.181381
 31
0.0
  0
LINE
  8
0
 10
143.201691
 20
91.52272
 30
0.0
 11
143.201691
 21
83.810616
 31
0.0
  0
LINE
  8
0
 10
135.201691
 20
91.52272
 30
0.0
 11
135.201691
 21
83.810616
 31
0.0
  0
LINE
  8
0
  6
DASHED
 62
     2
 10
135.201691
 20
90.166664
 30
0.0
 11
143.201691
 21
90.166664
 31
0.0
  0
LINE
  8
0
  6
DASHED
 62
     2
 10
135.201691
 20
85.166664
 30
0.0
 11
143.201691
 21
85.166664
 31
0.0
  0
LINE
  8
0
  6
CENTER
 62
     2
 10
-23.216995
 20
-80.759056
 30
0.0
 11
-23.216995
 21
-111.76696
 31
0.0
  0
LINE
  8
0
  6
CENTER
 62
     2
 10
-39.359325
 20
-96.333336
 30
0.0
 11
15.927101
 21
-96.333336
 31
0.0
  0
LINE
  8
0
 10
12.783005
 20
-88.333336
 30
0.0
 11
12.783005
 21
-104.333336
 31
0.0
  0
LINE
  8
0
 10
7.783005
 20
-88.333336
 30
0.0
 11
7.783005
 21
-92.460358
 31
0.0
  0
LINE
  8
0
 10
7.783005
 20
-88.333336
 30
0.0
 11
12.783005
 21
-88.333336
 31
0.0
  0
LINE
  8
0
 10
-10.042313
 20
-90.083336
 30
0.0
 11
6.033005
 21
-90.083336
 31
0.0
  0
LINE
  8
0
 10
6.032998
 20
-90.083344
 30
0.0
 11
7.782997
 21
-88.333344
 31
0.0
  0
LINE
  8
0
 10
6.033002
 20
-102.583336
 30
0.0
 11
7.783003
 21
-104.333336
 31
0.0
  0
LINE
  8
0
 10
7.783005
 20
-104.333336
 30
0.0
 11
12.783005
 21
-104.333336
 31
0.0
  0
LINE
  8
0
 10
6.033005
 20
-90.083336
 30
0.0
 11
6.033005
 21
-102.583336
 31
0.0
  0
LINE
  8
0
 10
7.783005
 20
-100.206322
 30
0.0
 11
7.783005
 21
-104.333336
 31
0.0
  0
LINE
  8
0
 10
7.783005
 20
-92.460358
 30
0.0
 11
12.783005
 21
-92.460358
 31
0.0
  0
LINE
  8
0
 10
7.783005
 20
-100.206322
 30
0.0
 11
12.783005
 21
-100.206322
 31
0.0
  0
LINE
  8
0
 62
     2
 10
7.783007
 20
-100.206329
 30
0.0
 11
12.783008
 21
-92.460365
 31
0.0
  0
LINE
  8
0
 62
     2
 10
7.783021
 20
-92.460358
 30
0.0
 11
12.783021
 21
-100.206322
 31
0.0
  0
LINE
  8
0
 10
-17.216993
 20
-85.941025
 30
0.0
 11
-10.04231
 21
-90.083328
 31
0.0
  0
LINE
  8
0
 10
-17.654848
 20
-86.699409
 30
0.0
 11
-11.793718
 21
-90.083336
 31
0.0
  0
LINE
  8
0
 10
-17.654839
 20
-105.967262
 30
0.0
 11
-11.793712
 21
-102.583344
 31
0.0
  0
LINE
  8
0
 10
-17.216997
 20
-106.725639
 30
0.0
 11
-10.042315
 21
-102.583336
 31
0.0
  0
LINE
  8
0
 10
-10.042313
 20
-102.583336
 30
0.0
 11
6.033005
 21
-102.583336
 31
0.0
  0
LINE
  8
0
 10
-11.793716
 20
-90.083336
 30
0.0
 11
-11.793716
 21
-102.583336
 31
0.0
  0
LINE
  8
0
  6
CENTER
 62
     2
 10
47.783005
 20
-80.363213
 30
0.0
 11
47.783005
 21
-111.76696
 31
0.0
  0
LINE
  8
0
  6
CENTER
 62
     2
 10
57.783005
 20
-96.333336
 30
0.0
 11
37.783005
 21
-96.333336
 31
0.0
  0
LINE
  8
0
 10
54.783005
 20
-92.460358
 30
0.0
 11
54.783005
 21
-100.206322
 31
0.0
  0
LINE
  8
0
 10
40.783005
 20
-92.460358
 30
0.0
 11
40.783005
 21
-100.206322
 31
0.0
  0
LINE
  8
0
 10
52.283005
 20
-85.209038
 30
0.0
 11
52.283005
 21
-89.718956
 31
0.0
  0
LINE
  8
0
 10
43.283005
 20
-85.209038
 30
0.0
 11
43.283005
 21
-89.718956
 31
0.0
  0
LINE
  8
0
 10
43.283005
 20
-107.457634
 30
0.0
 11
43.283005
 21
-102.947716
 31
0.0
  0
LINE
  8
0
 10
52.283005
 20
-107.457634
 30
0.0
 11
52.283005
 21
-102.947716
 31
0.0
  0
LINE
  8
0
  6
CENTER
 62
     2
 10
-57.581314
 20
-81.682693
 30
0.0
 11
-57.581314
 21
-111.107216
 31
0.0
  0
LINE
  8
0
  6
CENTER
 62
     2
 10
-65.747978
 20
-96.333336
 30
0.0
 11
-49.179909
 21
-96.333336
 31
0.0
  0
LINE
  8
0
 10
-51.581314
 20
-91.13681
 30
0.0
 11
-51.581314
 21
-101.529861
 31
0.0
  0
LINE
  8
0
 10
-63.581314
 20
-91.13681
 30
0.0
 11
-63.581314
 21
-101.529861
 31
0.0
  0
LINE
  8
0
 10
-53.081314
 20
-85.209038
 30
0.0
 11
-53.081314
 21
-107.457634
 31
0.0
  0
LINE
  8
0
 10
-62.081314
 20
-85.209038
 30
0.0
 11
-62.081314
 21
-107.457634
 31
0.0
  0
LINE
  8
0
  6
DASHED
 62
     2
 10
-63.581314
 20
-92.333336
 30
0.0
 11
-51.581314
 21
-92.333336
 31
0.0
  0
LINE
  8
0
  6
DASHED
 62
     2
 10
-63.581314
 20
-100.333336
 30
0.0
 11
-51.581314
 21
-100.333336
 31
0.0
  0
LINE
  8
0
  6
CENTER
 62
     2
 10
162.56601
 20
-77.824463
 30
0.0
 11
162.56601
 21
-114.994209
 31
0.0
  0
LINE
  8
0
  6
CENTER
 62
     2
 10
145.215836
 20
-96.333336
 30
0.0
 11
209.110931
 21
-96.333336
 31
0.0
  0
LINE
  8
0
 10
205.56601
 20
-86.833336
 30
0.0
 11
205.56601
 21
-105.833336
 31
0.0
  0
LINE
  8
0
 10
199.06601
 20
-86.833336
 30
0.0
 11
199.06601
 21
-92.090698
 31
0.0
  0
LINE
  8
0
 10
199.06601
 20
-86.833336
 30
0.0
 11
205.56601
 21
-86.833336
 31
0.0
  0
LINE
  8
0
 10
177.575623
 20
-88.833336
 30
0.0
 11
197.06601
 21
-88.833336
 31
0.0
  0
LINE
  8
0
 10
197.06601
 20
-88.833336
 30
0.0
 11
199.06601
 21
-86.833344
 31
0.0
  0
LINE
  8
0
 10
177.575638
 20
-103.833336
 30
0.0
 11
197.06601
 21
-103.833336
 31
0.0
  0
LINE
  8
0
 10
197.065994
 20
-103.833328
 30
0.0
 11
199.065994
 21
-105.833336
 31
0.0
  0
LINE
  8
0
 10
199.06601
 20
-105.833336
 30
0.0
 11
205.56601
 21
-105.833336
 31
0.0
  0
LINE
  8
0
 10
197.06601
 20
-88.833336
 30
0.0
 11
197.06601
 21
-103.833336
 31
0.0
  0
LINE
  8
0
 10
199.06601
 20
-100.575974
 30
0.0
 11
199.06601
 21
-105.833336
 31
0.0
  0
LINE
  8
0
 10
199.06601
 20
-92.090698
 30
0.0
 11
205.56601
 21
-92.090698
 31
0.0
  0
LINE
  8
0
 10
199.06601
 20
-100.575974
 30
0.0
 11
205.56601
 21
-100.575974
 31
0.0
  0
LINE
  8
0
 62
     2
 10
205.566025
 20
-92.090706
 30
0.0
 11
199.066025
 21
-100.575989
 31
0.0
  0
LINE
  8
0
 62
     2
 10
199.066055
 20
-92.090698
 30
0.0
 11
205.56604
 21
-100.575974
 31
0.0
  0
LINE
  8
0
 10
169.566025
 20
-84.208984
 30
0.0
 11
177.575638
 21
-88.833336
 31
0.0
  0
LINE
  8
0
 10
169.055191
 20
-85.093758
 30
0.0
 11
175.532333
 21
-88.833336
 31
0.0
  0
LINE
  8
0
 10
169.055191
 20
-107.572922
 30
0.0
 11
175.532349
 21
-103.833344
 31
0.0
  0
LINE
  8
0
 10
169.56601
 20
-108.457695
 30
0.0
 11
177.575623
 21
-103.833344
 31
0.0
  0
LINE
  8
0
 10
175.532318
 20
-88.833336
 30
0.0
 11
175.532318
 21
-103.833336
 31
0.0
  0
LINE
  8
0
  6
CENTER
 62
     2
 10
240.56601
 20
-77.766052
 30
0.0
 11
240.56601
 21
-113.414093
 31
0.0
  0
LINE
  8
0
  6
CENTER
 62
     2
 10
253.657471
 20
-96.333336
 30
0.0
 11
227.20372
 21
-96.333336
 31
0.0
  0
LINE
  8
0
 10
232.06601
 20
-92.090698
 30
0.0
 11
232.06601
 21
-100.575974
 31
0.0
  0
LINE
  8
0
 10
249.06601
 20
-92.090698
 30
0.0
 11
249.06601
 21
-100.575974
 31
0.0
  0
LINE
  8
0
 10
235.31601
 20
-83.354988
 30
0.0
 11
235.31601
 21
-88.415787
 31
0.0
  0
LINE
  8
0
 10
245.81601
 20
-83.354988
 30
0.0
 11
245.81601
 21
-88.415787
 31
0.0
  0
LINE
  8
0
 10
235.31601
 20
-109.311684
 30
0.0
 11
235.31601
 21
-104.250885
 31
0.0
  0
LINE
  8
0
 10
245.81601
 20
-109.311684
 30
0.0
 11
245.81601
 21
-104.250885
 31
0.0
  0
LINE
  8
0
  6
CENTER
 62
     2
 10
130.201691
 20
-79.513992
 30
0.0
 11
130.201691
 21
-112.6903
 31
0.0
  0
LINE
  8
0
  6
CENTER
 62
     2
 10
121.701691
 20
-96.333336
 30
0.0
 11
138.603088
 21
-96.333336
 31
0.0
  0
LINE
  8
0
 10
135.451691
 20
-83.354988
 30
0.0
 11
135.451691
 21
-109.311684
 31
0.0
  0
LINE
  8
0
 10
124.951691
 20
-83.354988
 30
0.0
 11
124.951691
 21
-109.311684
 31
0.0
  0
LINE
  8
0
 10
137.201691
 20
-89.873795
 30
0.0
 11
137.201691
 21
-102.792877
 31
0.0
  0
LINE
  8
0
 10
123.201691
 20
-89.873795
 30
0.0
 11
123.201691
 21
-102.792877
 31
0.0
  0
LINE
  8
0
  6
DASHED
 62
     2
 10
123.201691
 20
-91.333336
 30
0.0
 11
137.201691
 21
-91.333336
 31
0.0
  0
LINE
  8
0
  6
DASHED
 62
     2
 10
123.201691
 20
-101.333336
 30
0.0
 11
137.201691
 21
-101.333336
 31
0.0
  0
LINE
  8
0
  6
CENTER
 62
     2
 10
-240.364319
 20
-84.542152
 30
0.0
 11
-240.364319
 21
-108.211937
 31
0.0
  0
LINE
  8
0
  6
CENTER
 62
     2
 10
-246.114319
 20
-96.333336
 30
0.0
 11
-234.447647
 21
-96.333336
 31
0.0
  0
LINE
  8
0
 10
-235.864319
 20
-91.853104
 30
0.0
 11
-235.864319
 21
-100.813568
 31
0.0
  0
LINE
  8
0
 10
-244.864319
 20
-91.853104
 30
0.0
 11
-244.864319
 21
-100.813568
 31
0.0
  0
LINE
  8
0
 10
-237.014313
 20
-86.911156
 30
0.0
 11
-237.014313
 21
-105.755516
 31
0.0
  0
LINE
  8
0
 10
-243.714325
 20
-86.911156
 30
0.0
 11
-243.714325
 21
-105.755516
 31
0.0
  0
LINE
  8
0
  6
DASHED
 62
     2
 10
-244.864319
 20
-93.333336
 30
0.0
 11
-235.864319
 21
-93.333336
 31
0.0
  0
LINE
  8
0
  6
DASHED
 62
     2
 10
-244.864319
 20
-99.333336
 30
0.0
 11
-235.864319
 21
-99.333336
 31
0.0
  0
LINE
  8
0
  6
CENTER
 62
     2
 10
-200.0
 20
-85.309975
 30
0.0
 11
-200.0
 21
-108.944771
 31
0.0
  0
LINE
  8
0
  6
CENTER
 62
     2
 10
-211.849274
 20
-96.333336
 30
0.0
 11
-168.375931
 21
-96.333336
 31
0.0
  0
LINE
  8
0
 10
-170.0
 20
-89.833336
 30
0.0
 11
-170.0
 21
-102.833336
 31
0.0
  0
LINE
  8
0
 10
-175.0
 20
-89.833336
 30
0.0
 11
-170.0
 21
-89.833336
 31
0.0
  0
LINE
  8
0
 10
-175.0
 20
-89.833336
 30
0.0
 11
-175.0
 21
-92.869232
 31
0.0
  0
LINE
  8
0
 10
-188.660248
 20
-91.333336
 30
0.0
 11
-176.5
 21
-91.333336
 31
0.0
  0
LINE
  8
0
 10
-176.5
 20
-91.333336
 30
0.0
 11
-175.0
 21
-89.833328
 31
0.0
  0
LINE
  8
0
 10
-176.500031
 20
-101.333359
 30
0.0
 11
-175.000031
 21
-102.833351
 31
0.0
  0
LINE
  8
0
 10
-175.0
 20
-102.833336
 30
0.0
 11
-170.0
 21
-102.833336
 31
0.0
  0
LINE
  8
0
 10
-175.0
 20
-99.79744
 30
0.0
 11
-175.0
 21
-102.833336
 31
0.0
  0
LINE
  8
0
 10
-176.5
 20
-101.333336
 30
0.0
 11
-176.5
 21
-91.333336
 31
0.0
  0
LINE
  8
0
 10
-175.0
 20
-92.869232
 30
0.0
 11
-170.0
 21
-92.869232
 31
0.0
  0
LINE
  8
0
 10
-175.0
 20
-99.79744
 30
0.0
 11
-170.0
 21
-99.79744
 31
0.0
  0
LINE
  8
0
 62
     2
 10
-175.0
 20
-99.797447
 30
0.0
 11
-170.0
 21
-92.86924
 31
0.0
  0
LINE
  8
0
 62
     2
 10
-175.0
 20
-92.86924
 30
0.0
 11
-170.0
 21
-99.79744
 31
0.0
  0
LINE
  8
0
 10
-195.0
 20
-87.67308
 30
0.0
 11
-188.660263
 21
-91.333336
 31
0.0
  0
LINE
  8
0
 10
-195.288925
 20
-88.173485
 30
0.0
 11
-189.815903
 21
-91.333336
 31
0.0
  0
LINE
  8
0
 10
-195.0
 20
-104.993591
 30
0.0
 11
-188.660248
 21
-101.333336
 31
0.0
  0
LINE
  8
0
 10
-195.28891
 20
-104.493179
 30
0.0
 11
-189.815903
 21
-101.333344
 31
0.0
  0
LINE
  8
0
 10
-188.660248
 20
-101.333336
 30
0.0
 11
-176.5
 21
-101.333336
 31
0.0
  0
LINE
  8
0
 10
-189.815887
 20
-91.333336
 30
0.0
 11
-189.815887
 21
-101.333336
 31
0.0
  0
LINE
  8
0
  6
CENTER
 62
     2
 10
-145.0
 20
-85.126282
 30
0.0
 11
-145.0
 21
-107.903862
 31
0.0
  0
LINE
  8
0
  6
CENTER
 62
     2
 10
-138.485931
 20
-96.333336
 30
0.0
 11
-151.735031
 21
-96.333336
 31
0.0
  0
LINE
  8
0
 10
-139.5
 20
-92.869232
 30
0.0
 11
-139.5
 21
-99.79744
 31
0.0
  0
LINE
  8
0
 10
-150.5
 20
-92.869232
 30
0.0
 11
-150.5
 21
-99.79744
 31
0.0
  0
LINE
  8
0
 10
-141.649994
 20
-86.911156
 30
0.0
 11
-141.649994
 21
-90.7631
 31
0.0
  0
LINE
  8
0
 10
-148.350006
 20
-86.911156
 30
0.0
 11
-148.350006
 21
-90.7631
 31
0.0
  0
LINE
  8
0
 10
-148.350006
 20
-105.755516
 30
0.0
 11
-148.350006
 21
-101.903572
 31
0.0
  0
LINE
  8
0
 10
-141.649994
 20
-105.755516
 30
0.0
 11
-141.649994
 21
-101.903572
 31
0.0
  0
CIRCLE
  8
0
 10
-193.999985
 20
87.666649
 30
0.0
 40
1.5
  0
ARC
  8
0
 10
-193.999985
 20
87.666649
 30
0.0
 40
7.000001
 50
60.000008
 51
300.0
  0
CIRCLE
  8
0
 10
-193.999985
 20
87.666649
 30
0.0
 40
3.969
  0
ARC
  8
0
 10
-193.999985
 20
87.666649
 30
0.0
 40
6.628535
 50
59.999977
 51
300.000031
  0
CIRCLE
  8
0
 10
-193.999985
 20
87.666649
 30
0.0
 40
2.598646
  0
ARC
  8
0
 10
-174.874985
 20
87.666649
 30
0.0
 40
2.875001
 50
137.657379
 51
222.342621
  0
CIRCLE
  8
0
 10
-193.999985
 20
87.666649
 30
0.0
 40
5.0
  0
ARC
  8
0
 10
-193.109314
 20
87.666649
 30
0.0
 40
7.480171
 50
334.24765
 51
25.752342
  0
ARC
  8
0
 10
-134.999954
 20
82.666664
 30
0.0
 40
6.999996
 50
71.250648
 51
108.749329
  0
ARC
  8
0
 10
-134.999954
 20
82.666664
 30
0.0
 40
6.999996
 50
251.250641
 51
288.749329
  0
ARC
  8
0
 10
-134.999954
 20
82.666664
 30
0.0
 40
4.0
 50
28.95504
 51
151.044952
  0
ARC
  8
0
 10
-134.999954
 20
82.666664
 30
0.0
 40
4.0
 50
208.955048
 51
331.044952
  0
CIRCLE
  8
0
 10
-134.999954
 20
82.666664
 30
0.0
 40
1.5
  0
CIRCLE
  8
0
 10
-134.999954
 20
82.666664
 30
0.0
 40
1.0
  0
ARC
  8
0
 10
-240.364319
 20
87.666664
 30
0.0
 40
3.969001
 50
40.899635
 51
55.466148
  0
ARC
  8
0
 10
-240.364319
 20
87.666664
 30
0.0
 40
7.000003
 50
71.250671
 51
108.749352
  0
ARC
  8
0
 10
-240.364319
 20
87.666664
 30
0.0
 40
3.969001
 50
220.899628
 51
235.466095
  0
ARC
  8
0
 10
-240.364319
 20
87.666664
 30
0.0
 40
3.969003
 50
304.533844
 51
319.100372
  0
ARC
  8
0
 10
-240.364319
 20
87.666664
 30
0.0
 40
3.968997
 50
124.533913
 51
139.100372
  0
ARC
  8
0
 10
-240.364319
 20
87.666664
 30
0.0
 40
6.999996
 50
251.250641
 51
288.749359
  0
ARC
  8
0
 10
-4.216995
 20
87.666664
 30
0.0
 40
7.999997
 50
59.999989
 51
300.0
  0
ARC
  8
0
 10
-4.216995
 20
87.666664
 30
0.0
 40
7.565714
 50
60.000011
 51
300.0
  0
CIRCLE
  8
0
 10
-4.216995
 20
87.666664
 30
0.0
 40
2.0
  0
CIRCLE
  8
0
 10
-4.216995
 20
87.666664
 30
0.0
 40
3.229769
  0
CIRCLE
  8
0
 10
-4.216995
 20
87.666664
 30
0.0
 40
5.0
  0
ARC
  8
0
 10
20.283005
 20
87.666664
 30
0.0
 40
5.000001
 50
143.130112
 51
216.869888
  0
CIRCLE
  8
0
 10
-4.216995
 20
87.666664
 30
0.0
 40
6.25
  0
ARC
  8
0
 10
-4.789963
 20
87.666664
 30
0.0
 40
9.644763
 50
335.497498
 51
24.502493
  0
CIRCLE
  8
0
 62
     2
 10
50.783005
 20
87.666664
 30
0.0
 40
2.0
  0
CIRCLE
  8
0
 10
50.783005
 20
87.666664
 30
0.0
 40
1.3
  0
ARC
  8
0
 10
50.783005
 20
87.666664
 30
0.0
 40
5.0
 50
36.869896
 51
143.130096
  0
ARC
  8
0
 10
50.783005
 20
87.666664
 30
0.0
 40
8.0
 50
71.034431
 51
108.965591
  0
ARC
  8
0
 10
50.783005
 20
87.666664
 30
0.0
 40
5.0
 50
216.869904
 51
323.130096
  0
ARC
  8
0
 10
50.783005
 20
87.666664
 30
0.0
 40
8.000001
 50
251.034409
 51
288.965576
  0
ARC
  8
0
 10
-49.581314
 20
87.666664
 30
0.0
 40
8.0
 50
71.034431
 51
108.965591
  0
ARC
  8
0
 10
-49.581314
 20
87.666664
 30
0.0
 40
4.762499
 50
42.700527
 51
56.911671
  0
ARC
  8
0
 10
-49.581314
 20
87.666664
 30
0.0
 40
8.000001
 50
251.034409
 51
288.965576
  0
ARC
  8
0
 10
-49.581314
 20
87.666664
 30
0.0
 40
4.762499
 50
222.700531
 51
236.911636
  0
ARC
  8
0
 10
-49.581314
 20
87.666664
 30
0.0
 40
4.762501
 50
303.088318
 51
317.299469
  0
ARC
  8
0
 10
-49.581314
 20
87.666664
 30
0.0
 40
4.762503
 50
123.088371
 51
137.299469
  0
CIRCLE
  8
0
 10
178.06601
 20
87.666664
 30
0.0
 40
2.5
  0
CIRCLE
  8
0
 10
178.06601
 20
87.666664
 30
0.0
 40
3.856052
  0
CIRCLE
  8
0
 10
178.06601
 20
87.666664
 30
0.0
 40
5.631749
  0
ARC
  8
0
 10
178.06601
 20
87.666664
 30
0.0
 40
8.485287
 50
59.999985
 51
299.999939
  0
ARC
  8
0
 10
178.06601
 20
87.666664
 30
0.0
 40
8.999999
 50
59.999996
 51
300.0
  0
ARC
  8
0
 10
205.56601
 20
87.666664
 30
0.0
 40
5.5
 50
144.903198
 51
215.096802
  0
CIRCLE
  8
0
 10
178.06601
 20
87.666664
 30
0.0
 40
7.0
  0
ARC
  8
0
 10
177.9216
 20
87.666664
 30
0.0
 40
10.350178
 50
334.229004
 51
25.770985
  0
ARC
  8
0
 10
230.06601
 20
87.666664
 30
0.0
 40
5.5
 50
35.096798
 51
144.903198
  0
ARC
  8
0
 10
230.06601
 20
87.666664
 30
0.0
 40
9.000002
 50
70.528786
 51
109.471214
  0
ARC
  8
0
 10
230.06601
 20
87.666664
 30
0.0
 40
5.5
 50
215.096802
 51
324.903198
  0
CIRCLE
  8
0
 62
     2
 10
230.06601
 20
87.666664
 30
0.0
 40
2.5
  0
CIRCLE
  8
0
 10
230.06601
 20
87.666664
 30
0.0
 40
1.8
  0
ARC
  8
0
 10
230.06601
 20
87.666664
 30
0.0
 40
9.000002
 50
250.528778
 51
289.471222
  0
ARC
  8
0
 10
139.201691
 20
87.666664
 30
0.0
 40
9.000002
 50
70.528786
 51
109.471214
  0
ARC
  8
0
 10
139.201691
 20
87.666664
 30
0.0
 40
5.555998
 50
43.950249
 51
57.319302
  0
ARC
  8
0
 10
139.201691
 20
87.666664
 30
0.0
 40
5.555998
 50
223.950256
 51
237.319305
  0
ARC
  8
0
 10
139.201691
 20
87.666664
 30
0.0
 40
9.000002
 50
250.528778
 51
289.471222
  0
ARC
  8
0
 10
139.201691
 20
87.666664
 30
0.0
 40
5.556
 50
302.680695
 51
316.049744
  0
ARC
  8
0
 10
139.201691
 20
87.666664
 30
0.0
 40
5.556
 50
122.680695
 51
136.049744
  0
CIRCLE
  8
0
 10
-23.216995
 20
-96.333336
 30
0.0
 40
4.0
  0
CIRCLE
  8
0
 10
-23.216995
 20
-96.333336
 30
0.0
 40
5.196529
  0
ARC
  8
0
 10
-23.216995
 20
-96.333336
 30
0.0
 40
11.124299
 50
60.000004
 51
299.999969
  0
ARC
  8
0
 10
-23.216995
 20
-96.333336
 30
0.0
 40
11.999999
 50
59.999996
 51
300.0
  0
CIRCLE
  8
0
 10
-23.216995
 20
-96.333336
 30
0.0
 40
7.5
  0
CIRCLE
  8
0
 10
-23.216995
 20
-96.333336
 30
0.0
 40
9.5
  0
ARC
  8
0
 10
11.193718
 20
-96.333336
 30
0.0
 40
5.160711
 50
131.368561
 51
228.631424
  0
ARC
  8
0
 10
-22.069782
 20
-96.333336
 30
0.0
 40
12.027472
 50
328.69162
 51
31.308355
  0
CIRCLE
  8
0
 62
     2
 10
47.783005
 20
-96.333336
 30
0.0
 40
4.0
  0
CIRCLE
  8
0
 10
47.783005
 20
-96.333336
 30
0.0
 40
3.0
  0
ARC
  8
0
 10
47.783005
 20
-96.333336
 30
0.0
 40
12.0
 50
67.975685
 51
112.02433
  0
ARC
  8
0
 10
47.783005
 20
-96.333336
 30
0.0
 40
7.999998
 50
208.954987
 51
331.044952
  0
ARC
  8
0
 10
47.783005
 20
-96.333336
 30
0.0
 40
8.000001
 50
28.95504
 51
151.045013
  0
ARC
  8
0
 10
47.783005
 20
-96.333336
 30
0.0
 40
12.000002
 50
247.975677
 51
292.024323
  0
ARC
  8
0
 10
-57.581314
 20
-96.333336
 30
0.0
 40
12.0
 50
67.975685
 51
112.02433
  0
ARC
  8
0
 10
-57.581314
 20
-96.333336
 30
0.0
 40
7.937498
 50
40.895432
 51
55.463654
  0
ARC
  8
0
 10
-57.581314
 20
-96.333336
 30
0.0
 40
7.937498
 50
220.895432
 51
235.463593
  0
ARC
  8
0
 10
-57.581314
 20
-96.333336
 30
0.0
 40
7.937503
 50
304.536346
 51
319.104523
  0
ARC
  8
0
 10
-57.581314
 20
-96.333336
 30
0.0
 40
7.937499
 50
124.5364
 51
139.104568
  0
ARC
  8
0
 10
-57.581314
 20
-96.333336
 30
0.0
 40
11.999999
 50
247.975601
 51
292.024261
  0
CIRCLE
  8
0
 10
162.56601
 20
-96.333336
 30
0.0
 40
5.0
  0
CIRCLE
  8
0
 10
162.56601
 20
-96.333336
 30
0.0
 40
6.459538
  0
ARC
  8
0
 10
162.56601
 20
-96.333336
 30
0.0
 40
12.978351
 50
59.999969
 51
299.999969
  0
CIRCLE
  8
0
 10
162.56601
 20
-96.333336
 30
0.0
 40
8.5
  0
CIRCLE
  8
0
 10
162.56601
 20
-96.333336
 30
0.0
 40
10.5
  0
ARC
  8
0
 10
162.56601
 20
-96.333336
 30
0.0
 40
14.000003
 50
60.000008
 51
300.0
  0
ARC
  8
0
 10
202.56601
 20
-96.333336
 30
0.0
 40
5.499998
 50
129.52121
 51
230.47879
  0
ARC
  8
0
 10
162.789505
 20
-96.333336
 30
0.0
 40
14.786118
 50
329.520325
 51
30.479666
  0
CIRCLE
  8
0
 62
     2
 10
240.56601
 20
-96.333336
 30
0.0
 40
5.0
  0
CIRCLE
  8
0
 10
240.56601
 20
-96.333336
 30
0.0
 40
4.0
  0
ARC
  8
0
 10
240.56601
 20
-96.333336
 30
0.0
 40
9.500002
 50
26.525377
 51
153.47467
  0
ARC
  8
0
 10
240.56601
 20
-96.333336
 30
0.0
 40
14.0
 50
67.975685
 51
112.024315
  0
ARC
  8
0
 10
240.56601
 20
-96.333336
 30
0.0
 40
9.499999
 50
206.52533
 51
333.474609
  0
ARC
  8
0
 10
240.56601
 20
-96.333336
 30
0.0
 40
14.0
 50
247.975693
 51
292.024323
  0
ARC
  8
0
 10
130.201691
 20
-96.333336
 30
0.0
 40
14.0
 50
67.975685
 51
112.024315
  0
ARC
  8
0
 10
130.201691
 20
-96.333336
 30
0.0
 40
9.524998
 50
42.700527
 51
56.551926
  0
ARC
  8
0
 10
130.201691
 20
-96.333336
 30
0.0
 40
14.0
 50
247.975693
 51
292.024323
  0
ARC
  8
0
 10
130.201691
 20
-96.333336
 30
0.0
 40
9.524998
 50
222.700531
 51
236.551895
  0
ARC
  8
0
 10
130.201691
 20
-96.333336
 30
0.0
 40
9.525002
 50
303.448059
 51
317.299469
  0
ARC
  8
0
 10
130.201691
 20
-96.333336
 30
0.0
 40
9.524995
 50
123.448097
 51
137.299469
  0
ARC
  8
0
 10
-240.364319
 20
-96.333336
 30
0.0
 40
9.999996
 50
70.427513
 51
109.572571
  0
ARC
  8
0
 10
-240.364319
 20
-96.333336
 30
0.0
 40
6.349998
 50
44.873878
 51
58.159382
  0
ARC
  8
0
 10
-240.364319
 20
-96.333336
 30
0.0
 40
10.000001
 50
250.427429
 51
289.572479
  0
ARC
  8
0
 10
-240.364319
 20
-96.333336
 30
0.0
 40
6.350002
 50
121.840736
 51
135.126129
  0
ARC
  8
0
 10
-240.364319
 20
-96.333336
 30
0.0
 40
6.349994
 50
301.840607
 51
315.126129
  0
ARC
  8
0
 10
-240.364319
 20
-96.333336
 30
0.0
 40
6.349998
 50
224.873871
 51
238.159271
  0
ARC
  8
0
 10
-200.0
 20
-96.333336
 30
0.0
 40
10.000001
 50
60.000004
 51
300.0
  0
ARC
  8
0
 10
-171.75
 20
-96.333336
 30
0.0
 40
4.750001
 50
133.173538
 51
226.826462
  0
CIRCLE
  8
0
 10
-200.0
 20
-96.333336
 30
0.0
 40
3.0
  0
ARC
  8
0
 10
-200.0
 20
-96.333336
 30
0.0
 40
9.422183
 50
60.000011
 51
300.0
  0
CIRCLE
  8
0
 10
-200.0
 20
-96.333336
 30
0.0
 40
4.480234
  0
CIRCLE
  8
0
 10
-200.0
 20
-96.333336
 30
0.0
 40
5.994443
  0
CIRCLE
  8
0
 10
-200.0
 20
-96.333336
 30
0.0
 40
7.422182
  0
ARC
  8
0
 10
-200.054626
 20
-96.333336
 30
0.0
 40
11.394375
 50
333.971832
 51
26.028172
  0
ARC
  8
0
 10
-145.0
 20
-96.333336
 30
0.0
 40
6.500001
 50
32.204243
 51
147.795761
  0
ARC
  8
0
 10
-145.0
 20
-96.333336
 30
0.0
 40
9.999996
 50
70.427513
 51
109.572571
  0
ARC
  8
0
 10
-145.0
 20
-96.333336
 30
0.0
 40
6.500001
 50
212.204239
 51
327.795746
  0
CIRCLE
  8
0
 62
     2
 10
-145.0
 20
-96.333336
 30
0.0
 40
3.0
  0
CIRCLE
  8
0
 10
-145.0
 20
-96.333336
 30
0.0
 40
2.0
  0
ARC
  8
0
 10
-145.0
 20
-96.333336
 30
0.0
 40
10.000001
 50
250.427429
 51
289.572479
  0
TEXT
  8
0
 10
174.200241
 20
180.830002
 30
0.0
 40
6.3
  1
DATE: AUG ,1994
 41
1.052632
  0
TEXT
  8
0
 10
167.564667
 20
-192.100006
 30
0.0
 40
9.0
  1
KOGANEI CORP.
 41
1.052632
  0
TEXT
  8
0
 10
-269.149719
 20
180.830002
 30
0.0
 40
6.3
  1
CYLINDER RODEND
 41
1.052632
  0
TEXT
  8
0
 10
105.516289
 20
154.830002
 30
0.0
 40
6.3
  1
MODEL:CRE-5X0.8
 41
1.052632
  0
TEXT
  8
0
 10
-270.049713
 20
154.830002
 30
0.0
 40
6.3
  1
MODEL:CRE-3X0.5
 41
1.052632
  0
TEXT
  8
0
 10
-82.266716
 20
154.830002
 30
0.0
 40
6.3
  1
MODEL:CRE-4X0.7
 41
1.052632
  0
TEXT
  8
0
 10
-270.049713
 20
-5.170001
 30
0.0
 40
6.3
  1
MODEL:CRE-6X1
 41
1.052632
  0
TEXT
  8
0
 10
-82.266716
 20
-5.170001
 30
0.0
 40
6.3
  1
MODEL:CRE-8X1
 41
1.052632
  0
TEXT
  8
0
 10
105.516289
 20
-5.170001
 30
0.0
 40
6.3
  1
MODEL:CRE-10X1.25
 41
1.052632
  0
ENDSEC
  0
EOF
