  0
SECTION
  2
HEADER
  0
ENDSEC
  0
SECTION
  2
TABLES
  0
TABLE
  2
LTYPE
 70
     4
  0
LTYPE
  2
CONTINUOUS
 70
    64
  3
Solid line
 72
    65
 73
     0
 40
0.000000
  0
LTYPE
  2
DASHED
 70
    64
  3
__ __ __ __ __ __ __ __ __ __ __ __ __ __ __
 72
    65
 73
     2
 40
3.500000
 49
2.000000
 49
-1.500000
  0
LTYPE
  2
CENTER
 70
    64
  3
____ _ ____ _ ____ _ ____ _ ____ _ ____ _ ____
 72
    65
 73
     4
 40
17.500000
 49
13.000000
 49
-1.500000
 49
1.500000
 49
-1.500000
  0
LTYPE
  2
PHANTOM
 70
    64
  3
_____ _ _ _____ _ _ _____ _ _ _____ _ _ ____  
 72
    65
 73
     6
 40
15.500000
 49
8.000000
 49
-1.500000
 49
1.500000
 49
-1.500000
 49
1.500000
 49
-1.500000
  0
LTYPE
  2
DASHED1
 70
    64
  3
__ __ __ __ __ __ __ __ __ __ __ __ __ __ __
 72
    65
 73
     2
 40
1.500000
 49
1.000000
 49
-0.500000
  0
LTYPE
  2
DASHED2
 70
    64
  3
__ __ __ __ __ __ __ __ __ __ __ __ __ __ __
 72
    65
 73
     2
 40
3.500000
 49
2.500000
 49
-1.000000
  0
LTYPE
  2
DASHED3
 70
    64
  3
__ __ __ __ __ __ __ __ __ __ __ __ __ __ __
 72
    65
 73
     2
 40
6.000000
 49
4.000000
 49
-2.000000
  0
LTYPE
  2
DASHED4
 70
    64
  3
__ __ __ __ __ __ __ __ __ __ __ __ __ __ __
 72
    65
 73
     2
 40
12.000000
 49
10.000000
 49
-2.000000
  0
LTYPE
  2
DASHED5
 70
    64
  3
__ __ __ __ __ __ __ __ __ __ __ __ __ __ __
 72
    65
 73
     2
 40
17.000000
 49
15.000000
 49
-2.000000
  0
LTYPE
  2
DASHED6
 70
    64
  3
__ __ __ __ __ __ __ __ __ __ __ __ __ __ __
 72
    65
 73
     2
 40
29.000000
 49
27.000000
 49
-2.000000
  0
LTYPE
  2
PHANTOM1
 70
    64
  3
_____ _ _ _____ _ _ _____ _ _ _____ _ _ ____  
 72
    65
 73
     6
 40
31.000000
 49
25.000000
 49
-1.500000
 49
1.000000
 49
-1.000000
 49
1.000000
 49
-1.500000
  0
LTYPE
  2
PHANTOM2
 70
    64
  3
_____ _ _ _____ _ _ _____ _ _ _____ _ _ ____  
 72
    65
 73
     6
 40
36.000000
 49
27.000000
 49
-1.500000
 49
2.500000
 49
-1.000000
 49
2.500000
 49
-1.500000
  0
LTYPE
  2
PHANTOM3
 70
    64
  3
_____ _ _ _____ _ _ _____ _ _ _____ _ _ ____  
 72
    65
 73
     6
 40
78.000000
 49
64.000000
 49
-2.000000
 49
4.000000
 49
-2.000000
 49
4.000000
 49
-2.000000
  0
LTYPE
  2
CENTER1
 70
    64
  3
____ _ ____ _ ____ _ ____ _ ____ _ ____ _ ____
 72
    65
 73
     4
 40
19.000000
 49
14.000000
 49
-1.000000
 49
3.000000
 49
-1.000000
  0
LTYPE
  2
CENTER2
 70
    64
  3
____ _ ____ _ ____ _ ____ _ ____ _ ____ _ ____
 72
    65
 73
     4
 40
28.500000
 49
25.000000
 49
-1.000000
 49
1.500000
 49
-1.000000
  0
LTYPE
  2
CENTER3
 70
    64
  3
____ _ ____ _ ____ _ ____ _ ____ _ ____ _ ____
 72
    65
 73
     4
 40
31.500000
 49
27.000000
 49
-1.000000
 49
2.500000
 49
-1.000000
  0
LTYPE
  2
CENTER4
 70
    64
  3
____ _ ____ _ ____ _ ____ _ ____ _ ____ _ ____
 72
    65
 73
     4
 40
50.000000
 49
45.000000
 49
-1.000000
 49
3.000000
 49
-1.000000
  0
LTYPE
  2
CENTER5
 70
    64
  3
____ _ ____ _ ____ _ ____ _ ____ _ ____ _ ____
 72
    65
 73
     4
 40
100.000000
 49
92.000000
 49
-2.000000
 49
4.000000
 49
-2.000000
  0
LTYPE
  2
SBK1
 70
    64
  3
______ _ _ _ ______ _ _ _ ______ _ _ _ _____  
 72
    65
 73
     8
 40
60.500000
 49
45.000000
 49
-2.000000
 49
2.500000
 49
-2.000000
 49
2.500000
 49
-2.000000
 49
2.500000
 49
-2.000000
  0
LTYPE
  2
SBK2
 70
    64
  3
______ _ _ _ ______ _ _ _ ______ _ _ _ _____  
 72
    65
 73
     8
 40
84.000000
 49
64.000000
 49
-2.000000
 49
4.000000
 49
-2.000000
 49
4.000000
 49
-2.000000
 49
4.000000
 49
-2.000000
  0
LTYPE
  2
STCH
 70
    64
  3
__ __ __ __ __ __ __ __ __ __ __ __ __ __ __
 72
    65
 73
     2
 40
3.000000
 49
1.000000
 49
-2.000000
  0
LTYPE
  2
MTCH
 70
    64
  3
_____ _ _ _____ _ _ _____ _ _ _____ _ _ ____  
 72
    65
 73
     6
 40
80.000000
 49
66.000000
 49
-2.000000
 49
4.000000
 49
-2.000000
 49
4.000000
 49
-2.000000
  0
ENDTAB
  0
TABLE
  2
LAYER
 70
     1
  0
LAYER
  2
0
 70
     0
 62
     7
  6
CONTINUOUS
  0
ENDTAB
  0
TABLE
  2
STYLE
 70
     1
  0
STYLE
  2
STANDARD
 70
     0
 40
0.000000
 41
1.000000
 50
0.000000
 71
     0
 42
0.200000
  3
txt
  4
BIGFONT
  0
ENDTAB
  0
TABLE
  2
VIEW
 70
     0
  0
ENDTAB
  0
ENDSEC
  0
SECTION
  2
BLOCKS
  0
ENDSEC
  0
SECTION
  2
ENTITIES
  0
LINE
  8
0
  6
CENTER
 62
     1
 10
-91.332611
 20
-21.572418
 11
-69.332611
 21
-21.572418
  0
LINE
  8
0
 62
     4
 10
-88.332611
 20
-25.432426
 11
-80.332611
 21
-11.572424
  0
LINE
  8
0
 62
     4
 10
-80.332611
 20
-11.572418
 11
-72.332611
 21
-11.572418
  0
LINE
  8
0
 62
     4
 10
-88.332611
 20
-66.572418
 11
-72.332611
 21
-66.572418
  0
LINE
  8
0
 62
     4
 10
-72.332611
 20
-11.572418
 11
-72.332611
 21
-66.572418
  0
LINE
  8
0
 62
     4
 10
-88.332611
 20
-25.432419
 11
-88.332611
 21
-66.572418
  0
LINE
  8
0
  6
CENTER
 62
     1
 10
-91.332611
 20
-56.572418
 11
-65.943825
 21
-56.572418
  0
LINE
  8
0
 62
     4
 10
-155.222610
 20
-58.312420
 11
-152.222610
 21
-60.042416
  0
LINE
  8
0
 62
     4
 10
-152.222610
 20
-53.112419
 11
-149.222610
 21
-54.842419
  0
LINE
  8
0
 62
     4
 10
-152.222595
 20
-60.042412
 11
-149.222610
 21
-58.312412
  0
LINE
  8
0
 62
     4
 10
-155.222595
 20
-54.842415
 11
-152.222610
 21
-53.112419
  0
LINE
  8
0
 62
     4
 10
-149.222610
 20
-54.842419
 11
-149.222610
 21
-58.312416
  0
LINE
  8
0
 62
     4
 10
-155.222610
 20
-54.842419
 11
-155.222610
 21
-58.312416
  0
LINE
  8
0
  6
CENTER
 62
     1
 10
-156.722610
 20
-21.572418
 11
-147.722610
 21
-21.572418
  0
LINE
  8
0
 62
     4
 10
-160.222610
 20
-25.432419
 11
-144.222610
 21
-25.432419
  0
LINE
  8
0
 62
     4
 10
-144.222610
 20
-11.572418
 11
-144.222610
 21
-66.572418
  0
LINE
  8
0
 62
     4
 10
-160.222610
 20
-11.572418
 11
-144.222610
 21
-11.572418
  0
LINE
  8
0
 62
     4
 10
-160.222610
 20
-11.572418
 11
-160.222610
 21
-66.572418
  0
LINE
  8
0
 62
     4
 10
-160.222610
 20
-66.572418
 11
-144.222610
 21
-66.572418
  0
LINE
  8
0
  6
CENTER
 62
     1
 10
-166.683395
 20
-56.572418
 11
-138.009415
 21
-56.572418
  0
LINE
  8
0
  6
CENTER
 62
     1
 10
-152.222610
 20
-8.572418
 11
-152.222610
 21
-75.687820
  0
LINE
  8
0
  6
CENTER
 62
     2
 10
120.000000
 20
53.399994
 11
120.000000
 21
45.399994
  0
LINE
  8
0
  6
CENTER
 62
     2
 10
146.000000
 20
53.399994
 11
146.000000
 21
45.399994
  0
LINE
  8
0
  6
CENTER
 62
     2
 10
126.000000
 20
62.399994
 11
140.000000
 21
62.399994
  0
LINE
  8
0
  6
CENTER
 62
     2
 10
126.000000
 20
36.399994
 11
140.000000
 21
36.399994
  0
LINE
  8
0
  6
CENTER
 62
     2
 10
133.000000
 20
77.399994
 11
133.000000
 21
21.399994
  0
LINE
  8
0
  6
CENTER
 62
     2
 10
105.000015
 20
49.399994
 11
161.000000
 21
49.399994
  0
LINE
  8
0
  6
CENTER
 62
     2
 10
-179.999985
 20
49.399994
 11
-123.999985
 21
49.399994
  0
LINE
  8
0
  6
CENTER
 62
     2
 10
-151.999985
 20
77.399994
 11
-151.999985
 21
21.399994
  0
LINE
  8
0
 62
     2
 10
-138.999985
 20
67.399994
 11
-138.999985
 21
57.399994
  0
LINE
  8
0
  6
CENTER
 62
     2
 10
-169.999985
 20
62.399994
 11
-159.999985
 21
62.399994
  0
LINE
  8
0
  6
CENTER
 62
     2
 10
-164.999985
 20
67.399994
 11
-164.999985
 21
57.399994
  0
LINE
  8
0
  6
CENTER
 62
     2
 10
-169.999985
 20
36.399994
 11
-159.999985
 21
36.399994
  0
LINE
  8
0
 10
-145.999985
 20
54.689995
 11
-145.999985
 21
44.099995
  0
LINE
  8
0
 10
-157.999985
 20
54.689995
 11
-157.999985
 21
44.099995
  0
LINE
  8
0
  6
CENTER
 62
     2
 10
-138.999985
 20
41.399994
 11
-138.999985
 21
31.399994
  0
LINE
  8
0
  6
CENTER
 62
     2
 10
-143.999985
 20
36.399994
 11
-133.999985
 21
36.399994
  0
LINE
  8
0
  6
CENTER
 62
     2
 10
-164.999985
 20
41.399994
 11
-164.999985
 21
31.399994
  0
LINE
  8
0
 62
     2
 10
-143.999985
 20
62.399994
 11
-133.999985
 21
62.399994
  0
LINE
  8
0
 10
-82.609985
 20
74.399994
 11
-82.609985
 21
24.399994
  0
LINE
  8
0
 10
-70.609985
 20
74.399994
 11
-70.609985
 21
24.399994
  0
LINE
  8
0
  6
CENTER
 62
     2
 10
-77.609985
 20
56.079994
 11
-77.609985
 21
42.979996
  0
LINE
  8
0
 62
     2
 10
-93.609985
 20
44.099995
 11
-98.609985
 21
54.689999
  0
LINE
  8
0
 62
     2
 10
-93.609985
 20
54.689995
 11
-98.609985
 21
44.099995
  0
LINE
  8
0
 10
-98.109985
 20
44.099995
 11
-98.109985
 21
41.399994
  0
LINE
  8
0
 10
-98.609985
 20
44.099995
 11
-93.609985
 21
44.099995
  0
LINE
  8
0
 10
-98.609985
 20
54.689995
 11
-93.609985
 21
54.689995
  0
LINE
  8
0
 10
-93.609985
 20
54.689995
 11
-93.609985
 21
44.099995
  0
LINE
  8
0
 10
-98.109985
 20
57.399994
 11
-98.109985
 21
54.689995
  0
LINE
  8
0
 10
-98.609985
 20
41.899994
 11
-98.109985
 21
41.399994
  0
LINE
  8
0
 10
-98.109978
 20
57.399990
 11
-98.609985
 21
56.899990
  0
LINE
  8
0
 10
-98.609985
 20
56.899994
 11
-98.609985
 21
41.899994
  0
LINE
  8
0
 10
-83.609985
 20
39.399994
 11
-82.609985
 21
39.399994
  0
LINE
  8
0
 10
-83.609985
 20
59.399994
 11
-82.609985
 21
59.399994
  0
LINE
  8
0
 10
-98.109985
 20
41.399994
 11
-83.609985
 21
41.399994
  0
LINE
  8
0
 10
-98.109985
 20
57.399994
 11
-83.609985
 21
57.399994
  0
LINE
  8
0
 10
51.990002
 20
71.699989
 11
52.790009
 21
70.899986
  0
LINE
  8
0
 10
53.589996
 20
71.699989
 11
54.389992
 21
70.899994
  0
LINE
  8
0
 10
54.390015
 20
71.699982
 11
64.390015
 21
71.699982
  0
LINE
  8
0
 10
52.790009
 20
71.699982
 11
53.590012
 21
71.699982
  0
LINE
  8
0
 10
53.590000
 20
27.100000
 11
54.389996
 21
27.899994
  0
LINE
  8
0
 10
51.989998
 20
27.099987
 11
52.790009
 21
27.899994
  0
LINE
  8
0
 10
52.790009
 20
27.100006
 11
53.590012
 21
27.100006
  0
LINE
  8
0
 10
54.390015
 20
27.100006
 11
64.390015
 21
27.100006
  0
LINE
  8
0
 10
-67.009987
 20
71.699989
 11
-67.809990
 21
70.899986
  0
LINE
  8
0
 10
-68.609993
 20
71.699989
 11
-69.409988
 21
70.899994
  0
LINE
  8
0
 10
-67.009995
 20
71.699982
 11
51.990005
 21
71.699982
  0
LINE
  8
0
 10
-68.609985
 20
71.699982
 11
-67.809998
 21
71.699982
  0
LINE
  8
0
 10
-67.009987
 20
27.099997
 11
-67.809990
 21
27.899998
  0
LINE
  8
0
 10
-68.609993
 20
27.100000
 11
-69.409988
 21
27.899994
  0
LINE
  8
0
 10
-67.009995
 20
27.100006
 11
51.990005
 21
27.100006
  0
LINE
  8
0
 10
-68.609985
 20
27.100006
 11
-67.809998
 21
27.100006
  0
LINE
  8
0
 10
51.990005
 20
71.699982
 11
51.990005
 21
27.100006
  0
LINE
  8
0
 10
52.790009
 20
71.699982
 11
52.790009
 21
27.100006
  0
LINE
  8
0
 10
53.590012
 20
71.699982
 11
53.590012
 21
27.100006
  0
LINE
  8
0
 10
-67.009995
 20
71.699982
 11
-67.009995
 21
27.100006
  0
LINE
  8
0
 10
-67.809998
 20
71.699982
 11
-67.809998
 21
27.100006
  0
LINE
  8
0
 10
-69.409988
 20
71.699982
 11
-69.409988
 21
27.100006
  0
LINE
  8
0
 10
-68.609985
 20
71.699982
 11
-68.609985
 21
27.100006
  0
LINE
  8
0
 10
54.390015
 20
71.699982
 11
54.390015
 21
27.100006
  0
LINE
  8
0
 10
-70.609985
 20
27.100006
 11
-69.409988
 21
27.100006
  0
LINE
  8
0
 10
-70.609985
 20
71.699982
 11
-69.409988
 21
71.699982
  0
LINE
  8
0
 10
-83.609985
 20
59.399994
 11
-83.609985
 21
39.399994
  0
LINE
  8
0
  6
CENTER
 62
     2
 10
-103.289986
 20
49.399994
 11
67.390015
 21
49.399994
  0
LINE
  8
0
 10
-82.609985
 20
24.399994
 11
-70.609985
 21
24.399994
  0
LINE
  8
0
 10
64.390015
 20
71.699982
 11
64.390015
 21
27.100006
  0
LINE
  8
0
 10
-82.609985
 20
74.399994
 11
-70.609985
 21
74.399994
  0
LINE
  8
0
  6
PHANTOM
 62
     3
 10
-9.109985
 20
78.715363
 11
-9.109985
 21
17.218796
  0
LINE
  8
0
 10
-159.250000
 20
-111.500000
 11
-159.250000
 21
-123.500000
  0
LINE
  8
0
 10
-147.250000
 20
-111.500000
 11
-147.250000
 21
-123.500000
  0
LINE
  8
0
 10
-135.250000
 20
-111.500000
 11
-135.250000
 21
-123.500000
  0
LINE
  8
0
 10
-184.250000
 20
-111.500000
 11
-135.250000
 21
-111.500000
  0
LINE
  8
0
 10
-184.250000
 20
-117.500000
 11
-135.250000
 21
-117.500000
  0
LINE
  8
0
 10
-184.250000
 20
-111.500000
 11
-184.250000
 21
-123.500000
  0
LINE
  8
0
 10
-184.250000
 20
-123.500000
 11
-135.250000
 21
-123.500000
  0
LINE
  8
0
 10
-194.250000
 20
132.600006
 11
194.800003
 21
132.600006
  0
LINE
  8
0
 10
194.800003
 20
132.600006
 11
194.800003
 21
-133.500000
  0
LINE
  8
0
 10
-194.250000
 20
132.600006
 11
-194.250000
 21
-133.500000
  0
LINE
  8
0
 10
-194.250000
 20
-133.500000
 11
194.800003
 21
-133.500000
  0
LINE
  8
0
 10
109.800003
 20
-118.500000
 11
109.800003
 21
-133.500000
  0
LINE
  8
0
 10
109.800003
 20
-118.500000
 11
194.800003
 21
-118.500000
  0
LINE
  8
0
 10
109.800003
 20
132.600006
 11
109.800003
 21
117.600006
  0
LINE
  8
0
 10
109.800003
 20
117.600006
 11
194.800003
 21
117.600006
  0
LINE
  8
0
 10
-194.250000
 20
117.600006
 11
-109.250000
 21
117.600006
  0
LINE
  8
0
 10
-109.250000
 20
132.600006
 11
-109.250000
 21
117.600006
  0
CIRCLE
  8
0
 62
     4
 10
-152.222610
 20
-56.572426
 40
3.464101
  0
CIRCLE
  8
0
 62
     4
 10
-152.222610
 20
-56.572426
 40
5.633975
  0
CIRCLE
  8
0
 62
     4
 10
-152.222610
 20
-56.572426
 40
6.500000
  0
CIRCLE
  8
0
 62
     1
 10
-152.222610
 20
-21.572418
 40
3.000000
  0
CIRCLE
  8
0
 62
     4
 10
-152.222610
 20
-21.572418
 40
2.458500
  0
CIRCLE
  8
0
 62
     4
 10
-152.222610
 20
-56.572426
 40
7.000000
  0
CIRCLE
  8
0
 10
119.999969
 20
49.399994
 40
2.099999
  0
CIRCLE
  8
0
 62
     2
 10
119.999969
 20
49.399994
 40
2.500000
  0
CIRCLE
  8
0
 10
145.999969
 20
49.399994
 40
2.099999
  0
CIRCLE
  8
0
 62
     2
 10
145.999969
 20
49.399994
 40
2.500000
  0
CIRCLE
  8
0
 10
132.999969
 20
62.399994
 40
4.250000
  0
CIRCLE
  8
0
 62
     2
 10
132.999969
 20
62.399994
 40
5.000000
  0
CIRCLE
  8
0
 10
132.999985
 20
36.399994
 40
4.250000
  0
CIRCLE
  8
0
 62
     2
 10
132.999985
 20
36.399994
 40
5.000000
  0
CIRCLE
  8
0
 10
132.999969
 20
49.399994
 40
22.299988
  0
CIRCLE
  8
0
 10
132.999969
 20
49.399994
 40
25.000000
  0
CIRCLE
  8
0
 10
-151.999969
 20
49.399994
 40
25.000000
  0
CIRCLE
  8
0
 10
-151.999969
 20
49.399994
 40
10.000000
  0
CIRCLE
  8
0
 10
-151.999969
 20
49.399994
 40
8.000000
  0
ARC
  8
0
 10
-151.999985
 20
49.399994
 40
7.500000
 50
36.869896
 51
143.130081
  0
CIRCLE
  8
0
 10
-151.999969
 20
49.399994
 40
3.200000
  0
CIRCLE
  8
0
 62
     2
 10
-151.999969
 20
49.399994
 40
4.000000
  0
ARC
  8
0
 10
-151.999985
 20
49.399994
 40
7.500002
 50
216.869919
 51
323.130096
  0
CIRCLE
  8
0
 10
-138.999969
 20
36.399994
 40
2.500000
  0
CIRCLE
  8
0
 62
     2
 10
-138.999969
 20
36.399994
 40
3.000000
  0
CIRCLE
  8
0
 10
-164.999969
 20
36.399994
 40
2.500000
  0
CIRCLE
  8
0
 62
     2
 10
-164.999969
 20
36.399994
 40
3.000000
  0
CIRCLE
  8
0
 10
-164.999969
 20
62.399994
 40
2.500000
  0
CIRCLE
  8
0
 62
     2
 10
-164.999969
 20
62.399994
 40
3.000000
  0
CIRCLE
  8
0
 10
-138.999969
 20
62.399994
 40
2.500000
  0
CIRCLE
  8
0
 62
     2
 10
-138.999969
 20
62.399994
 40
3.000000
  0
CIRCLE
  8
0
 10
-77.609985
 20
49.399994
 40
1.300000
  0
ARC
  8
0
 10
-99.609985
 20
49.394993
 40
8.002313
 50
318.571594
 51
41.428394
  0
TEXT
  8
0
 10
-62.566956
 20
31.450171
 40
3.200000
  1
RHDA40
 50
0.000000
 41
1.052632
 51
0.000000
  7
STANDARD
  0
TEXT
  8
0
 10
-180.551483
 20
-116.376381
 40
3.200000
  1
STROKE
 50
0.000000
 41
1.052632
 51
0.000000
  7
STANDARD
  0
TEXT
  8
0
 10
-185.101776
 20
-108.750191
 40
3.200000
  1
STRETCH LIST
 50
0.000000
 41
1.052632
 51
0.000000
  7
STANDARD
  0
TEXT
  8
0
 10
-144.651474
 20
-116.376366
 40
3.200000
  1
50
 50
0.000000
 41
1.052632
 51
0.000000
  7
STANDARD
  0
TEXT
  8
0
 10
-156.651474
 20
-116.376366
 40
3.200000
  1
30
 50
0.000000
 41
1.052632
 51
0.000000
  7
STANDARD
  0
TEXT
  8
0
 10
-144.651474
 20
-122.386375
 40
3.200000
  1
20
 50
0.000000
 41
1.052632
 51
0.000000
  7
STANDARD
  0
TEXT
  8
0
 10
-155.051483
 20
-122.386375
 40
3.200000
  1
0
 50
0.000000
 41
1.052632
 51
0.000000
  7
STANDARD
  0
TEXT
  8
0
 10
-146.557404
 20
-108.307091
 40
3.200000
  1
（ｍｍ）
 50
0.000000
 41
0.833333
 51
0.000000
  7
STANDARD
  0
TEXT
  8
0
 10
-183.156998
 20
-122.379997
 40
3.200000
  1
STRETCH
 50
0.000000
 41
1.052632
 51
0.000000
  7
STANDARD
  0
TEXT
  8
0
 62
     3
 10
-25.979338
 20
82.342537
 40
3.200000
  1
STRETCH LINE
 50
0.000000
 41
1.052632
 51
0.000000
  7
STANDARD
  0
TEXT
  8
0
 10
-186.892654
 20
104.550003
 40
4.500000
  1
MODEL:RHDA40*ST(30)
 50
0.000000
 41
1.052632
 51
0.000000
  7
STANDARD
  0
TEXT
  8
0
 10
133.907150
 20
122.050003
 40
4.500000
  1
Ｖｅｒ．　１．０
 50
0.000000
 41
0.833333
 51
0.000000
  7
STANDARD
  0
TEXT
  8
0
 10
113.700302
 20
-130.669998
 40
6.299999
  1
KOGANEI CORP.
 50
0.000000
 41
1.052631
 51
0.000000
  7
STANDARD
  0
TEXT
  8
0
 10
-183.642654
 20
122.050003
 40
4.500000
  1
TWIST CYLINDER
 50
0.000000
 41
1.052632
 51
0.000000
  7
STANDARD
  0
ENDSEC
  0
EOF
