  0
SECTION
  2
HEADER
  0
ENDSEC
  0
SECTION
  2
TABLES
  0
TABLE
  2
LTYPE
 70
     4
  0
LTYPE
  2
CONTINUOUS
 70
    64
  3
Solid line
 72
    65
 73
     0
 40
0.000000
  0
LTYPE
  2
DASHED
 70
    64
  3
__ __ __ __ __ __ __ __ __ __ __ __ __ __ __
 72
    65
 73
     2
 40
3.500000
 49
2.000000
 49
-1.500000
  0
LTYPE
  2
CENTER
 70
    64
  3
____ _ ____ _ ____ _ ____ _ ____ _ ____ _ ____
 72
    65
 73
     4
 40
17.500000
 49
13.000000
 49
-1.500000
 49
1.500000
 49
-1.500000
  0
LTYPE
  2
PHANTOM
 70
    64
  3
_____ _ _ _____ _ _ _____ _ _ _____ _ _ ____  
 72
    65
 73
     6
 40
15.500000
 49
8.000000
 49
-1.500000
 49
1.500000
 49
-1.500000
 49
1.500000
 49
-1.500000
  0
LTYPE
  2
DASHED1
 70
    64
  3
__ __ __ __ __ __ __ __ __ __ __ __ __ __ __
 72
    65
 73
     2
 40
1.500000
 49
1.000000
 49
-0.500000
  0
LTYPE
  2
DASHED2
 70
    64
  3
__ __ __ __ __ __ __ __ __ __ __ __ __ __ __
 72
    65
 73
     2
 40
3.500000
 49
2.500000
 49
-1.000000
  0
LTYPE
  2
DASHED3
 70
    64
  3
__ __ __ __ __ __ __ __ __ __ __ __ __ __ __
 72
    65
 73
     2
 40
6.000000
 49
4.000000
 49
-2.000000
  0
LTYPE
  2
DASHED4
 70
    64
  3
__ __ __ __ __ __ __ __ __ __ __ __ __ __ __
 72
    65
 73
     2
 40
12.000000
 49
10.000000
 49
-2.000000
  0
LTYPE
  2
DASHED5
 70
    64
  3
__ __ __ __ __ __ __ __ __ __ __ __ __ __ __
 72
    65
 73
     2
 40
17.000000
 49
15.000000
 49
-2.000000
  0
LTYPE
  2
DASHED6
 70
    64
  3
__ __ __ __ __ __ __ __ __ __ __ __ __ __ __
 72
    65
 73
     2
 40
29.000000
 49
27.000000
 49
-2.000000
  0
LTYPE
  2
PHANTOM1
 70
    64
  3
_____ _ _ _____ _ _ _____ _ _ _____ _ _ ____  
 72
    65
 73
     6
 40
31.000000
 49
25.000000
 49
-1.500000
 49
1.000000
 49
-1.000000
 49
1.000000
 49
-1.500000
  0
LTYPE
  2
PHANTOM2
 70
    64
  3
_____ _ _ _____ _ _ _____ _ _ _____ _ _ ____  
 72
    65
 73
     6
 40
36.000000
 49
27.000000
 49
-1.500000
 49
2.500000
 49
-1.000000
 49
2.500000
 49
-1.500000
  0
LTYPE
  2
PHANTOM3
 70
    64
  3
_____ _ _ _____ _ _ _____ _ _ _____ _ _ ____  
 72
    65
 73
     6
 40
78.000000
 49
64.000000
 49
-2.000000
 49
4.000000
 49
-2.000000
 49
4.000000
 49
-2.000000
  0
LTYPE
  2
CENTER1
 70
    64
  3
____ _ ____ _ ____ _ ____ _ ____ _ ____ _ ____
 72
    65
 73
     4
 40
19.000000
 49
14.000000
 49
-1.000000
 49
3.000000
 49
-1.000000
  0
LTYPE
  2
CENTER2
 70
    64
  3
____ _ ____ _ ____ _ ____ _ ____ _ ____ _ ____
 72
    65
 73
     4
 40
28.500000
 49
25.000000
 49
-1.000000
 49
1.500000
 49
-1.000000
  0
LTYPE
  2
CENTER3
 70
    64
  3
____ _ ____ _ ____ _ ____ _ ____ _ ____ _ ____
 72
    65
 73
     4
 40
31.500000
 49
27.000000
 49
-1.000000
 49
2.500000
 49
-1.000000
  0
LTYPE
  2
CENTER4
 70
    64
  3
____ _ ____ _ ____ _ ____ _ ____ _ ____ _ ____
 72
    65
 73
     4
 40
50.000000
 49
45.000000
 49
-1.000000
 49
3.000000
 49
-1.000000
  0
LTYPE
  2
CENTER5
 70
    64
  3
____ _ ____ _ ____ _ ____ _ ____ _ ____ _ ____
 72
    65
 73
     4
 40
100.000000
 49
92.000000
 49
-2.000000
 49
4.000000
 49
-2.000000
  0
LTYPE
  2
SBK1
 70
    64
  3
______ _ _ _ ______ _ _ _ ______ _ _ _ _____  
 72
    65
 73
     8
 40
60.500000
 49
45.000000
 49
-2.000000
 49
2.500000
 49
-2.000000
 49
2.500000
 49
-2.000000
 49
2.500000
 49
-2.000000
  0
LTYPE
  2
SBK2
 70
    64
  3
______ _ _ _ ______ _ _ _ ______ _ _ _ _____  
 72
    65
 73
     8
 40
84.000000
 49
64.000000
 49
-2.000000
 49
4.000000
 49
-2.000000
 49
4.000000
 49
-2.000000
 49
4.000000
 49
-2.000000
  0
LTYPE
  2
STCH
 70
    64
  3
__ __ __ __ __ __ __ __ __ __ __ __ __ __ __
 72
    65
 73
     2
 40
3.000000
 49
1.000000
 49
-2.000000
  0
LTYPE
  2
MTCH
 70
    64
  3
_____ _ _ _____ _ _ _____ _ _ _____ _ _ ____  
 72
    65
 73
     6
 40
80.000000
 49
66.000000
 49
-2.000000
 49
4.000000
 49
-2.000000
 49
4.000000
 49
-2.000000
  0
ENDTAB
  0
TABLE
  2
LAYER
 70
     1
  0
LAYER
  2
0
 70
     0
 62
     7
  6
CONTINUOUS
  0
ENDTAB
  0
TABLE
  2
STYLE
 70
     1
  0
STYLE
  2
STANDARD
 70
     0
 40
0.000000
 41
1.000000
 50
0.000000
 71
     0
 42
0.200000
  3
txt
  4
BIGFONT
  0
ENDTAB
  0
TABLE
  2
VIEW
 70
     0
  0
ENDTAB
  0
ENDSEC
  0
SECTION
  2
BLOCKS
  0
ENDSEC
  0
SECTION
  2
ENTITIES
  0
LINE
  8
0
  6
CENTER
 62
     2
 10
-129.408325
 20
86.968468
 11
-129.408325
 21
35.968468
  0
LINE
  8
0
  6
CENTER
 62
     2
 10
-103.908325
 20
61.468468
 11
-154.908325
 21
61.468468
  0
LINE
  8
0
  6
DASHED
 62
     2
 10
-113.112465
 20
66.310463
 11
-118.608315
 21
66.138710
  0
LINE
  8
0
  6
DASHED
 62
     2
 10
-112.951004
 20
65.729515
 11
-118.608322
 21
65.552711
  0
LINE
  8
0
  6
DASHED
 62
     2
 10
-112.951004
 20
57.207436
 11
-118.608330
 21
57.384239
  0
LINE
  8
0
  6
DASHED
 62
     2
 10
-113.112457
 20
56.626469
 11
-118.608330
 21
56.798229
  0
LINE
  8
0
  6
CENTER
 62
     2
 10
-129.408325
 20
5.698120
 11
-129.408325
 21
-73.485527
  0
LINE
  8
0
 10
-112.908325
 20
1.468468
 11
-145.908325
 21
1.468468
  0
LINE
  8
0
 10
-112.408325
 20
0.968468
 11
-112.408325
 21
-16.031532
  0
LINE
  8
0
 10
-146.408325
 20
0.968468
 11
-146.408325
 21
-16.031532
  0
LINE
  8
0
 10
-110.908325
 20
-16.031532
 11
-147.908325
 21
-16.031532
  0
LINE
  8
0
 10
-111.658318
 20
-69.531532
 11
-147.158325
 21
-69.531532
  0
LINE
  8
0
 10
-112.908325
 20
1.468463
 11
-112.408333
 21
0.968475
  0
LINE
  8
0
 10
-145.908325
 20
1.468462
 11
-146.408325
 21
0.968464
  0
LINE
  8
0
 10
-109.908318
 20
-27.531532
 11
-148.908325
 21
-27.531532
  0
LINE
  8
0
 10
-108.908325
 20
-43.820213
 11
-108.908325
 21
-66.781532
  0
LINE
  8
0
 10
-109.908325
 20
-17.531532
 11
-109.908325
 21
-27.531532
  0
LINE
  8
0
 10
-110.908325
 20
-16.031532
 11
-110.908325
 21
-17.531532
  0
LINE
  8
0
 10
-109.908318
 20
-17.531532
 11
-148.908325
 21
-17.531532
  0
LINE
  8
0
 10
-110.908325
 20
-27.531536
 11
-108.908325
 21
-43.820213
  0
LINE
  8
0
 10
-147.908310
 20
-27.531536
 11
-149.908310
 21
-43.820221
  0
LINE
  8
0
 10
-149.908325
 20
-43.820213
 11
-149.908325
 21
-66.781532
  0
LINE
  8
0
 10
-148.908325
 20
-17.531532
 11
-148.908325
 21
-27.531532
  0
LINE
  8
0
 10
-147.908325
 20
-16.031532
 11
-147.908325
 21
-17.531532
  0
LINE
  8
0
  6
DASHED
 62
     2
 10
-126.408325
 20
1.468468
 11
-126.408325
 21
-7.531532
  0
LINE
  8
0
  6
DASHED
 62
     2
 10
-132.408325
 20
1.468468
 11
-132.408325
 21
-7.531532
  0
LINE
  8
0
  6
CENTER
 62
     2
 10
-109.408325
 20
-10.531532
 11
-130.520264
 21
-10.531532
  0
LINE
  8
0
  6
DASHED
 62
     2
 10
-112.408302
 20
-5.667521
 11
-118.608315
 21
-5.861281
  0
LINE
  8
0
  6
DASHED
 62
     2
 10
-112.408310
 20
-6.253526
 11
-118.608299
 21
-6.447286
  0
LINE
  8
0
  6
DASHED
 62
     2
 10
-112.408325
 20
-14.809533
 11
-118.608322
 21
-14.615768
  0
LINE
  8
0
  6
DASHED
 62
     2
 10
-112.408318
 20
-15.395547
 11
-118.608322
 21
-15.201782
  0
LINE
  8
0
  6
DASHED
 62
     2
 10
-131.908325
 20
1.468468
 11
-131.908325
 21
-7.531532
  0
LINE
  8
0
  6
DASHED
 62
     2
 10
-126.908325
 20
1.468468
 11
-126.908325
 21
-7.531532
  0
LINE
  8
0
  6
CENTER
 62
     2
 10
0.275002
 20
91.968468
 11
0.275002
 21
30.968464
  0
LINE
  8
0
  6
CENTER
 62
     2
 10
29.536766
 20
61.468468
 11
-29.204559
 21
61.468468
  0
LINE
  8
0
  6
CENTER
 62
     2
 10
5.474234
 20
52.463161
 11
10.661760
 21
43.478100
  0
LINE
  8
0
  6
CENTER
 62
     2
 10
5.474199
 20
70.473778
 11
10.661733
 21
79.458847
  0
LINE
  8
0
  6
DASHED
 62
     2
 10
19.275002
 20
72.559006
 11
19.275002
 21
50.377930
  0
LINE
  8
0
  6
DASHED
 62
     2
 10
19.275002
 20
64.468468
 11
11.275002
 21
64.468468
  0
LINE
  8
0
  6
DASHED
 62
     2
 10
19.275002
 20
58.468468
 11
11.275002
 21
58.468468
  0
LINE
  8
0
  6
DASHED
 62
     2
 10
19.275002
 20
63.968468
 11
11.275002
 21
63.968468
  0
LINE
  8
0
  6
DASHED
 62
     2
 10
19.275002
 20
58.968468
 11
11.275002
 21
58.968468
  0
LINE
  8
0
  6
CENTER
 62
     2
 10
0.275002
 20
5.698120
 11
0.275002
 21
-91.213219
  0
LINE
  8
0
  6
DASHED
 62
     2
 10
3.275002
 20
1.468468
 11
3.275002
 21
-4.531532
  0
LINE
  8
0
  6
DASHED
 62
     2
 10
-2.724998
 20
1.468468
 11
-2.724998
 21
-4.531532
  0
LINE
  8
0
  6
DASHED
 62
     2
 10
19.275002
 20
-14.531532
 11
11.275002
 21
-14.531532
  0
LINE
  8
0
  6
DASHED
 62
     2
 10
19.275002
 20
-8.531532
 11
11.275002
 21
-8.531532
  0
LINE
  8
0
 10
21.775002
 20
1.468468
 11
-21.224998
 21
1.468468
  0
LINE
  8
0
 10
23.275002
 20
-24.531532
 11
-22.724998
 21
-24.531532
  0
LINE
  8
0
 10
22.275002
 20
0.968468
 11
22.275002
 21
-2.531532
  0
LINE
  8
0
 10
-21.724998
 20
0.968468
 11
-21.724998
 21
-24.531532
  0
LINE
  8
0
 10
-21.225004
 20
1.468469
 11
-21.725004
 21
0.968469
  0
LINE
  8
0
 10
21.775002
 20
1.468469
 11
22.274998
 21
0.968475
  0
LINE
  8
0
 10
24.275002
 20
-26.031532
 11
-23.724998
 21
-26.031532
  0
LINE
  8
0
 10
-22.724998
 20
-24.531532
 11
-22.724998
 21
-26.031532
  0
LINE
  8
0
 10
23.275002
 20
-24.531532
 11
23.275002
 21
-26.031532
  0
LINE
  8
0
 10
24.275002
 20
-26.031532
 11
24.275002
 21
-36.531532
  0
LINE
  8
0
  6
CENTER
 62
     2
 10
28.694557
 20
-11.531532
 11
-1.468017
 21
-11.531532
  0
LINE
  8
0
 10
22.275002
 20
-20.531532
 11
19.275002
 21
-20.531532
  0
LINE
  8
0
 10
22.275002
 20
-2.531532
 11
19.275002
 21
-2.531532
  0
LINE
  8
0
 10
19.275002
 20
-2.531532
 11
19.275002
 21
-20.531532
  0
LINE
  8
0
 10
23.025009
 20
-88.531532
 11
-22.474991
 21
-88.531532
  0
LINE
  8
0
 10
24.275002
 20
-36.531532
 11
-23.724998
 21
-36.531532
  0
LINE
  8
0
 10
-22.724993
 20
-36.531536
 11
-25.221441
 21
-85.641914
  0
LINE
  8
0
 10
23.275000
 20
-36.531525
 11
25.771456
 21
-85.641907
  0
LINE
  8
0
 10
22.275002
 20
-20.531532
 11
22.275002
 21
-24.531532
  0
LINE
  8
0
 10
-23.724998
 20
-26.031532
 11
-23.724998
 21
-36.531532
  0
LINE
  8
0
  6
DASHED
 10
2.775002
 20
1.468468
 11
2.775002
 21
-4.531532
  0
LINE
  8
0
  6
DASHED
 10
-2.224998
 20
1.468468
 11
-2.224998
 21
-4.531532
  0
LINE
  8
0
  6
DASHED
 62
     2
 10
19.275002
 20
-9.031532
 11
11.275002
 21
-9.031532
  0
LINE
  8
0
  6
DASHED
 62
     2
 10
19.275002
 20
-14.031532
 11
11.275002
 21
-14.031532
  0
LINE
  8
0
  6
CENTER
 62
     2
 10
129.958344
 20
95.968468
 11
129.958344
 21
26.968468
  0
LINE
  8
0
  6
CENTER
 62
     2
 10
164.458344
 20
61.468468
 11
95.458344
 21
61.468468
  0
LINE
  8
0
  6
DASHED
 62
     2
 10
153.958344
 20
73.837784
 11
153.958344
 21
49.099152
  0
LINE
  8
0
  6
CENTER
 62
     2
 10
137.157593
 20
48.999035
 11
142.345123
 21
40.013969
  0
LINE
  8
0
  6
CENTER
 62
     2
 10
137.157593
 20
73.937897
 11
142.345123
 21
82.922966
  0
LINE
  8
0
  6
DASHED
 62
     2
 10
153.958344
 20
64.468468
 11
143.958344
 21
64.468468
  0
LINE
  8
0
  6
DASHED
 62
     2
 10
153.958344
 20
58.468468
 11
143.958344
 21
58.468468
  0
LINE
  8
0
  6
DASHED
 62
     2
 10
153.958344
 20
63.968468
 11
143.958344
 21
63.968468
  0
LINE
  8
0
  6
DASHED
 62
     2
 10
153.958344
 20
58.968468
 11
143.958344
 21
58.968468
  0
LINE
  8
0
  6
DASHED
 62
     2
 10
153.958344
 20
-10.531532
 11
143.958344
 21
-10.531532
  0
LINE
  8
0
  6
DASHED
 62
     2
 10
153.958344
 20
-16.531525
 11
143.958344
 21
-16.531525
  0
LINE
  8
0
  6
CENTER
 62
     2
 10
129.958344
 20
6.538818
 11
129.958344
 21
-100.713676
  0
LINE
  8
0
 10
155.958344
 20
1.468468
 11
103.958344
 21
1.468468
  0
LINE
  8
0
 10
102.958344
 20
0.468468
 11
102.958344
 21
-33.531532
  0
LINE
  8
0
 10
156.958344
 20
0.468475
 11
156.958344
 21
-3.531532
  0
LINE
  8
0
 10
158.458344
 20
-33.531532
 11
101.458344
 21
-33.531532
  0
LINE
  8
0
 10
155.958359
 20
1.468446
 11
156.958344
 21
0.468451
  0
LINE
  8
0
 10
103.958344
 20
1.468471
 11
102.958344
 21
0.468469
  0
LINE
  8
0
  6
CENTER
 62
     2
 10
160.741592
 20
-13.531532
 11
129.129791
 21
-13.531532
  0
LINE
  8
0
 10
156.958344
 20
-3.531532
 11
153.958344
 21
-3.531532
  0
LINE
  8
0
 10
156.958344
 20
-23.531532
 11
153.958344
 21
-23.531532
  0
LINE
  8
0
 10
153.958344
 20
-3.531532
 11
153.958344
 21
-23.531532
  0
LINE
  8
0
 10
156.958344
 20
-23.531532
 11
156.958344
 21
-33.531532
  0
LINE
  8
0
  6
DASHED
 62
     2
 10
126.958344
 20
1.468468
 11
126.958344
 21
-8.531532
  0
LINE
  8
0
  6
DASHED
 62
     2
 10
132.958344
 20
1.468468
 11
132.958344
 21
-8.531532
  0
LINE
  8
0
 10
158.208344
 20
-99.531532
 11
101.708344
 21
-99.531532
  0
LINE
  8
0
 10
159.458344
 20
-35.531532
 11
100.458344
 21
-35.531532
  0
LINE
  8
0
 10
101.458344
 20
-33.531532
 11
101.458344
 21
-35.531532
  0
LINE
  8
0
 10
100.458344
 20
-35.531532
 11
100.458344
 21
-46.531532
  0
LINE
  8
0
 10
159.458344
 20
-35.531532
 11
159.458344
 21
-46.531532
  0
LINE
  8
0
 10
158.458344
 20
-33.531532
 11
158.458344
 21
-35.531532
  0
LINE
  8
0
 10
158.458435
 20
-46.531525
 11
161.452515
 21
-96.085518
  0
LINE
  8
0
 10
101.458366
 20
-46.531528
 11
98.464287
 21
-96.085518
  0
LINE
  8
0
 10
159.458344
 20
-46.531532
 11
100.458344
 21
-46.531532
  0
LINE
  8
0
  6
DASHED
 62
     2
 10
132.458344
 20
1.468468
 11
132.458344
 21
-8.531532
  0
LINE
  8
0
  6
DASHED
 62
     2
 10
127.458344
 20
1.468468
 11
127.458344
 21
-8.531532
  0
LINE
  8
0
  6
DASHED
 62
     2
 10
153.958344
 20
-11.031532
 11
143.958344
 21
-11.031532
  0
LINE
  8
0
  6
DASHED
 62
     2
 10
153.958344
 20
-16.031525
 11
143.958344
 21
-16.031525
  0
LINE
  8
0
 10
-194.250000
 20
132.600006
 11
194.800003
 21
132.600006
  0
LINE
  8
0
 10
194.800003
 20
132.600006
 11
194.800003
 21
-133.500000
  0
LINE
  8
0
 10
-194.250000
 20
132.600006
 11
-194.250000
 21
-133.500000
  0
LINE
  8
0
 10
-194.250000
 20
-133.500000
 11
194.800003
 21
-133.500000
  0
LINE
  8
0
 10
109.800003
 20
-118.500000
 11
109.800003
 21
-133.500000
  0
LINE
  8
0
 10
109.800003
 20
-118.500000
 11
194.800003
 21
-118.500000
  0
LINE
  8
0
 10
109.800003
 20
132.600006
 11
109.800003
 21
117.600006
  0
LINE
  8
0
 10
109.800003
 20
117.600006
 11
194.800003
 21
117.600006
  0
LINE
  8
0
 10
-194.250000
 20
117.600006
 11
-104.250000
 21
117.600006
  0
LINE
  8
0
 10
-104.250000
 20
132.600006
 11
-104.250000
 21
117.600006
  0
LINE
  8
0
 10
-64.566666
 20
132.600006
 11
-64.566666
 21
-133.500000
  0
LINE
  8
0
 10
65.116669
 20
132.600006
 11
65.116669
 21
-133.500000
  0
CIRCLE
  8
0
 62
     2
 10
-129.408325
 20
61.468468
 40
3.000000
  0
CIRCLE
  8
0
 10
-129.408325
 20
61.468468
 40
17.000000
  0
CIRCLE
  8
0
 10
-129.408325
 20
61.468468
 40
20.500000
  0
CIRCLE
  8
0
 10
-129.408325
 20
61.468468
 40
18.499996
  0
CIRCLE
  8
0
 10
-129.408325
 20
61.468468
 40
19.499992
  0
CIRCLE
  8
0
 10
-129.408325
 20
61.468468
 40
2.500000
  0
ARC
  8
0
 10
-111.658318
 20
-66.781532
 40
2.750000
 50
270.000000
 51
0.000000
  0
ARC
  8
0
 10
-147.158325
 20
-66.781532
 40
2.750000
 50
180.000000
 51
270.000000
  0
CIRCLE
  8
0
 10
0.275002
 20
61.468468
 40
24.000000
  0
CIRCLE
  8
0
 62
     2
 10
0.275002
 20
61.468468
 40
3.000000
  0
CIRCLE
  8
0
 10
0.275002
 20
61.468468
 40
22.000000
  0
CIRCLE
  8
0
 10
0.275002
 20
61.468468
 40
25.500000
  0
CIRCLE
  8
0
 10
0.275002
 20
61.468468
 40
23.000000
  0
CIRCLE
  8
0
  6
CENTER
 62
     2
 10
0.275002
 20
61.468468
 40
16.000000
  0
CIRCLE
  8
0
 62
     2
 10
-15.724991
 20
61.468475
 40
3.000000
  0
CIRCLE
  8
0
 62
     2
 10
8.275002
 20
47.612057
 40
3.000000
  0
CIRCLE
  8
0
 62
     2
 10
8.275002
 20
75.324867
 40
3.000000
  0
CIRCLE
  8
0
 10
8.275002
 20
75.324867
 40
2.500000
  0
CIRCLE
  8
0
 10
0.275002
 20
61.468468
 40
2.500000
  0
CIRCLE
  8
0
 10
-15.724991
 20
61.468475
 40
2.500000
  0
CIRCLE
  8
0
 10
8.275002
 20
47.612057
 40
2.500000
  0
ARC
  8
0
 10
-22.474991
 20
-85.781532
 40
2.750000
 50
177.089996
 51
270.000000
  0
ARC
  8
0
 10
23.025009
 20
-85.781532
 40
2.750000
 50
270.000000
 51
2.910007
  0
CIRCLE
  8
0
 62
     2
 10
139.958344
 20
78.788971
 40
3.000000
  0
CIRCLE
  8
0
 10
129.958344
 20
61.468468
 40
29.500000
  0
CIRCLE
  8
0
 62
     2
 10
129.958344
 20
61.468468
 40
3.000000
  0
CIRCLE
  8
0
 10
129.958344
 20
61.468468
 40
31.500000
  0
CIRCLE
  8
0
 10
129.958344
 20
61.468468
 40
27.000000
  0
CIRCLE
  8
0
 62
     2
 10
109.958344
 20
61.468483
 40
3.000000
  0
CIRCLE
  8
0
 10
129.958344
 20
61.468468
 40
28.500000
  0
CIRCLE
  8
0
  6
CENTER
 62
     2
 10
129.958344
 20
61.468468
 40
20.000000
  0
CIRCLE
  8
0
 62
     2
 10
139.958344
 20
44.147957
 40
3.000000
  0
CIRCLE
  8
0
 10
139.958344
 20
78.788971
 40
2.500000
  0
CIRCLE
  8
0
 10
109.958344
 20
61.468483
 40
2.500000
  0
CIRCLE
  8
0
 10
129.958344
 20
61.468468
 40
2.500000
  0
CIRCLE
  8
0
 10
139.958344
 20
44.147957
 40
2.500000
  0
ARC
  8
0
 10
158.208359
 20
-96.281532
 40
3.250000
 50
270.000000
 51
0.000000
  0
ARC
  8
0
 10
101.708344
 20
-96.281532
 40
3.250000
 50
180.000000
 51
270.000000
  0
TEXT
  8
0
 10
133.907150
 20
122.050003
 40
4.500000
  1
Ver. 1.0
 50
0.000000
 41
1.052631
 51
0.000000
  7
STANDARD
  0
TEXT
  8
0
 10
113.700279
 20
-130.669998
 40
6.300000
  1
KOGANEI CORP.
 50
0.000000
 41
1.052632
 51
0.000000
  7
STANDARD
  0
TEXT
  8
0
 10
-174.392654
 20
122.050003
 40
4.500000
  1
RUBBER HAND
 50
0.000000
 41
1.052632
 51
0.000000
  7
STANDARD
  0
TEXT
  8
0
 10
72.473816
 20
104.550003
 40
4.500000
  1
MODEL:RBP055TCA
 50
0.000000
 41
1.052632
 51
0.000000
  7
STANDARD
  0
TEXT
  8
0
 10
-186.892853
 20
104.550003
 40
4.500000
  1
MODEL:RBP035TCA
 50
0.000000
 41
1.052632
 51
0.000000
  7
STANDARD
  0
TEXT
  8
0
 10
-57.209522
 20
104.550003
 40
4.500000
  1
MODEL:RBP045TCA
 50
0.000000
 41
1.052632
 51
0.000000
  7
STANDARD
  0
ENDSEC
  0
EOF
