  0
SECTION
  2
HEADER
  0
ENDSEC
  0
SECTION
  2
TABLES
  0
TABLE
  2
LTYPE
 70
     4
  0
LTYPE
  2
CONTINUOUS
 70
    64
  3
Solid line
 72
    65
 73
     0
 40
0.000000
  0
LTYPE
  2
DASHED
 70
    64
  3
__ __ __ __ __ __ __ __ __ __ __ __ __ __ __
 72
    65
 73
     2
 40
3.500000
 49
2.000000
 49
-1.500000
  0
LTYPE
  2
CENTER
 70
    64
  3
____ _ ____ _ ____ _ ____ _ ____ _ ____ _ ____
 72
    65
 73
     4
 40
17.500000
 49
13.000000
 49
-1.500000
 49
1.500000
 49
-1.500000
  0
LTYPE
  2
PHANTOM
 70
    64
  3
_____ _ _ _____ _ _ _____ _ _ _____ _ _ ____  
 72
    65
 73
     6
 40
15.500000
 49
8.000000
 49
-1.500000
 49
1.500000
 49
-1.500000
 49
1.500000
 49
-1.500000
  0
LTYPE
  2
DASHED1
 70
    64
  3
__ __ __ __ __ __ __ __ __ __ __ __ __ __ __
 72
    65
 73
     2
 40
1.500000
 49
1.000000
 49
-0.500000
  0
LTYPE
  2
DASHED2
 70
    64
  3
__ __ __ __ __ __ __ __ __ __ __ __ __ __ __
 72
    65
 73
     2
 40
3.500000
 49
2.500000
 49
-1.000000
  0
LTYPE
  2
DASHED3
 70
    64
  3
__ __ __ __ __ __ __ __ __ __ __ __ __ __ __
 72
    65
 73
     2
 40
6.000000
 49
4.000000
 49
-2.000000
  0
LTYPE
  2
DASHED4
 70
    64
  3
__ __ __ __ __ __ __ __ __ __ __ __ __ __ __
 72
    65
 73
     2
 40
12.000000
 49
10.000000
 49
-2.000000
  0
LTYPE
  2
DASHED5
 70
    64
  3
__ __ __ __ __ __ __ __ __ __ __ __ __ __ __
 72
    65
 73
     2
 40
17.000000
 49
15.000000
 49
-2.000000
  0
LTYPE
  2
DASHED6
 70
    64
  3
__ __ __ __ __ __ __ __ __ __ __ __ __ __ __
 72
    65
 73
     2
 40
29.000000
 49
27.000000
 49
-2.000000
  0
LTYPE
  2
PHANTOM1
 70
    64
  3
_____ _ _ _____ _ _ _____ _ _ _____ _ _ ____  
 72
    65
 73
     6
 40
31.000000
 49
25.000000
 49
-1.500000
 49
1.000000
 49
-1.000000
 49
1.000000
 49
-1.500000
  0
LTYPE
  2
PHANTOM2
 70
    64
  3
_____ _ _ _____ _ _ _____ _ _ _____ _ _ ____  
 72
    65
 73
     6
 40
36.000000
 49
27.000000
 49
-1.500000
 49
2.500000
 49
-1.000000
 49
2.500000
 49
-1.500000
  0
LTYPE
  2
PHANTOM3
 70
    64
  3
_____ _ _ _____ _ _ _____ _ _ _____ _ _ ____  
 72
    65
 73
     6
 40
78.000000
 49
64.000000
 49
-2.000000
 49
4.000000
 49
-2.000000
 49
4.000000
 49
-2.000000
  0
LTYPE
  2
CENTER1
 70
    64
  3
____ _ ____ _ ____ _ ____ _ ____ _ ____ _ ____
 72
    65
 73
     4
 40
19.000000
 49
14.000000
 49
-1.000000
 49
3.000000
 49
-1.000000
  0
LTYPE
  2
CENTER2
 70
    64
  3
____ _ ____ _ ____ _ ____ _ ____ _ ____ _ ____
 72
    65
 73
     4
 40
28.500000
 49
25.000000
 49
-1.000000
 49
1.500000
 49
-1.000000
  0
LTYPE
  2
CENTER3
 70
    64
  3
____ _ ____ _ ____ _ ____ _ ____ _ ____ _ ____
 72
    65
 73
     4
 40
31.500000
 49
27.000000
 49
-1.000000
 49
2.500000
 49
-1.000000
  0
LTYPE
  2
CENTER4
 70
    64
  3
____ _ ____ _ ____ _ ____ _ ____ _ ____ _ ____
 72
    65
 73
     4
 40
50.000000
 49
45.000000
 49
-1.000000
 49
3.000000
 49
-1.000000
  0
LTYPE
  2
CENTER5
 70
    64
  3
____ _ ____ _ ____ _ ____ _ ____ _ ____ _ ____
 72
    65
 73
     4
 40
100.000000
 49
92.000000
 49
-2.000000
 49
4.000000
 49
-2.000000
  0
LTYPE
  2
SBK1
 70
    64
  3
______ _ _ _ ______ _ _ _ ______ _ _ _ _____  
 72
    65
 73
     8
 40
60.500000
 49
45.000000
 49
-2.000000
 49
2.500000
 49
-2.000000
 49
2.500000
 49
-2.000000
 49
2.500000
 49
-2.000000
  0
LTYPE
  2
SBK2
 70
    64
  3
______ _ _ _ ______ _ _ _ ______ _ _ _ _____  
 72
    65
 73
     8
 40
84.000000
 49
64.000000
 49
-2.000000
 49
4.000000
 49
-2.000000
 49
4.000000
 49
-2.000000
 49
4.000000
 49
-2.000000
  0
LTYPE
  2
STCH
 70
    64
  3
__ __ __ __ __ __ __ __ __ __ __ __ __ __ __
 72
    65
 73
     2
 40
3.000000
 49
1.000000
 49
-2.000000
  0
LTYPE
  2
MTCH
 70
    64
  3
_____ _ _ _____ _ _ _____ _ _ _____ _ _ ____  
 72
    65
 73
     6
 40
80.000000
 49
66.000000
 49
-2.000000
 49
4.000000
 49
-2.000000
 49
4.000000
 49
-2.000000
  0
ENDTAB
  0
TABLE
  2
LAYER
 70
     1
  0
LAYER
  2
0
 70
     0
 62
     7
  6
CONTINUOUS
  0
ENDTAB
  0
TABLE
  2
STYLE
 70
     1
  0
STYLE
  2
STANDARD
 70
     0
 40
0.000000
 41
1.000000
 50
0.000000
 71
     0
 42
0.200000
  3
txt
  4
BIGFONT
  0
ENDTAB
  0
TABLE
  2
VIEW
 70
     0
  0
ENDTAB
  0
ENDSEC
  0
SECTION
  2
BLOCKS
  0
ENDSEC
  0
SECTION
  2
ENTITIES
  0
LINE
  8
0
  6
CENTER
 62
     2
 10
-150.345001
 20
88.367279
 11
-160.345001
 21
88.367279
  0
LINE
  8
0
  6
CENTER
 62
     2
 10
-155.345001
 20
93.367279
 11
-155.345001
 21
83.367279
  0
LINE
  8
0
  6
CENTER
 62
     2
 10
-155.345001
 20
70.179787
 11
-155.345001
 21
15.054787
  0
LINE
  8
0
 10
-152.645004
 20
67.367287
 11
-158.044998
 21
67.367287
  0
LINE
  8
0
 10
-152.345001
 20
47.867287
 11
-158.345001
 21
47.867287
  0
LINE
  8
0
 10
-152.345001
 20
67.067284
 11
-152.345001
 21
47.867287
  0
LINE
  8
0
 10
-158.345001
 20
67.067284
 11
-158.345001
 21
47.867287
  0
LINE
  8
0
 10
-151.845001
 20
42.867287
 11
-158.845001
 21
42.867287
  0
LINE
  8
0
 10
-152.345001
 20
46.367287
 11
-158.345001
 21
46.367287
  0
LINE
  8
0
 10
-153.345001
 20
16.367287
 11
-157.345001
 21
16.367287
  0
LINE
  8
0
 10
-151.345001
 20
33.867287
 11
-159.345001
 21
33.867287
  0
LINE
  8
0
 10
-151.345001
 20
41.867287
 11
-151.345001
 21
33.867287
  0
LINE
  8
0
 10
-159.345001
 20
41.867287
 11
-159.345001
 21
33.867287
  0
LINE
  8
0
 10
-152.345001
 20
46.367287
 11
-152.345001
 21
42.867287
  0
LINE
  8
0
 10
-158.345001
 20
46.367287
 11
-158.345001
 21
42.867287
  0
LINE
  8
0
 10
-153.145004
 20
47.867287
 11
-153.145004
 21
46.367287
  0
LINE
  8
0
 10
-157.544998
 20
47.867287
 11
-157.544998
 21
46.367287
  0
LINE
  8
0
 10
-151.845001
 20
42.867287
 11
-151.845001
 21
41.867287
  0
LINE
  8
0
 10
-158.845001
 20
42.867287
 11
-158.845001
 21
41.867287
  0
LINE
  8
0
 10
-151.345001
 20
41.867287
 11
-159.345001
 21
41.867287
  0
LINE
  8
0
 10
-159.345001
 20
27.715645
 11
-159.345001
 21
18.367287
  0
LINE
  8
0
 10
-151.345001
 20
27.715645
 11
-151.345001
 21
18.367287
  0
LINE
  8
0
 10
-151.845108
 20
33.867283
 11
-151.383163
 21
28.587196
  0
LINE
  8
0
 10
-158.845093
 20
33.867283
 11
-159.307037
 21
28.587204
  0
LINE
  8
0
 10
-153.686691
 20
46.367287
 11
-153.686691
 21
42.867287
  0
LINE
  8
0
 10
-157.003311
 20
46.367287
 11
-157.003311
 21
42.867287
  0
LINE
  8
0
 62
     2
 10
-157.003311
 20
46.367279
 11
-153.686707
 21
42.867287
  0
LINE
  8
0
 62
     2
 10
-153.686691
 20
46.367321
 11
-157.003326
 21
42.867313
  0
LINE
  8
0
  6
DASHED
 62
     2
 10
-153.845001
 20
67.367287
 11
-153.845001
 21
63.367287
  0
LINE
  8
0
  6
DASHED
 62
     2
 10
-156.845001
 20
67.367287
 11
-156.845001
 21
63.367287
  0
LINE
  8
0
 62
     2
 10
-158.044998
 20
67.367287
 11
-158.044998
 21
47.867287
  0
LINE
  8
0
 62
     2
 10
-152.645004
 20
67.367287
 11
-152.645004
 21
47.867287
  0
LINE
  8
0
 10
-152.644974
 20
67.367287
 11
-152.344971
 21
67.067276
  0
LINE
  8
0
 10
-158.044937
 20
67.367233
 11
-158.344955
 21
67.067215
  0
LINE
  8
0
 10
-158.345001
 20
67.067284
 11
-152.345001
 21
67.067284
  0
LINE
  8
0
  6
DASHED
 62
     2
 10
-156.595001
 20
67.367287
 11
-156.595001
 21
63.367287
  0
LINE
  8
0
  6
DASHED
 62
     2
 10
-154.095001
 20
67.367287
 11
-154.095001
 21
63.367287
  0
LINE
  8
0
  6
CENTER
 62
     2
 10
-77.535004
 20
95.867279
 11
-77.535004
 21
80.867279
  0
LINE
  8
0
 10
-75.732231
 20
85.367279
 11
-79.337784
 21
85.367279
  0
LINE
  8
0
 10
-75.732231
 20
91.367279
 11
-79.337784
 21
91.367279
  0
LINE
  8
0
  6
CENTER
 62
     2
 10
-70.035004
 20
88.367279
 11
-85.035004
 21
88.367279
  0
LINE
  8
0
  6
CENTER
 62
     2
 10
-77.535004
 20
69.604782
 11
-77.535004
 21
13.711533
  0
LINE
  8
0
 10
-75.035004
 20
67.367287
 11
-80.035004
 21
67.367287
  0
LINE
  8
0
 10
-74.535004
 20
47.867287
 11
-80.535004
 21
47.867287
  0
LINE
  8
0
 10
-74.535004
 20
66.867294
 11
-74.535004
 21
47.867287
  0
LINE
  8
0
 10
-80.535004
 20
66.567291
 11
-80.535004
 21
47.867287
  0
LINE
  8
0
 10
-73.535004
 20
42.867287
 11
-81.535004
 21
42.867287
  0
LINE
  8
0
 10
-74.035004
 20
46.367287
 11
-81.035004
 21
46.367287
  0
LINE
  8
0
 10
-74.785004
 20
16.367287
 11
-80.285004
 21
16.367287
  0
LINE
  8
0
 10
-72.785004
 20
33.867287
 11
-82.285004
 21
33.867287
  0
LINE
  8
0
 10
-72.785004
 20
41.867287
 11
-72.785004
 21
33.867287
  0
LINE
  8
0
 10
-82.285004
 20
41.867287
 11
-82.285004
 21
33.867287
  0
LINE
  8
0
 10
-74.035004
 20
46.367287
 11
-74.035004
 21
42.867287
  0
LINE
  8
0
 10
-81.035004
 20
46.367287
 11
-81.035004
 21
42.867287
  0
LINE
  8
0
 10
-75.335007
 20
47.867287
 11
-75.335007
 21
46.367287
  0
LINE
  8
0
 10
-79.735001
 20
47.867287
 11
-79.735001
 21
46.367287
  0
LINE
  8
0
 10
-73.535004
 20
42.867287
 11
-73.535004
 21
41.867287
  0
LINE
  8
0
 10
-81.535004
 20
42.867287
 11
-81.535004
 21
41.867287
  0
LINE
  8
0
 10
-72.785004
 20
41.867287
 11
-82.285004
 21
41.867287
  0
LINE
  8
0
 10
-82.285004
 20
27.715652
 11
-82.285004
 21
18.367287
  0
LINE
  8
0
 10
-72.785004
 20
27.715645
 11
-72.785004
 21
18.367287
  0
LINE
  8
0
 10
-73.285027
 20
33.867290
 11
-72.823074
 21
28.587204
  0
LINE
  8
0
 10
-81.785019
 20
33.867287
 11
-82.246964
 21
28.587208
  0
LINE
  8
0
  6
DASHED
 62
     2
 10
-76.035004
 20
67.367287
 11
-76.035004
 21
63.367287
  0
LINE
  8
0
  6
DASHED
 62
     2
 10
-79.035004
 20
67.367287
 11
-79.035004
 21
63.367287
  0
LINE
  8
0
 10
-75.732224
 20
46.367287
 11
-75.732224
 21
42.867287
  0
LINE
  8
0
 10
-79.337784
 20
46.367287
 11
-79.337784
 21
42.867287
  0
LINE
  8
0
 62
     2
 10
-79.337784
 20
46.367306
 11
-75.732224
 21
42.867298
  0
LINE
  8
0
 62
     2
 10
-75.732277
 20
46.367355
 11
-79.337837
 21
42.867352
  0
LINE
  8
0
 62
     2
 10
-80.035004
 20
67.367287
 11
-80.035004
 21
47.867287
  0
LINE
  8
0
  6
DASHED
 62
     2
 10
-78.785004
 20
67.367287
 11
-78.785004
 21
63.367287
  0
LINE
  8
0
  6
DASHED
 62
     2
 10
-76.285004
 20
67.367287
 11
-76.285004
 21
63.367287
  0
LINE
  8
0
 10
-80.035034
 20
67.367332
 11
-80.535027
 21
66.867332
  0
LINE
  8
0
 10
-74.535004
 20
66.867294
 11
-80.535004
 21
66.867294
  0
LINE
  8
0
 10
-75.034981
 20
67.367310
 11
-74.534981
 21
66.867310
  0
LINE
  8
0
 62
     2
 10
-75.035004
 20
67.367287
 11
-75.035004
 21
47.867287
  0
LINE
  8
0
  6
CENTER
 62
     2
 10
0.274992
 20
95.867279
 11
0.274992
 21
80.867279
  0
LINE
  8
0
  6
CENTER
 62
     2
 10
7.774992
 20
88.367279
 11
-7.225006
 21
88.367279
  0
LINE
  8
0
 10
2.336546
 20
84.367279
 11
-1.786558
 21
84.367279
  0
LINE
  8
0
 10
2.336546
 20
92.367279
 11
-1.786558
 21
92.367279
  0
LINE
  8
0
  6
CENTER
 62
     2
 10
0.274996
 20
69.698372
 11
0.274996
 21
13.856171
  0
LINE
  8
0
 10
3.649996
 20
67.367287
 11
-3.100000
 21
67.367287
  0
LINE
  8
0
 10
4.274998
 20
47.867287
 11
-3.725002
 21
47.867287
  0
LINE
  8
0
 10
-3.725004
 20
66.742287
 11
-3.725004
 21
47.867287
  0
LINE
  8
0
 10
5.275000
 20
42.867287
 11
-4.725002
 21
42.867287
  0
LINE
  8
0
 10
4.775000
 20
46.367287
 11
-4.225002
 21
46.367287
  0
LINE
  8
0
 10
3.775000
 20
16.367287
 11
-3.225000
 21
16.367287
  0
LINE
  8
0
 10
5.775000
 20
33.867287
 11
-5.225002
 21
33.867287
  0
LINE
  8
0
 10
4.774996
 20
46.367287
 11
4.774996
 21
42.867287
  0
LINE
  8
0
 10
-4.225004
 20
46.367287
 11
-4.225004
 21
42.867287
  0
LINE
  8
0
 10
3.474997
 20
47.867287
 11
3.474997
 21
46.367287
  0
LINE
  8
0
 10
-2.925005
 20
47.867287
 11
-2.925005
 21
46.367287
  0
LINE
  8
0
 10
5.274996
 20
42.867287
 11
5.274996
 21
41.867287
  0
LINE
  8
0
 10
-4.725004
 20
42.867287
 11
-4.725004
 21
41.867287
  0
LINE
  8
0
 10
5.775000
 20
41.867287
 11
-5.225002
 21
41.867287
  0
LINE
  8
0
 10
-5.225004
 20
27.715652
 11
-5.225004
 21
18.367287
  0
LINE
  8
0
 10
5.774996
 20
27.715645
 11
5.774996
 21
18.367287
  0
LINE
  8
0
 10
5.275038
 20
33.867290
 11
5.736985
 21
28.587214
  0
LINE
  8
0
 10
-4.724988
 20
33.867287
 11
-5.186934
 21
28.587212
  0
LINE
  8
0
  6
DASHED
 62
     2
 10
2.774996
 20
67.367287
 11
2.774996
 21
61.367287
  0
LINE
  8
0
  6
DASHED
 62
     2
 10
-2.225004
 20
67.367287
 11
-2.225004
 21
61.367287
  0
LINE
  8
0
 10
5.774996
 20
41.867287
 11
5.774996
 21
33.867287
  0
LINE
  8
0
 10
-5.225004
 20
41.867287
 11
-5.225004
 21
33.867287
  0
LINE
  8
0
  6
DASHED
 62
     2
 10
-1.825005
 20
67.367287
 11
-1.825005
 21
61.367287
  0
LINE
  8
0
  6
DASHED
 62
     2
 10
2.374996
 20
67.367287
 11
2.374996
 21
61.367287
  0
LINE
  8
0
 62
     2
 10
-3.100004
 20
67.367287
 11
-3.100004
 21
47.867287
  0
LINE
  8
0
 10
-3.100018
 20
67.367325
 11
-3.725016
 21
66.742332
  0
LINE
  8
0
 10
4.274996
 20
66.742287
 11
-3.725004
 21
66.742287
  0
LINE
  8
0
 10
3.650027
 20
67.367332
 11
4.275027
 21
66.742332
  0
LINE
  8
0
 10
4.274996
 20
66.742287
 11
4.274996
 21
47.867287
  0
LINE
  8
0
 62
     2
 10
3.649996
 20
67.367287
 11
3.649996
 21
47.867287
  0
LINE
  8
0
 10
-1.786558
 20
46.367287
 11
-1.786558
 21
42.867287
  0
LINE
  8
0
 10
2.336546
 20
46.367287
 11
2.336546
 21
42.867287
  0
LINE
  8
0
 62
     2
 10
-1.786489
 20
46.367371
 11
2.336615
 21
42.867371
  0
LINE
  8
0
 62
     2
 10
2.336519
 20
46.367332
 11
-1.786585
 21
42.867336
  0
LINE
  8
0
  6
CENTER
 62
     2
 10
78.084991
 20
98.367279
 11
78.084991
 21
78.367279
  0
LINE
  8
0
  6
CENTER
 62
     2
 10
88.084991
 20
88.367279
 11
68.084991
 21
88.367279
  0
LINE
  8
0
  6
DASHED
 62
     2
 10
81.084991
 20
92.367279
 11
81.084991
 21
84.367279
  0
LINE
  8
0
  6
DASHED
 62
     2
 10
81.084991
 20
90.867279
 11
78.084991
 21
90.867279
  0
LINE
  8
0
  6
DASHED
 62
     2
 10
81.084991
 20
85.867279
 11
78.084991
 21
85.867279
  0
LINE
  8
0
  6
DASHED
 62
     2
 10
81.084991
 20
90.467285
 11
78.084991
 21
90.467285
  0
LINE
  8
0
  6
DASHED
 62
     2
 10
81.084991
 20
86.267273
 11
78.084991
 21
86.267273
  0
LINE
  8
0
  6
CENTER
 62
     2
 10
78.084991
 20
70.179787
 11
78.084991
 21
13.711533
  0
LINE
  8
0
 10
82.584991
 20
67.367287
 11
73.584991
 21
67.367287
  0
LINE
  8
0
 10
83.084999
 20
15.367287
 11
73.084999
 21
15.367287
  0
LINE
  8
0
 10
71.084991
 20
26.715652
 11
71.084991
 21
17.367287
  0
LINE
  8
0
 10
85.084991
 20
26.715645
 11
85.084991
 21
17.367287
  0
LINE
  8
0
 10
84.278893
 20
36.367283
 11
85.047050
 21
27.587198
  0
LINE
  8
0
 10
71.891235
 20
36.367279
 11
71.123085
 21
27.587206
  0
LINE
  8
0
 10
85.084991
 20
36.367287
 11
71.084991
 21
36.367287
  0
LINE
  8
0
 10
85.084991
 20
44.367287
 11
85.084991
 21
36.367287
  0
LINE
  8
0
 10
71.084991
 20
44.367287
 11
71.084991
 21
36.367287
  0
LINE
  8
0
 10
84.084991
 20
45.367287
 11
72.084991
 21
45.367287
  0
LINE
  8
0
 10
85.084991
 20
44.367287
 11
71.084991
 21
44.367287
  0
LINE
  8
0
 10
83.084991
 20
66.867287
 11
83.084991
 21
59.367287
  0
LINE
  8
0
 10
73.084991
 20
66.867287
 11
73.084991
 21
45.367287
  0
LINE
  8
0
 10
73.584991
 20
67.367271
 11
73.084991
 21
66.867271
  0
LINE
  8
0
 10
82.584984
 20
67.367256
 11
83.084984
 21
66.867256
  0
LINE
  8
0
  6
DASHED
 62
     2
 10
80.584991
 20
67.367287
 11
80.584991
 21
59.367287
  0
LINE
  8
0
  6
DASHED
 62
     2
 10
75.584991
 20
67.367287
 11
75.584991
 21
59.367287
  0
LINE
  8
0
 10
81.084991
 20
59.367287
 11
81.084991
 21
47.367287
  0
LINE
  8
0
  6
CENTER
 62
     2
 10
84.340157
 20
53.367287
 11
76.944229
 21
53.367287
  0
LINE
  8
0
 10
83.084991
 20
47.367287
 11
81.084991
 21
47.367287
  0
LINE
  8
0
 10
83.084991
 20
59.367287
 11
81.084991
 21
59.367287
  0
LINE
  8
0
 10
83.084991
 20
47.367287
 11
83.084991
 21
45.367287
  0
LINE
  8
0
 10
72.084991
 20
45.367287
 11
72.084991
 21
44.367287
  0
LINE
  8
0
 10
84.084991
 20
45.367287
 11
84.084991
 21
44.367287
  0
LINE
  8
0
  6
DASHED
 62
     2
 10
81.084991
 20
50.867287
 11
78.084991
 21
50.867287
  0
LINE
  8
0
  6
DASHED
 62
     2
 10
81.084991
 20
55.867287
 11
78.084991
 21
55.867287
  0
LINE
  8
0
  6
DASHED
 62
     2
 10
75.984993
 20
67.367287
 11
75.984993
 21
59.367287
  0
LINE
  8
0
  6
DASHED
 62
     2
 10
80.184990
 20
67.367287
 11
80.184990
 21
59.367287
  0
LINE
  8
0
  6
DASHED
 62
     2
 10
81.084991
 20
55.467285
 11
78.084991
 21
55.467285
  0
LINE
  8
0
  6
DASHED
 62
     2
 10
81.084991
 20
51.267288
 11
78.084991
 21
51.267288
  0
LINE
  8
0
  6
CENTER
 62
     2
 10
155.894989
 20
100.867279
 11
155.894989
 21
75.867279
  0
LINE
  8
0
  6
DASHED
 62
     2
 10
160.894989
 20
93.266266
 11
160.894989
 21
83.468292
  0
LINE
  8
0
  6
CENTER
 62
     2
 10
168.394989
 20
88.367279
 11
143.394989
 21
88.367279
  0
LINE
  8
0
  6
DASHED
 62
     2
 10
160.894989
 20
90.867279
 11
155.894989
 21
90.867279
  0
LINE
  8
0
  6
DASHED
 62
     2
 10
160.894989
 20
85.867279
 11
155.894989
 21
85.867279
  0
LINE
  8
0
  6
DASHED
 62
     2
 10
160.894989
 20
90.467285
 11
155.894989
 21
90.467285
  0
LINE
  8
0
  6
DASHED
 62
     2
 10
160.894989
 20
86.267273
 11
155.894989
 21
86.267273
  0
LINE
  8
0
  6
CENTER
 62
     2
 10
155.894989
 20
70.179787
 11
155.894989
 21
10.292942
  0
LINE
  8
0
 10
162.394989
 20
67.367287
 11
149.394989
 21
67.367287
  0
LINE
  8
0
 10
163.394989
 20
11.367279
 11
148.394989
 21
11.367279
  0
LINE
  8
0
 10
146.394989
 20
22.715652
 11
146.394989
 21
13.367287
  0
LINE
  8
0
 10
165.394989
 20
22.715645
 11
165.394989
 21
13.367287
  0
LINE
  8
0
 10
164.501511
 20
33.367302
 11
165.357147
 21
23.587212
  0
LINE
  8
0
 10
147.288757
 20
33.367260
 11
146.433105
 21
23.587177
  0
LINE
  8
0
 10
165.394989
 20
44.367287
 11
165.394989
 21
33.367287
  0
LINE
  8
0
 10
164.394989
 20
45.367287
 11
147.394989
 21
45.367287
  0
LINE
  8
0
 10
165.394989
 20
44.367287
 11
146.394989
 21
44.367287
  0
LINE
  8
0
 10
162.894989
 20
66.867287
 11
162.894989
 21
59.367287
  0
LINE
  8
0
 10
148.894989
 20
66.867287
 11
148.894989
 21
45.367287
  0
LINE
  8
0
 10
149.394974
 20
67.367287
 11
148.894974
 21
66.867287
  0
LINE
  8
0
 10
162.394974
 20
67.367249
 11
162.894974
 21
66.867256
  0
LINE
  8
0
  6
DASHED
 62
     2
 10
158.394989
 20
67.367287
 11
158.394989
 21
59.367287
  0
LINE
  8
0
  6
DASHED
 62
     2
 10
153.394989
 20
67.367287
 11
153.394989
 21
59.367287
  0
LINE
  8
0
 10
160.894989
 20
59.367287
 11
160.894989
 21
47.367287
  0
LINE
  8
0
  6
CENTER
 62
     2
 10
164.150146
 20
53.367287
 11
155.099213
 21
53.367287
  0
LINE
  8
0
 10
162.894989
 20
47.367287
 11
160.894989
 21
47.367287
  0
LINE
  8
0
 10
162.894989
 20
59.367287
 11
160.894989
 21
59.367287
  0
LINE
  8
0
 10
162.894989
 20
47.367287
 11
162.894989
 21
45.367287
  0
LINE
  8
0
 10
164.394989
 20
45.367287
 11
164.394989
 21
44.367287
  0
LINE
  8
0
  6
DASHED
 62
     2
 10
160.894989
 20
50.867287
 11
156.894989
 21
50.867287
  0
LINE
  8
0
  6
DASHED
 62
     2
 10
160.894989
 20
55.867287
 11
156.894989
 21
55.867287
  0
LINE
  8
0
 10
165.394989
 20
33.367287
 11
146.394989
 21
33.367287
  0
LINE
  8
0
 10
146.394989
 20
44.367287
 11
146.394989
 21
33.367287
  0
LINE
  8
0
 10
147.394989
 20
45.367287
 11
147.394989
 21
44.367287
  0
LINE
  8
0
  6
DASHED
 62
     2
 10
153.794983
 20
67.367287
 11
153.794983
 21
59.367287
  0
LINE
  8
0
  6
DASHED
 62
     2
 10
157.994995
 20
67.367287
 11
157.994995
 21
59.367287
  0
LINE
  8
0
  6
DASHED
 62
     2
 10
160.894989
 20
55.467285
 11
156.894989
 21
55.467285
  0
LINE
  8
0
  6
DASHED
 62
     2
 10
160.894989
 20
51.267288
 11
156.894989
 21
51.267288
  0
LINE
  8
0
  6
CENTER
 62
     2
 10
-155.345001
 20
-12.313431
 11
-155.345001
 21
-37.313431
  0
LINE
  8
0
  6
CENTER
 62
     2
 10
-142.845001
 20
-24.813431
 11
-167.845001
 21
-24.813431
  0
LINE
  8
0
  6
DASHED
 62
     2
 10
-148.845001
 20
-22.313431
 11
-154.345001
 21
-22.313431
  0
LINE
  8
0
  6
DASHED
 62
     2
 10
-148.845001
 20
-27.313431
 11
-154.345001
 21
-27.313431
  0
LINE
  8
0
  6
DASHED
 62
     2
 10
-148.845001
 20
-19.336212
 11
-148.845001
 21
-30.290649
  0
LINE
  8
0
  6
DASHED
 62
     2
 10
-148.845001
 20
-22.713425
 11
-154.345001
 21
-22.713425
  0
LINE
  8
0
  6
DASHED
 62
     2
 10
-148.845001
 20
-26.913437
 11
-154.345001
 21
-26.913437
  0
LINE
  8
0
  6
CENTER
 62
     2
 10
-155.345001
 20
-52.000931
 11
-155.345001
 21
-113.534569
  0
LINE
  8
0
 10
-147.345001
 20
-54.813431
 11
-163.345001
 21
-54.813431
  0
LINE
  8
0
 10
-146.345001
 20
-110.813431
 11
-164.345001
 21
-110.813431
  0
LINE
  8
0
 10
-166.345001
 20
-99.465065
 11
-166.345001
 21
-108.813431
  0
LINE
  8
0
 10
-144.345001
 20
-99.465073
 11
-144.345001
 21
-108.813431
  0
LINE
  8
0
 10
-145.238770
 20
-88.813431
 11
-144.383118
 21
-98.593521
  0
LINE
  8
0
 10
-165.451355
 20
-88.813416
 11
-166.306992
 21
-98.593498
  0
LINE
  8
0
 10
-144.345001
 20
-77.813431
 11
-144.345001
 21
-88.813431
  0
LINE
  8
0
 10
-145.345001
 20
-76.813431
 11
-165.345001
 21
-76.813431
  0
LINE
  8
0
 10
-144.345001
 20
-77.813431
 11
-166.345001
 21
-77.813431
  0
LINE
  8
0
 10
-146.845001
 20
-55.313431
 11
-146.845001
 21
-62.813431
  0
LINE
  8
0
 10
-163.845001
 20
-55.313431
 11
-163.845001
 21
-76.813431
  0
LINE
  8
0
 10
-163.345001
 20
-54.813431
 11
-163.845001
 21
-55.313431
  0
LINE
  8
0
 10
-147.345016
 20
-54.813435
 11
-146.845016
 21
-55.313427
  0
LINE
  8
0
  6
DASHED
 62
     2
 10
-152.845001
 20
-54.813431
 11
-152.845001
 21
-62.813431
  0
LINE
  8
0
  6
DASHED
 62
     2
 10
-157.845001
 20
-54.813431
 11
-157.845001
 21
-62.813431
  0
LINE
  8
0
 10
-148.845001
 20
-62.813431
 11
-148.845001
 21
-74.813431
  0
LINE
  8
0
  6
CENTER
 62
     2
 10
-145.589844
 20
-68.813431
 11
-156.509613
 21
-68.813431
  0
LINE
  8
0
 10
-146.845001
 20
-74.813431
 11
-148.845001
 21
-74.813431
  0
LINE
  8
0
 10
-146.845001
 20
-62.813431
 11
-148.845001
 21
-62.813431
  0
LINE
  8
0
 10
-146.845001
 20
-74.813431
 11
-146.845001
 21
-76.813431
  0
LINE
  8
0
 10
-145.345001
 20
-76.813431
 11
-145.345001
 21
-77.813431
  0
LINE
  8
0
  6
DASHED
 62
     2
 10
-148.845001
 20
-71.313431
 11
-154.345001
 21
-71.313431
  0
LINE
  8
0
  6
DASHED
 62
     2
 10
-148.845001
 20
-66.313431
 11
-154.345001
 21
-66.313431
  0
LINE
  8
0
 10
-144.345001
 20
-88.813431
 11
-166.345001
 21
-88.813431
  0
LINE
  8
0
 10
-166.345001
 20
-77.813431
 11
-166.345001
 21
-88.813431
  0
LINE
  8
0
 10
-165.345001
 20
-76.813431
 11
-165.345001
 21
-77.813431
  0
LINE
  8
0
  6
DASHED
 62
     2
 10
-153.244995
 20
-54.813431
 11
-153.244995
 21
-62.813431
  0
LINE
  8
0
  6
DASHED
 62
     2
 10
-157.445007
 20
-54.813431
 11
-157.445007
 21
-62.813431
  0
LINE
  8
0
  6
DASHED
 62
     2
 10
-148.845001
 20
-66.713432
 11
-154.345001
 21
-66.713432
  0
LINE
  8
0
  6
DASHED
 62
     2
 10
-148.845001
 20
-70.913429
 11
-154.345001
 21
-70.913429
  0
LINE
  8
0
  6
CENTER
 62
     2
 10
-77.535004
 20
-10.560062
 11
-77.535004
 21
-39.760139
  0
LINE
  8
0
  6
CENTER
 62
     2
 10
-62.531105
 20
-24.813431
 11
-92.033493
 21
-24.813431
  0
LINE
  8
0
  6
DASHED
 62
     2
 10
-70.035004
 20
-22.313431
 11
-76.535004
 21
-22.313431
  0
LINE
  8
0
  6
DASHED
 62
     2
 10
-70.035004
 20
-27.313431
 11
-76.535004
 21
-27.313431
  0
LINE
  8
0
  6
DASHED
 62
     2
 10
-70.035004
 20
-18.982479
 11
-70.035004
 21
-30.644382
  0
LINE
  8
0
  6
DASHED
 62
     2
 10
-70.035004
 20
-22.713432
 11
-76.535004
 21
-22.713432
  0
LINE
  8
0
  6
DASHED
 62
     2
 10
-70.035004
 20
-26.913429
 11
-76.535004
 21
-26.913429
  0
LINE
  8
0
  6
CENTER
 62
     2
 10
-77.535004
 20
-52.000931
 11
-77.535004
 21
-113.534576
  0
LINE
  8
0
 10
-68.535004
 20
-54.813431
 11
-86.535004
 21
-54.813431
  0
LINE
  8
0
 10
-67.035004
 20
-109.813431
 11
-88.035004
 21
-109.813431
  0
LINE
  8
0
 10
-90.035004
 20
-98.465065
 11
-90.035004
 21
-107.813431
  0
LINE
  8
0
 10
-65.035004
 20
-98.465073
 11
-65.035004
 21
-107.813431
  0
LINE
  8
0
 10
-65.928772
 20
-87.813431
 11
-65.073120
 21
-97.593513
  0
LINE
  8
0
 10
-89.141327
 20
-87.813431
 11
-89.996971
 21
-97.593498
  0
LINE
  8
0
 10
-65.035004
 20
-77.813431
 11
-65.035004
 21
-87.813431
  0
LINE
  8
0
 10
-66.535004
 20
-76.813431
 11
-88.535004
 21
-76.813431
  0
LINE
  8
0
 10
-65.035004
 20
-77.813431
 11
-90.035004
 21
-77.813431
  0
LINE
  8
0
 10
-68.035004
 20
-55.313431
 11
-68.035004
 21
-62.813431
  0
LINE
  8
0
 10
-87.035004
 20
-55.313431
 11
-87.035004
 21
-76.813431
  0
LINE
  8
0
 10
-86.534981
 20
-54.813431
 11
-87.035004
 21
-55.313446
  0
LINE
  8
0
 10
-68.534966
 20
-54.813412
 11
-68.034966
 21
-55.313412
  0
LINE
  8
0
  6
DASHED
 62
     2
 10
-75.035004
 20
-54.813431
 11
-75.035004
 21
-62.813431
  0
LINE
  8
0
  6
DASHED
 62
     2
 10
-80.035004
 20
-54.813431
 11
-80.035004
 21
-62.813431
  0
LINE
  8
0
 10
-70.035004
 20
-62.813431
 11
-70.035004
 21
-74.813431
  0
LINE
  8
0
  6
CENTER
 62
     2
 10
-66.779846
 20
-68.813431
 11
-78.186150
 21
-68.813431
  0
LINE
  8
0
 10
-68.035004
 20
-74.813431
 11
-70.035004
 21
-74.813431
  0
LINE
  8
0
 10
-68.035004
 20
-62.813431
 11
-70.035004
 21
-62.813431
  0
LINE
  8
0
 10
-68.035004
 20
-74.813431
 11
-68.035004
 21
-76.813431
  0
LINE
  8
0
 10
-66.535004
 20
-76.813431
 11
-66.535004
 21
-77.813431
  0
LINE
  8
0
  6
DASHED
 62
     2
 10
-70.035004
 20
-71.313431
 11
-76.535004
 21
-71.313431
  0
LINE
  8
0
  6
DASHED
 62
     2
 10
-70.035004
 20
-66.313431
 11
-76.535004
 21
-66.313431
  0
LINE
  8
0
 10
-90.035004
 20
-77.813431
 11
-90.035004
 21
-87.813431
  0
LINE
  8
0
 10
-88.535004
 20
-76.813431
 11
-88.535004
 21
-77.813431
  0
LINE
  8
0
 10
-65.035004
 20
-87.813431
 11
-90.035004
 21
-87.813431
  0
LINE
  8
0
  6
DASHED
 62
     2
 10
-75.435005
 20
-54.813431
 11
-75.435005
 21
-62.813431
  0
LINE
  8
0
  6
DASHED
 62
     2
 10
-79.635002
 20
-54.813431
 11
-79.635002
 21
-62.813431
  0
LINE
  8
0
  6
DASHED
 62
     2
 10
-70.035004
 20
-66.713432
 11
-76.535004
 21
-66.713432
  0
LINE
  8
0
  6
DASHED
 62
     2
 10
-70.035004
 20
-70.913429
 11
-76.535004
 21
-70.913429
  0
LINE
  8
0
  6
CENTER
 62
     2
 10
0.274994
 20
-6.313431
 11
0.274994
 21
-43.313427
  0
LINE
  8
0
  6
CENTER
 62
     2
 10
18.774994
 20
-24.813431
 11
-18.225006
 21
-24.813431
  0
LINE
  8
0
  6
DASHED
 62
     2
 10
9.274994
 20
-18.488869
 11
9.274994
 21
-31.137993
  0
LINE
  8
0
  6
DASHED
 62
     2
 10
9.274994
 20
-22.313431
 11
1.274994
 21
-22.313431
  0
LINE
  8
0
  6
DASHED
 62
     2
 10
9.274994
 20
-27.313431
 11
1.274994
 21
-27.313431
  0
LINE
  8
0
  6
DASHED
 62
     2
 10
9.274994
 20
-26.913429
 11
1.274994
 21
-26.913429
  0
LINE
  8
0
  6
DASHED
 62
     2
 10
9.274994
 20
-22.713430
 11
1.274994
 21
-22.713430
  0
LINE
  8
0
  6
CENTER
 62
     2
 10
0.274994
 20
-52.000931
 11
0.274994
 21
-121.437744
  0
LINE
  8
0
 10
10.774979
 20
-54.813431
 11
-10.225006
 21
-54.813431
  0
LINE
  8
0
 10
11.274994
 20
-55.313431
 11
11.274994
 21
-62.813431
  0
LINE
  8
0
 10
-10.725006
 20
-55.313431
 11
-10.725006
 21
-79.813431
  0
LINE
  8
0
 10
-10.225021
 20
-54.813427
 11
-10.725023
 21
-55.313427
  0
LINE
  8
0
 10
10.775025
 20
-54.813438
 11
11.275026
 21
-55.313438
  0
LINE
  8
0
  6
DASHED
 62
     2
 10
2.774994
 20
-54.813431
 11
2.774994
 21
-62.813431
  0
LINE
  8
0
  6
DASHED
 62
     2
 10
-2.225006
 20
-54.813431
 11
-2.225006
 21
-62.813431
  0
LINE
  8
0
  6
CENTER
 62
     2
 10
12.530167
 20
-69.813431
 11
-1.477592
 21
-69.813431
  0
LINE
  8
0
 10
11.274994
 20
-76.813431
 11
9.274994
 21
-76.813431
  0
LINE
  8
0
 10
11.274994
 20
-62.813431
 11
9.274994
 21
-62.813431
  0
LINE
  8
0
 10
11.274994
 20
-76.813431
 11
11.274994
 21
-79.813431
  0
LINE
  8
0
  6
DASHED
 62
     2
 10
9.274994
 20
-72.313431
 11
1.274994
 21
-72.313431
  0
LINE
  8
0
  6
DASHED
 62
     2
 10
9.274994
 20
-67.313431
 11
1.274994
 21
-67.313431
  0
LINE
  8
0
 10
9.274994
 20
-62.813431
 11
9.274994
 21
-76.813431
  0
LINE
  8
0
 10
12.774994
 20
-79.813431
 11
-12.225006
 21
-79.813431
  0
LINE
  8
0
 10
11.524994
 20
-118.813431
 11
-10.975006
 21
-118.813431
  0
LINE
  8
0
 10
13.774994
 20
-90.813431
 11
-13.225006
 21
-90.813431
  0
LINE
  8
0
 10
13.774994
 20
-80.813431
 11
-13.225006
 21
-80.813431
  0
LINE
  8
0
 10
13.774994
 20
-80.813431
 11
13.774994
 21
-90.813431
  0
LINE
  8
0
 10
13.774994
 20
-102.243484
 11
13.774994
 21
-116.563431
  0
LINE
  8
0
 10
12.774994
 20
-79.813431
 11
12.774994
 21
-80.813431
  0
LINE
  8
0
 10
12.775002
 20
-90.813431
 11
13.775002
 21
-102.243469
  0
LINE
  8
0
 10
-13.225006
 20
-80.813431
 11
-13.225006
 21
-90.813431
  0
LINE
  8
0
 10
-12.225006
 20
-79.813431
 11
-12.225006
 21
-80.813431
  0
LINE
  8
0
 10
-12.225007
 20
-90.813446
 11
-13.225005
 21
-102.243492
  0
LINE
  8
0
 10
-13.225006
 20
-102.243484
 11
-13.225006
 21
-116.563431
  0
LINE
  8
0
  6
DASHED
 62
     2
 10
9.274994
 20
-67.713432
 11
1.274994
 21
-67.713432
  0
LINE
  8
0
  6
DASHED
 62
     2
 10
9.274994
 20
-71.913429
 11
1.274994
 21
-71.913429
  0
LINE
  8
0
  6
DASHED
 62
     2
 10
2.374994
 20
-54.813431
 11
2.374994
 21
-62.813431
  0
LINE
  8
0
  6
DASHED
 62
     2
 10
-1.825006
 20
-54.813431
 11
-1.825006
 21
-62.813431
  0
LINE
  8
0
  6
CENTER
 62
     2
 10
78.084991
 20
-6.313431
 11
78.084991
 21
-43.313431
  0
LINE
  8
0
  6
CENTER
 62
     2
 10
96.584991
 20
-24.813431
 11
59.584991
 21
-24.813431
  0
LINE
  8
0
  6
DASHED
 62
     2
 10
88.084991
 20
-17.313423
 11
88.084991
 21
-32.313438
  0
LINE
  8
0
  6
DASHED
 62
     2
 10
80.084991
 20
-22.313431
 11
80.084991
 21
-27.313431
  0
LINE
  8
0
  6
DASHED
 62
     2
 10
88.084991
 20
-22.313431
 11
80.084991
 21
-22.313431
  0
LINE
  8
0
  6
DASHED
 62
     2
 10
88.084991
 20
-27.313431
 11
80.084991
 21
-27.313431
  0
LINE
  8
0
  6
DASHED
 62
     2
 10
88.084991
 20
-22.713430
 11
78.084991
 21
-22.713430
  0
LINE
  8
0
  6
DASHED
 62
     2
 10
88.084991
 20
-26.913431
 11
78.084991
 21
-26.913431
  0
LINE
  8
0
  6
CENTER
 62
     2
 10
78.084991
 20
-52.000931
 11
78.084991
 21
-132.170654
  0
LINE
  8
0
 10
90.084961
 20
-54.813431
 11
66.084991
 21
-54.813431
  0
LINE
  8
0
 10
90.584991
 20
-55.313454
 11
90.584991
 21
-65.813431
  0
LINE
  8
0
 10
65.584991
 20
-55.313431
 11
65.584991
 21
-84.813431
  0
LINE
  8
0
 10
66.084946
 20
-54.813393
 11
65.584946
 21
-55.313396
  0
LINE
  8
0
 10
90.084984
 20
-54.813450
 11
90.584991
 21
-55.313465
  0
LINE
  8
0
  6
DASHED
 62
     2
 10
80.584991
 20
-54.813431
 11
80.584991
 21
-62.813431
  0
LINE
  8
0
  6
DASHED
 62
     2
 10
75.584991
 20
-54.813431
 11
75.584991
 21
-62.813431
  0
LINE
  8
0
  6
CENTER
 62
     2
 10
91.340149
 20
-73.313431
 11
77.584991
 21
-73.313431
  0
LINE
  8
0
 10
90.584991
 20
-80.813431
 11
90.584991
 21
-84.813431
  0
LINE
  8
0
  6
DASHED
 62
     2
 10
88.084991
 20
-75.813431
 11
80.084991
 21
-75.813431
  0
LINE
  8
0
  6
DASHED
 62
     2
 10
88.084991
 20
-70.813431
 11
80.084991
 21
-70.813431
  0
LINE
  8
0
 10
88.084991
 20
-65.813431
 11
88.084991
 21
-80.813431
  0
LINE
  8
0
 10
90.584991
 20
-65.813431
 11
88.084991
 21
-65.813431
  0
LINE
  8
0
 10
90.584991
 20
-80.813431
 11
88.084991
 21
-80.813431
  0
LINE
  8
0
 10
91.584991
 20
-84.813431
 11
64.584991
 21
-84.813431
  0
LINE
  8
0
 10
90.334991
 20
-130.813431
 11
65.834999
 21
-130.813431
  0
LINE
  8
0
 10
92.584991
 20
-96.813431
 11
63.584991
 21
-96.813431
  0
LINE
  8
0
 10
92.584991
 20
-85.813431
 11
92.584991
 21
-96.813431
  0
LINE
  8
0
 10
63.584991
 20
-85.813431
 11
63.584991
 21
-96.813431
  0
LINE
  8
0
 10
64.584991
 20
-84.813431
 11
64.584991
 21
-85.813431
  0
LINE
  8
0
 10
91.584991
 20
-84.813431
 11
91.584991
 21
-85.813431
  0
LINE
  8
0
 10
92.584991
 20
-85.813431
 11
63.584991
 21
-85.813431
  0
LINE
  8
0
 10
92.584991
 20
-108.243477
 11
92.584991
 21
-128.563431
  0
LINE
  8
0
 10
91.585121
 20
-96.813408
 11
92.585121
 21
-108.243462
  0
LINE
  8
0
 10
64.585030
 20
-96.813431
 11
63.585033
 21
-108.243477
  0
LINE
  8
0
 10
63.584991
 20
-108.243477
 11
63.584991
 21
-128.563431
  0
LINE
  8
0
  6
DASHED
 62
     2
 10
80.184990
 20
-54.813431
 11
80.184990
 21
-62.813431
  0
LINE
  8
0
  6
DASHED
 62
     2
 10
75.984993
 20
-54.813431
 11
75.984993
 21
-62.813431
  0
LINE
  8
0
  6
DASHED
 62
     2
 10
88.084991
 20
-71.213432
 11
80.084991
 21
-71.213432
  0
LINE
  8
0
  6
DASHED
 62
     2
 10
88.084991
 20
-75.413429
 11
80.084991
 21
-75.413429
  0
LINE
  8
0
 10
-194.250000
 20
132.600006
 11
194.800003
 21
132.600006
  0
LINE
  8
0
 10
194.800003
 20
132.600006
 11
194.800003
 21
-133.500000
  0
LINE
  8
0
 10
-194.250000
 20
132.600006
 11
-194.250000
 21
-133.500000
  0
LINE
  8
0
 10
-194.250000
 20
-133.500000
 11
194.800003
 21
-133.500000
  0
LINE
  8
0
 10
109.800003
 20
-118.500000
 11
109.800003
 21
-133.500000
  0
LINE
  8
0
 10
109.800003
 20
-118.500000
 11
194.800003
 21
-118.500000
  0
LINE
  8
0
 10
109.800003
 20
132.600006
 11
109.800003
 21
117.600006
  0
LINE
  8
0
 10
109.800003
 20
117.600006
 11
194.800003
 21
117.600006
  0
LINE
  8
0
 10
-194.250000
 20
117.600006
 11
-104.250000
 21
117.600006
  0
LINE
  8
0
 10
-104.250000
 20
132.600006
 11
-104.250000
 21
117.600006
  0
LINE
  8
0
 10
-194.250000
 20
9.250000
 11
194.800003
 21
9.250000
  0
LINE
  8
0
 10
-116.440002
 20
117.600006
 11
-116.440002
 21
-133.500000
  0
LINE
  8
0
 10
-38.630005
 20
132.600006
 11
-38.630005
 21
-133.500000
  0
LINE
  8
0
 10
39.179993
 20
132.600006
 11
39.179993
 21
-133.500000
  0
LINE
  8
0
 10
116.989990
 20
117.600006
 11
116.989990
 21
9.250000
  0
CIRCLE
  8
0
 62
     2
 10
-155.345001
 20
88.367279
 40
1.500000
  0
CIRCLE
  8
0
 62
     2
 10
-155.345001
 20
88.367279
 40
2.699997
  0
CIRCLE
  8
0
 10
-155.345001
 20
88.367279
 40
3.000000
  0
CIRCLE
  8
0
 10
-155.345001
 20
88.367279
 40
4.000000
  0
CIRCLE
  8
0
 10
-155.345001
 20
88.367279
 40
3.500000
  0
CIRCLE
  8
0
 10
-155.345001
 20
88.367279
 40
1.250000
  0
ARC
  8
0
 10
-153.345001
 20
18.367287
 40
2.000000
 50
270.000000
 51
0.000000
  0
ARC
  8
0
 10
-157.345001
 20
18.367287
 40
2.000000
 50
180.000000
 51
270.000000
  0
ARC
  8
0
 10
-161.345001
 20
27.715645
 40
10.000000
 50
360.000000
 51
5.000022
  0
ARC
  8
0
 10
-149.345001
 20
27.715645
 40
9.999998
 50
174.999969
 51
180.000000
  0
CIRCLE
  8
0
 10
-77.535004
 20
88.367279
 40
3.500000
  0
CIRCLE
  8
0
 62
     2
 10
-77.535004
 20
88.367279
 40
1.500000
  0
CIRCLE
  8
0
 10
-77.535004
 20
88.367279
 40
3.000000
  0
CIRCLE
  8
0
 62
     2
 10
-77.535004
 20
88.367279
 40
2.500000
  0
CIRCLE
  8
0
 10
-77.535004
 20
88.367279
 40
1.250000
  0
CIRCLE
  8
0
 10
-77.535004
 20
88.367279
 40
4.750000
  0
CIRCLE
  8
0
 10
-77.535004
 20
88.367279
 40
4.000000
  0
ARC
  8
0
 10
-74.785004
 20
18.367287
 40
2.000000
 50
270.000000
 51
0.000000
  0
ARC
  8
0
 10
-80.285004
 20
18.367287
 40
2.000000
 50
180.000000
 51
270.000000
  0
ARC
  8
0
 10
-82.785004
 20
27.715645
 40
10.000000
 50
360.000000
 51
5.000022
  0
ARC
  8
0
 10
-72.285004
 20
27.715652
 40
9.999998
 50
174.999969
 51
180.000000
  0
CIRCLE
  8
0
 10
0.274994
 20
88.367279
 40
5.500000
  0
CIRCLE
  8
0
 10
0.274994
 20
88.367279
 40
4.500000
  0
CIRCLE
  8
0
 62
     2
 10
0.274994
 20
88.367279
 40
2.500000
  0
CIRCLE
  8
0
 10
0.274994
 20
88.367279
 40
4.000000
  0
CIRCLE
  8
0
 62
     2
 10
0.274994
 20
88.367279
 40
3.400000
  0
CIRCLE
  8
0
 10
0.274994
 20
88.367279
 40
2.099998
  0
CIRCLE
  8
0
 10
0.274994
 20
88.367279
 40
4.999998
  0
ARC
  8
0
 10
3.775000
 20
18.367287
 40
2.000000
 50
270.000000
 51
0.000000
  0
ARC
  8
0
 10
-3.225000
 20
18.367287
 40
2.000000
 50
180.000000
 51
270.000000
  0
ARC
  8
0
 10
-4.225000
 20
27.715645
 40
10.000000
 50
360.000000
 51
5.000021
  0
ARC
  8
0
 10
4.775000
 20
27.715652
 40
10.000000
 50
174.999969
 51
180.000000
  0
CIRCLE
  8
0
 10
78.084991
 20
88.367279
 40
6.000000
  0
CIRCLE
  8
0
 10
78.084991
 20
88.367279
 40
7.000000
  0
CIRCLE
  8
0
 62
     2
 10
78.084991
 20
88.367279
 40
2.500000
  0
CIRCLE
  8
0
 10
78.084991
 20
88.367279
 40
5.000000
  0
CIRCLE
  8
0
 10
78.084991
 20
88.367279
 40
2.100000
  0
ARC
  8
0
 10
83.084991
 20
17.367287
 40
2.000000
 50
270.000000
 51
0.000000
  0
ARC
  8
0
 10
73.084991
 20
17.367287
 40
2.000000
 50
180.000000
 51
270.000000
  0
ARC
  8
0
 10
75.084991
 20
26.715645
 40
10.000000
 50
360.000000
 51
5.000022
  0
ARC
  8
0
 10
81.084991
 20
26.715652
 40
9.999998
 50
174.999969
 51
180.000000
  0
CIRCLE
  8
0
 10
155.894989
 20
88.367279
 40
8.000000
  0
CIRCLE
  8
0
 10
155.894989
 20
88.367279
 40
9.500000
  0
CIRCLE
  8
0
 62
     2
 10
155.894989
 20
88.367279
 40
2.500000
  0
CIRCLE
  8
0
 10
155.894989
 20
88.367279
 40
7.000000
  0
CIRCLE
  8
0
 10
155.894989
 20
88.367279
 40
2.100000
  0
ARC
  8
0
 10
163.394989
 20
13.367287
 40
2.000000
 50
270.000000
 51
0.000000
  0
ARC
  8
0
 10
148.394989
 20
13.367287
 40
2.000000
 50
180.000031
 51
270.000000
  0
ARC
  8
0
 10
155.394989
 20
22.715645
 40
10.000000
 50
360.000000
 51
5.000022
  0
ARC
  8
0
 10
156.394989
 20
22.715645
 40
9.999999
 50
174.999908
 51
179.999939
  0
CIRCLE
  8
0
 62
     2
 10
-155.345001
 20
-24.813431
 40
2.500000
  0
CIRCLE
  8
0
 10
-155.345001
 20
-24.813431
 40
8.500000
  0
CIRCLE
  8
0
 10
-155.345001
 20
-24.813431
 40
10.000000
  0
CIRCLE
  8
0
 10
-155.345001
 20
-24.813431
 40
11.000000
  0
CIRCLE
  8
0
 10
-155.345001
 20
-24.813431
 40
2.100000
  0
ARC
  8
0
 10
-146.345001
 20
-108.813431
 40
2.000000
 50
270.000000
 51
0.000000
  0
ARC
  8
0
 10
-164.345001
 20
-108.813431
 40
2.000000
 50
180.000000
 51
270.000000
  0
ARC
  8
0
 10
-154.345001
 20
-99.465073
 40
10.000000
 50
0.000000
 51
5.000011
  0
ARC
  8
0
 10
-156.345001
 20
-99.465073
 40
9.999999
 50
174.999908
 51
179.999954
  0
CIRCLE
  8
0
 62
     2
 10
-77.535004
 20
-24.813431
 40
2.500000
  0
CIRCLE
  8
0
 10
-77.535004
 20
-24.813431
 40
9.500000
  0
CIRCLE
  8
0
 10
-77.535004
 20
-24.813431
 40
11.000000
  0
CIRCLE
  8
0
 10
-77.535004
 20
-24.813431
 40
12.500000
  0
CIRCLE
  8
0
 10
-77.535004
 20
-24.813431
 40
2.100000
  0
ARC
  8
0
 10
-67.035004
 20
-107.813431
 40
2.000000
 50
270.000000
 51
0.000000
  0
ARC
  8
0
 10
-88.035004
 20
-107.813431
 40
2.000000
 50
180.000000
 51
270.000000
  0
ARC
  8
0
 10
-75.035004
 20
-98.465073
 40
10.000000
 50
0.000000
 51
5.000011
  0
ARC
  8
0
 10
-80.035004
 20
-98.465073
 40
9.999999
 50
174.999908
 51
179.999954
  0
CIRCLE
  8
0
 10
0.274994
 20
-24.813431
 40
12.000000
  0
CIRCLE
  8
0
 10
0.274994
 20
-24.813431
 40
13.500000
  0
CIRCLE
  8
0
 62
     2
 10
0.274994
 20
-24.813431
 40
2.500000
  0
CIRCLE
  8
0
 10
0.274994
 20
-24.813431
 40
11.000000
  0
CIRCLE
  8
0
 10
0.274994
 20
-24.813431
 40
2.100000
  0
ARC
  8
0
 10
11.524994
 20
-116.563431
 40
2.250000
 50
270.000000
 51
0.000000
  0
ARC
  8
0
 10
-10.975006
 20
-116.563431
 40
2.250000
 50
180.000000
 51
269.999939
  0
CIRCLE
  8
0
 10
78.084991
 20
-24.813431
 40
13.500000
  0
CIRCLE
  8
0
 10
78.084991
 20
-24.813431
 40
14.500000
  0
CIRCLE
  8
0
 62
     2
 10
78.084991
 20
-24.813431
 40
2.500000
  0
CIRCLE
  8
0
 10
78.084991
 20
-24.813431
 40
12.500000
  0
CIRCLE
  8
0
 10
78.084991
 20
-24.813431
 40
2.100000
  0
ARC
  8
0
 10
90.334991
 20
-128.563431
 40
2.250000
 50
270.000000
 51
0.000000
  0
ARC
  8
0
 10
65.834999
 20
-128.563431
 40
2.250000
 50
180.000000
 51
270.000000
  0
TEXT
  8
0
 10
133.907150
 20
122.050003
 40
4.500000
  1
Ver. 1.0
 50
0.000000
 41
1.052631
 51
0.000000
  7
STANDARD
  0
TEXT
  8
0
 10
113.700279
 20
-130.669998
 40
6.300000
  1
KOGANEI CORP.
 50
0.000000
 41
1.052632
 51
0.000000
  7
STANDARD
  0
TEXT
  8
0
 10
-174.392654
 20
122.050003
 40
4.500000
  1
RUBBER HAND
 50
0.000000
 41
1.052632
 51
0.000000
  7
STANDARD
  0
TEXT
  8
0
 10
-186.892853
 20
104.550003
 40
4.500000
  1
MODEL:RBP006RCA
 50
0.000000
 41
1.052632
 51
0.000000
  7
STANDARD
  0
TEXT
  8
0
 10
-109.082855
 20
104.550003
 40
4.500000
  1
MODEL:RBP007RCA
 50
0.000000
 41
1.052632
 51
0.000000
  7
STANDARD
  0
TEXT
  8
0
 10
-31.272861
 20
104.550003
 40
4.500000
  1
MODEL:RBP009RCA
 50
0.000000
 41
1.052632
 51
0.000000
  7
STANDARD
  0
TEXT
  8
0
 10
46.537136
 20
104.550003
 40
4.500000
  1
MODEL:RBP010RCA
 50
0.000000
 41
1.052632
 51
0.000000
  7
STANDARD
  0
TEXT
  8
0
 10
124.347137
 20
104.550003
 40
4.500000
  1
MODEL:RBP014RCA
 50
0.000000
 41
1.052632
 51
0.000000
  7
STANDARD
  0
TEXT
  8
0
 10
46.537136
 20
-3.800000
 40
4.500000
  1
MODEL:RBP025RCA
 50
0.000000
 41
1.052632
 51
0.000000
  7
STANDARD
  0
TEXT
  8
0
 10
-186.892853
 20
-3.800000
 40
4.500000
  1
MODE:RBP017RCA
 50
0.000000
 41
1.052632
 51
0.000000
  7
STANDARD
  0
TEXT
  8
0
 10
-109.082855
 20
-3.800000
 40
4.500000
  1
MODEL:RBP019RCA
 50
0.000000
 41
1.052632
 51
0.000000
  7
STANDARD
  0
TEXT
  8
0
 10
-31.272861
 20
-3.800000
 40
4.500000
  1
MODEL:RBP022RCA
 50
0.000000
 41
1.052632
 51
0.000000
  7
STANDARD
  0
ENDSEC
  0
EOF
