  0
SECTION
  2
HEADER
  9
$ACADVER
  1
AC1012
  9
$DWGCODEPAGE
  3
dos932
  9
$INSBASE
 10
0.0
 20
0.0
 30
0.0
  9
$EXTMIN
 10
-281.2681908225806
 20
-195.0129162660985
 30
-0.0015258207003583
  9
$EXTMAX
 10
283.1495755000714
 20
195.5129180845152
 30
0.0000000349246037
  9
$LIMMIN
 10
-281.2509999999999
 20
-195.0009999999999
  9
$LIMMAX
 10
282.100854
 20
195.501
  9
$ORTHOMODE
 70
     0
  9
$REGENMODE
 70
     1
  9
$FILLMODE
 70
     1
  9
$QTEXTMODE
 70
     0
  9
$MIRRTEXT
 70
     1
  9
$DRAGMODE
 70
     2
  9
$LTSCALE
 40
9.38916423
  9
$OSMODE
 70
    37
  9
$ATTMODE
 70
     1
  9
$TEXTSIZE
 40
0.2
  9
$TRACEWID
 40
0.05
  9
$TEXTSTYLE
  7
STANDARD
  9
$CLAYER
  8
0
  9
$CELTYPE
  6
CONTINUOUS
  9
$CECOLOR
 62
   256
  9
$CELTSCALE
 40
1.0
  9
$DELOBJ
 70
     1
  9
$DISPSILH
 70
     0
  9
$DIMSCALE
 40
1.0
  9
$DIMASZ
 40
0.18
  9
$DIMEXO
 40
0.0625
  9
$DIMDLI
 40
0.38
  9
$DIMRND
 40
0.0
  9
$DIMDLE
 40
0.0
  9
$DIMEXE
 40
0.18
  9
$DIMTP
 40
0.0
  9
$DIMTM
 40
0.0
  9
$DIMTXT
 40
0.18
  9
$DIMCEN
 40
0.09
  9
$DIMTSZ
 40
0.0
  9
$DIMTOL
 70
     0
  9
$DIMLIM
 70
     0
  9
$DIMTIH
 70
     1
  9
$DIMTOH
 70
     1
  9
$DIMSE1
 70
     0
  9
$DIMSE2
 70
     0
  9
$DIMTAD
 70
     0
  9
$DIMZIN
 70
     0
  9
$DIMBLK
  1

  9
$DIMASO
 70
     1
  9
$DIMSHO
 70
     1
  9
$DIMPOST
  1

  9
$DIMAPOST
  1

  9
$DIMALT
 70
     0
  9
$DIMALTD
 70
     2
  9
$DIMALTF
 40
25.4
  9
$DIMLFAC
 40
1.0
  9
$DIMTOFL
 70
     0
  9
$DIMTVP
 40
0.0
  9
$DIMTIX
 70
     0
  9
$DIMSOXD
 70
     0
  9
$DIMSAH
 70
     0
  9
$DIMBLK1
  1

  9
$DIMBLK2
  1

  9
$DIMSTYLE
  2
STANDARD
  9
$DIMCLRD
 70
     0
  9
$DIMCLRE
 70
     0
  9
$DIMCLRT
 70
     0
  9
$DIMTFAC
 40
1.0
  9
$DIMGAP
 40
0.09
  9
$DIMJUST
 70
     0
  9
$DIMSD1
 70
     0
  9
$DIMSD2
 70
     0
  9
$DIMTOLJ
 70
     1
  9
$DIMTZIN
 70
     0
  9
$DIMALTZ
 70
     0
  9
$DIMALTTZ
 70
     0
  9
$DIMFIT
 70
     3
  9
$DIMUPT
 70
     0
  9
$DIMUNIT
 70
     2
  9
$DIMDEC
 70
     4
  9
$DIMTDEC
 70
     4
  9
$DIMALTU
 70
     2
  9
$DIMALTTD
 70
     2
  9
$DIMTXSTY
  7
STANDARD
  9
$DIMAUNIT
 70
     0
  9
$LUNITS
 70
     2
  9
$LUPREC
 70
     4
  9
$SKETCHINC
 40
0.1
  9
$FILLETRAD
 40
0.0
  9
$AUNITS
 70
     0
  9
$AUPREC
 70
     0
  9
$MENU
  1
.
  9
$ELEVATION
 40
0.0
  9
$PELEVATION
 40
0.0
  9
$THICKNESS
 40
0.0
  9
$LIMCHECK
 70
     0
  9
$BLIPMODE
 70
     0
  9
$CHAMFERA
 40
0.0
  9
$CHAMFERB
 40
0.0
  9
$CHAMFERC
 40
0.0
  9
$CHAMFERD
 40
0.0
  9
$SKPOLY
 70
     0
  9
$TDCREATE
 40
2451905.685976631
  9
$TDUPDATE
 40
2451905.685994710
  9
$TDINDWG
 40
0.0000185417
  9
$TDUSRTIMER
 40
0.0000185417
  9
$USRTIMER
 70
     1
  9
$ANGBASE
 50
0.0
  9
$ANGDIR
 70
     0
  9
$PDMODE
 70
     0
  9
$PDSIZE
 40
0.0
  9
$PLINEWID
 40
0.0
  9
$COORDS
 70
     0
  9
$SPLFRAME
 70
     0
  9
$SPLINETYPE
 70
     6
  9
$SPLINESEGS
 70
     8
  9
$ATTDIA
 70
     0
  9
$ATTREQ
 70
     1
  9
$HANDLING
 70
 10241
  9
$HANDSEED
  5
426
  9
$SURFTAB1
 70
     6
  9
$SURFTAB2
 70
     6
  9
$SURFTYPE
 70
     6
  9
$SURFU
 70
     6
  9
$SURFV
 70
     6
  9
$UCSNAME
  2

  9
$UCSORG
 10
0.0
 20
0.0
 30
0.0
  9
$UCSXDIR
 10
1.0
 20
0.0
 30
0.0
  9
$UCSYDIR
 10
0.0
 20
1.0
 30
0.0
  9
$PUCSNAME
  2

  9
$PUCSORG
 10
0.0
 20
0.0
 30
0.0
  9
$PUCSXDIR
 10
1.0
 20
0.0
 30
0.0
  9
$PUCSYDIR
 10
0.0
 20
1.0
 30
0.0
  9
$USERI1
 70
     0
  9
$USERI2
 70
     0
  9
$USERI3
 70
     0
  9
$USERI4
 70
     0
  9
$USERI5
 70
     0
  9
$USERR1
 40
0.0
  9
$USERR2
 40
0.0
  9
$USERR3
 40
0.0
  9
$USERR4
 40
0.0
  9
$USERR5
 40
0.0
  9
$WORLDVIEW
 70
     1
  9
$SHADEDGE
 70
     3
  9
$SHADEDIF
 70
    70
  9
$TILEMODE
 70
     1
  9
$MAXACTVP
 70
    64
  9
$PINSBASE
 10
0.0
 20
0.0
 30
0.0
  9
$PLIMCHECK
 70
     0
  9
$PEXTMIN
 10
1.000000000000000E+20
 20
1.000000000000000E+20
 30
1.000000000000000E+20
  9
$PEXTMAX
 10
-1.000000000000000E+20
 20
-1.000000000000000E+20
 30
-1.000000000000000E+20
  9
$PLIMMIN
 10
0.0
 20
0.0
  9
$PLIMMAX
 10
12.0
 20
9.0
  9
$UNITMODE
 70
     0
  9
$VISRETAIN
 70
     1
  9
$PLINEGEN
 70
     0
  9
$PSLTSCALE
 70
     1
  9
$TREEDEPTH
 70
  3020
  9
$PICKSTYLE
 70
     1
  9
$CMLSTYLE
  2
STANDARD
  9
$CMLJUST
 70
     0
  9
$CMLSCALE
 40
1.0
  9
$SAVEIMAGES
 70
     1
  0
ENDSEC
  0
SECTION
  2
CLASSES
  0
CLASS
  1
ACDBDICTIONARYWDFLT
  2
AcDbDictionaryWithDefault
  3
AutoCAD 2000
 90
    32768
280
     0
281
     0
  0
CLASS
  1
ACDBPLACEHOLDER
  2
AcDbPlaceHolder
  3
AutoCAD 2000
 90
    32768
280
     0
281
     0
  0
CLASS
  1
LAYOUT
  2
AcDbLayout
  3
AutoCAD 2000
 90
    32768
280
     0
281
     0
  0
CLASS
  1
LONG_TRANSACTION
  2
AcDbLongTransaction
  3
AutoCAD 2000
 90
    32768
280
     0
281
     0
  0
CLASS
  1
LWPOLYLINE
  2
AcDbPolyline
  3
AutoCAD 2000
 90
    32768
280
     0
281
     1
  0
CLASS
  1
HATCH
  2
AcDbHatch
  3
AutoCAD 2000
 90
    32768
280
     0
281
     1
  0
CLASS
  1
XRECORD
  2
AcDbXrecord
  3
AutoCAD 2000
 90
    32768
280
     0
281
     0
  0
ENDSEC
  0
SECTION
  2
TABLES
  0
TABLE
  2
VPORT
  5
8
330
0
100
AcDbSymbolTable
 70
     3
  0
VPORT
  5
371
330
8
100
AcDbSymbolTableRecord
100
AcDbViewportTableRecord
  2
*ACTIVE
 70
     0
 10
0.0
 20
0.0
 11
1.0
 21
1.0
 12
0.9406923387454497
 22
0.2500009092083815
 13
0.0
 23
0.0
 14
1.0
 24
1.0
 15
0.0
 25
0.0
 16
0.0
 26
0.0
 36
1.0
 17
0.0
 27
0.0
 37
0.0
 40
394.8410369401233
 41
1.750922509225092
 42
50.0
 43
0.0
 44
0.0
 50
0.0
 51
0.0
 71
     0
 72
   100
 73
     1
 74
     1
 75
     0
 76
     0
 77
     0
 78
     0
  0
ENDTAB
  0
TABLE
  2
LTYPE
  5
5
330
0
100
AcDbSymbolTable
 70
     5
  0
LTYPE
  5
13
330
5
100
AcDbSymbolTableRecord
100
AcDbLinetypeTableRecord
  2
BYBLOCK
 70
     0
  3

 72
    65
 73
     0
 40
0.0
  0
LTYPE
  5
14
330
5
100
AcDbSymbolTableRecord
100
AcDbLinetypeTableRecord
  2
BYLAYER
 70
     0
  3

 72
    65
 73
     0
 40
0.0
  0
LTYPE
  5
15
330
5
100
AcDbSymbolTableRecord
100
AcDbLinetypeTableRecord
  2
CONTINUOUS
 70
     0
  3
Solid-Line
 72
    65
 73
     0
 40
0.0
  0
LTYPE
  5
22
330
5
100
AcDbSymbolTableRecord
100
AcDbLinetypeTableRecord
  2
DASHED
 70
     0
  3
DASHED
 72
    65
 73
     2
 40
0.75
 49
0.5
 74
     0
 49
-0.25
 74
     0
  0
LTYPE
  5
23
330
5
100
AcDbSymbolTableRecord
100
AcDbLinetypeTableRecord
  2
HIDDEN
 70
     0
  3
HIDDEN
 72
    65
 73
     2
 40
0.375
 49
0.25
 74
     0
 49
-0.125
 74
     0
  0
LTYPE
  5
24
330
5
100
AcDbSymbolTableRecord
100
AcDbLinetypeTableRecord
  2
CENTER
 70
     0
  3
CENTER
 72
    65
 73
     4
 40
2.0
 49
1.25
 74
     0
 49
-0.25
 74
     0
 49
0.25
 74
     0
 49
-0.25
 74
     0
  0
LTYPE
  5
25
330
5
100
AcDbSymbolTableRecord
100
AcDbLinetypeTableRecord
  2
PHANTOM
 70
     0
  3
PHANTOM
 72
    65
 73
     6
 40
2.5
 49
1.25
 74
     0
 49
-0.25
 74
     0
 49
0.25
 74
     0
 49
-0.25
 74
     0
 49
0.25
 74
     0
 49
-0.25
 74
     0
  0
ENDTAB
  0
TABLE
  2
LAYER
  5
2
330
0
100
AcDbSymbolTable
 70
     1
  0
LAYER
  5
10
330
2
100
AcDbSymbolTableRecord
100
AcDbLayerTableRecord
  2
0
 70
     0
 62
     7
  6
CONTINUOUS
  0
ENDTAB
  0
TABLE
  2
STYLE
  5
3
330
0
100
AcDbSymbolTable
 70
     3
  0
STYLE
  5
11
330
3
100
AcDbSymbolTableRecord
100
AcDbTextStyleTableRecord
  2
STANDARD
 70
     0
 40
0.0
 41
1.0
 50
0.0
 71
     0
 42
0.2
  3
txt
  4

  0
STYLE
  5
26
330
3
100
AcDbSymbolTableRecord
100
AcDbTextStyleTableRecord
  2
MONOTXT
 70
     0
 40
0.0
 41
1.0
 50
0.0
 71
     0
 42
0.2
  3
monotxt
  4

  0
STYLE
  5
27
330
3
100
AcDbSymbolTableRecord
100
AcDbTextStyleTableRecord
  2
BIGFONT
 70
     0
 40
0.0
 41
1.0
 50
0.0
 71
     0
 42
0.2
  3
txt
  4
bigfont
  0
ENDTAB
  0
TABLE
  2
VIEW
  5
6
330
0
100
AcDbSymbolTable
 70
     0
  0
ENDTAB
  0
TABLE
  2
UCS
  5
7
330
0
100
AcDbSymbolTable
 70
     0
  0
ENDTAB
  0
TABLE
  2
APPID
  5
9
330
0
100
AcDbSymbolTable
 70
     1
  0
APPID
  5
12
330
9
100
AcDbSymbolTableRecord
100
AcDbRegAppTableRecord
  2
ACAD
 70
     0
  0
ENDTAB
  0
TABLE
  2
DIMSTYLE
  5
A
330
0
100
AcDbSymbolTable
 70
     1
  0
DIMSTYLE
105
28A
330
A
100
AcDbSymbolTableRecord
100
AcDbDimStyleTableRecord
  2
STANDARD
 70
     0
  3

  4

  5

  6

  7

 40
1.0
 41
0.18
 42
0.0625
 43
0.38
 44
0.18
 45
0.0
 46
0.0
 47
0.0
 48
0.0
140
0.18
141
0.09
142
0.0
143
25.4
144
1.0
145
0.0
146
1.0
147
0.09
 71
     0
 72
     0
 73
     1
 74
     1
 75
     0
 76
     0
 77
     0
 78
     0
170
     0
171
     2
172
     0
173
     0
174
     0
175
     0
176
     0
177
     0
178
     0
270
     2
271
     4
272
     4
273
     2
274
     2
340
11
275
     0
280
     0
281
     0
282
     0
283
     1
284
     0
285
     0
286
     0
287
     3
288
     0
  0
ENDTAB
  0
TABLE
  2
BLOCK_RECORD
  5
1
330
0
100
AcDbSymbolTable
 70
     0
  0
BLOCK_RECORD
  5
1E
102
{ACAD_XDICTIONARY
360
374
102
}
330
1
100
AcDbSymbolTableRecord
100
AcDbBlockTableRecord
  2
*MODEL_SPACE
  0
BLOCK_RECORD
  5
1A
102
{ACAD_XDICTIONARY
360
372
102
}
330
1
100
AcDbSymbolTableRecord
100
AcDbBlockTableRecord
  2
*PAPER_SPACE
  0
ENDTAB
  0
ENDSEC
  0
SECTION
  2
BLOCKS
  0
BLOCK
  5
1F
330
1E
100
AcDbEntity
  8
0
100
AcDbBlockBegin
  2
*MODEL_SPACE
 70
     0
 10
0.0
 20
0.0
 30
0.0
  3
*MODEL_SPACE
  1

  0
ENDBLK
  5
20
330
1E
100
AcDbEntity
  8
0
100
AcDbBlockEnd
  0
BLOCK
  5
1B
330
1A
100
AcDbEntity
 67
     1
  8
0
100
AcDbBlockBegin
  2
*PAPER_SPACE
 70
     0
 10
0.0
 20
0.0
 30
0.0
  3
*PAPER_SPACE
  1

  0
ENDBLK
  5
1C
330
1A
100
AcDbEntity
 67
     1
  8
0
100
AcDbBlockEnd
  0
ENDSEC
  0
SECTION
  2
ENTITIES
  0
LINE
  5
2C
330
1E
100
AcDbEntity
  8
0
  6
CENTER
 62
     2
100
AcDbLine
 10
-74.0
 20
-18.5
 30
0.0
 11
-66.0
 21
-18.5
 31
0.0
  0
LINE
  5
2D
330
1E
100
AcDbEntity
  8
0
 62
     7
100
AcDbLine
 10
-68.0
 20
-16.5
 30
0.0
 11
-68.0
 21
-18.5
 31
0.0
  0
LINE
  5
2E
330
1E
100
AcDbEntity
  8
0
 62
     7
100
AcDbLine
 10
-72.0
 20
-16.5
 30
0.0
 11
-72.0
 21
-18.5
 31
0.0
  0
ARC
  5
2F
330
1E
100
AcDbEntity
  8
0
 62
     7
100
AcDbCircle
 10
-70.0
 20
-18.5
 30
0.0
 40
2.0
100
AcDbArc
 50
180.0
 51
0.0
  0
ARC
  5
30
330
1E
100
AcDbEntity
  8
0
 62
     7
100
AcDbCircle
 10
-70.0
 20
-16.5
 30
0.0
 40
2.0
100
AcDbArc
 50
0.0
 51
180.0
  0
LINE
  5
31
330
1E
100
AcDbEntity
  8
0
  6
CENTER
 62
     2
100
AcDbLine
 10
-74.0
 20
-16.5
 30
0.0
 11
-66.0
 21
-16.5
 31
0.0
  0
LINE
  5
32
330
1E
100
AcDbEntity
  8
0
 62
     7
100
AcDbLine
 10
-70.0
 20
-25.0
 30
0.0
 11
-43.5
 21
-25.0
 31
0.0
  0
LINE
  5
33
330
1E
100
AcDbEntity
  8
0
 62
     7
100
AcDbLine
 10
-70.0
 20
25.0
 30
0.0
 11
-43.5
 21
25.0
 31
0.0
  0
CIRCLE
  5
34
330
1E
100
AcDbEntity
  8
0
 62
     7
100
AcDbCircle
 10
-70.0
 20
0.0
 30
0.0
 40
25.0
  0
CIRCLE
  5
35
330
1E
100
AcDbEntity
  8
0
 62
     7
100
AcDbCircle
 10
-70.0
 20
0.0
 30
0.0
 40
24.5
  0
CIRCLE
  5
36
330
1E
100
AcDbEntity
  8
0
 62
     7
100
AcDbCircle
 10
-70.0
 20
-32.0
 30
0.0
 40
2.6
  0
LINE
  5
37
330
1E
100
AcDbEntity
  8
0
  6
CENTER
 62
     2
100
AcDbLine
 10
-74.59999999999999
 20
-32.0
 30
0.0
 11
-65.4
 21
-32.0
 31
0.0
  0
CIRCLE
  5
38
330
1E
100
AcDbEntity
  8
0
 62
     7
100
AcDbCircle
 10
-70.0
 20
32.0
 30
0.0
 40
2.6
  0
LINE
  5
39
330
1E
100
AcDbEntity
  8
0
  6
CENTER
 62
     2
100
AcDbLine
 10
-74.59999999999999
 20
32.0
 30
0.0
 11
-65.4
 21
32.0
 31
0.0
  0
CIRCLE
  5
3A
330
1E
100
AcDbEntity
  8
0
 62
     7
100
AcDbCircle
 10
-70.0
 20
0.0
 30
0.0
 40
7.0
  0
LINE
  5
3B
330
1E
100
AcDbEntity
  8
0
 62
     7
100
AcDbLine
 10
-45.0
 20
25.0
 30
0.0
 11
-45.0
 21
38.0
 31
0.0
  0
LINE
  5
3C
330
1E
100
AcDbEntity
  8
0
 62
     7
100
AcDbLine
 10
-95.0
 20
38.0000076
 30
0.0
 11
-95.0
 21
-38.0
 31
0.0
  0
LINE
  5
3D
330
1E
100
AcDbEntity
  8
0
 62
     7
100
AcDbLine
 10
-45.0
 20
-38.0000076
 30
0.0
 11
-45.0
 21
-25.0
 31
0.0
  0
CIRCLE
  5
3E
330
1E
100
AcDbEntity
  8
0
 62
     7
100
AcDbCircle
 10
-82.37435299999999
 20
12.3743843
 30
0.0
 40
1.649999999999999
  0
LINE
  5
3F
330
1E
100
AcDbEntity
  8
0
  6
CENTER
 62
     2
100
AcDbLine
 10
-85.2027791
 20
15.2028106
 30
0.0
 11
-79.54592509999999
 21
9.545956119999999
 31
0.0
  0
CIRCLE
  5
40
330
1E
100
AcDbEntity
  8
0
 62
     2
100
AcDbCircle
 10
-82.37435340000001
 20
12.374382
 30
0.0
 40
2.0
  0
CIRCLE
  5
41
330
1E
100
AcDbEntity
  8
0
 62
     7
100
AcDbCircle
 10
-87.5
 20
0.0
 30
0.0
 40
2.1
  0
CIRCLE
  5
42
330
1E
100
AcDbEntity
  8
0
 62
     2
100
AcDbCircle
 10
-87.5
 20
0.0
 30
0.0
 40
2.5
  0
CIRCLE
  5
43
330
1E
100
AcDbEntity
  8
0
  6
CENTER
 62
     2
100
AcDbCircle
 10
-70.0
 20
0.0
 30
0.0
 40
17.5
  0
CIRCLE
  5
44
330
1E
100
AcDbEntity
  8
0
 62
     7
100
AcDbCircle
 10
-82.3743843
 20
-12.374353
 30
0.0
 40
1.649999999999999
  0
LINE
  5
45
330
1E
100
AcDbEntity
  8
0
  6
CENTER
 62
     2
100
AcDbLine
 10
-85.2028106
 20
-15.20277909999999
 30
0.0
 11
-79.5459561
 21
-9.54592506
 31
0.0
  0
CIRCLE
  5
46
330
1E
100
AcDbEntity
  8
0
 62
     2
100
AcDbCircle
 10
-82.37438199999999
 20
-12.3743534
 30
0.0
 40
2.0
  0
CIRCLE
  5
47
330
1E
100
AcDbEntity
  8
0
 62
     7
100
AcDbCircle
 10
-57.625647
 20
-12.3743843
 30
0.0
 40
1.649999999999999
  0
LINE
  5
48
330
1E
100
AcDbEntity
  8
0
  6
CENTER
 62
     2
100
AcDbLine
 10
-54.7972209
 20
-15.2028106
 30
0.0
 11
-60.45407489999999
 21
-9.545956119999999
 31
0.0
  0
CIRCLE
  5
49
330
1E
100
AcDbEntity
  8
0
 62
     2
100
AcDbCircle
 10
-57.6256466
 20
-12.374382
 30
0.0
 40
2.0
  0
CIRCLE
  5
4A
330
1E
100
AcDbEntity
  8
0
 62
     7
100
AcDbCircle
 10
-57.62561569999999
 20
12.374353
 30
0.0
 40
1.649999999999999
  0
LINE
  5
4B
330
1E
100
AcDbEntity
  8
0
  6
CENTER
 62
     2
100
AcDbLine
 10
-54.7971894
 20
15.20277909999999
 30
0.0
 11
-60.4540439
 21
9.54592506
 31
0.0
  0
CIRCLE
  5
4C
330
1E
100
AcDbEntity
  8
0
 62
     2
100
AcDbCircle
 10
-57.625618
 20
12.3743534
 30
0.0
 40
2.0
  0
CIRCLE
  5
4D
330
1E
100
AcDbEntity
  8
0
 62
     7
100
AcDbCircle
 10
-70.0
 20
17.5
 30
0.0
 40
2.1
  0
CIRCLE
  5
4E
330
1E
100
AcDbEntity
  8
0
 62
     2
100
AcDbCircle
 10
-70.0
 20
17.5
 30
0.0
 40
2.5
  0
LINE
  5
4F
330
1E
100
AcDbEntity
  8
0
  6
CENTER
 62
     2
100
AcDbLine
 10
-70.0
 20
-42.0
 30
0.0
 11
-70.0
 21
42.0
 31
0.0
  0
ARC
  5
50
330
1E
100
AcDbEntity
  8
0
 62
     7
100
AcDbCircle
 10
-40.94416810000001
 20
-13.16989519999999
 30
0.0
 40
2.555816169999999
100
AcDbArc
 50
145.6156339999999
 51
214.384356
  0
ARC
  5
51
330
1E
100
AcDbEntity
  8
0
 62
     7
100
AcDbCircle
 10
-40.94416810000001
 20
-21.83009719999999
 30
0.0
 40
2.555816169999999
100
AcDbArc
 50
145.615662
 51
214.384383
  0
ARC
  5
52
330
1E
100
AcDbEntity
  8
0
 62
     7
100
AcDbCircle
 10
-33.9465942
 20
-17.4999733
 30
0.0
 40
9.55339146
100
AcDbArc
 50
162.4120259999999
 51
197.5880459999999
  0
ARC
  5
53
330
1E
100
AcDbEntity
  8
0
 62
     7
100
AcDbCircle
 10
-44.0558014
 20
-13.16989519999999
 30
0.0
 40
2.555816169999999
100
AcDbArc
 50
325.6156799999999
 51
34.3844017
  0
ARC
  5
54
330
1E
100
AcDbEntity
  8
0
 62
     7
100
AcDbCircle
 10
-51.05339050000001
 20
-17.4999733
 30
0.0
 40
9.55339146
100
AcDbArc
 50
342.4119899999999
 51
17.5880103
  0
ARC
  5
55
330
1E
100
AcDbEntity
  8
0
 62
     7
100
AcDbCircle
 10
-44.0558167
 20
-21.83009719999999
 30
0.0
 40
2.555816169999999
100
AcDbArc
 50
325.6156529999999
 51
34.38437439999999
  0
LINE
  5
56
330
1E
100
AcDbEntity
  8
0
 62
     7
100
AcDbLine
 10
-43.0533777
 20
-11.7265348
 30
0.0
 11
-43.4999491
 21
-12.50001909999999
 31
0.0
  0
LINE
  5
57
330
1E
100
AcDbEntity
  8
0
 62
     7
100
AcDbLine
 10
-43.05338309999999
 20
-23.27346879999999
 30
0.0
 11
-43.49996979999999
 21
-22.4999581
 31
0.0
  0
LINE
  5
58
330
1E
100
AcDbEntity
  8
0
 62
     7
100
AcDbLine
 10
-41.94654179999999
 20
-11.7265095
 30
0.0
 11
-41.4999552
 21
-12.5000201
 31
0.0
  0
LINE
  5
59
330
1E
100
AcDbEntity
  8
0
 62
     7
100
AcDbLine
 10
-41.94655329999999
 20
-23.2734778
 30
0.0
 11
-41.4999667
 21
-22.4999671
 31
0.0
  0
LINE
  5
5A
330
1E
100
AcDbEntity
  8
0
 62
     7
100
AcDbLine
 10
-43.0533447
 20
-11.7264557
 30
0.0
 11
-41.9465637
 21
-11.7264557
 31
0.0
  0
LINE
  5
5B
330
1E
100
AcDbEntity
  8
0
 62
     7
100
AcDbLine
 10
-43.0533905
 20
-14.613205
 30
0.0
 11
-41.9465637
 21
-14.613205
 31
0.0
  0
LINE
  5
5C
330
1E
100
AcDbEntity
  8
0
 62
     7
100
AcDbLine
 10
-43.05340579999999
 20
-20.38670349999999
 30
0.0
 11
-41.9465637
 21
-20.38670349999999
 31
0.0
  0
LINE
  5
5D
330
1E
100
AcDbEntity
  8
0
 62
     7
100
AcDbLine
 10
-43.0533905
 20
-23.27346799999999
 30
0.0
 11
-41.9465637
 21
-23.27346799999999
 31
0.0
  0
LINE
  5
5E
330
1E
100
AcDbEntity
  8
0
 62
     7
100
AcDbLine
 10
-41.5
 20
-22.4999886
 30
0.0
 11
-41.5
 21
-12.5000496
 31
0.0
  0
LINE
  5
5F
330
1E
100
AcDbEntity
  8
0
 62
     7
100
AcDbLine
 10
-43.5
 20
-38.0000076
 30
0.0
 11
-43.5
 21
38.0
 31
0.0
  0
LINE
  5
60
330
1E
100
AcDbEntity
  8
0
  6
CENTER
 62
     2
100
AcDbLine
 10
-100.5
 20
0.0
 30
0.0
 11
-39.5
 21
0.0
 31
0.0
  0
LINE
  5
61
330
1E
100
AcDbEntity
  8
0
 62
     7
100
AcDbLine
 10
-96.5
 20
38.0
 30
0.0
 11
-43.5
 21
38.0
 31
0.0
  0
LINE
  5
62
330
1E
100
AcDbEntity
  8
0
 62
     7
100
AcDbLine
 10
-96.5
 20
38.0000076
 30
0.0
 11
-96.5
 21
-38.0
 31
0.0
  0
LINE
  5
63
330
1E
100
AcDbEntity
  8
0
 62
     7
100
AcDbLine
 10
-96.5
 20
-38.0
 30
0.0
 11
-43.5
 21
-38.0
 31
0.0
  0
LINE
  5
64
330
1E
100
AcDbEntity
  8
0
 62
     7
100
AcDbLine
 10
-41.5
 20
-21.49999999999999
 30
0.0
 11
-35.5
 21
-21.49999999999999
 31
0.0
  0
LINE
  5
65
330
1E
100
AcDbEntity
  8
0
 62
     7
100
AcDbLine
 10
-41.5
 20
-13.5
 30
0.0
 11
-35.5
 21
-13.5
 31
0.0
  0
LINE
  5
66
330
1E
100
AcDbEntity
  8
0
 62
     2
100
AcDbLine
 10
-35.125
 20
-21.125
 30
0.0
 11
-41.5
 21
-21.125
 31
0.0
  0
LINE
  5
67
330
1E
100
AcDbEntity
  8
0
 62
     2
100
AcDbLine
 10
-41.5
 20
-13.875
 30
0.0
 11
-35.125
 21
-13.875
 31
0.0
  0
LINE
  5
68
330
1E
100
AcDbEntity
  8
0
  6
CENTER
 62
     2
100
AcDbLine
 10
-43.5
 20
-17.5
 30
0.0
 11
-33.0
 21
-17.5
 31
0.0
  0
LINE
  5
69
330
1E
100
AcDbEntity
  8
0
 62
     7
100
AcDbLine
 10
-35.0
 20
-14.0
 30
0.0
 11
-35.0
 21
-16.89999999999999
 31
0.0
  0
LINE
  5
6A
330
1E
100
AcDbEntity
  8
0
 62
     7
100
AcDbLine
 10
-35.5
 20
-21.49999999999999
 30
0.0
 11
-35.0
 21
-21.0
 31
0.0
  0
LINE
  5
6B
330
1E
100
AcDbEntity
  8
0
 62
     7
100
AcDbLine
 10
-35.5
 20
-13.5
 30
0.0
 11
-35.0
 21
-14.0
 31
0.0
  0
LINE
  5
6C
330
1E
100
AcDbEntity
  8
0
 62
     7
100
AcDbLine
 10
-35.5
 20
-21.49999999999999
 30
0.0
 11
-35.5
 21
-18.1
 31
0.0
  0
LINE
  5
6D
330
1E
100
AcDbEntity
  8
0
 62
     7
100
AcDbLine
 10
-37.0
 20
-18.1
 30
0.0
 11
-35.0
 21
-18.1
 31
0.0
  0
LINE
  5
6E
330
1E
100
AcDbEntity
  8
0
 62
     7
100
AcDbLine
 10
-37.0
 20
-16.89999999999999
 30
0.0
 11
-35.0
 21
-16.89999999999999
 31
0.0
  0
LINE
  5
6F
330
1E
100
AcDbEntity
  8
0
 62
     7
100
AcDbLine
 10
-37.0
 20
-18.1
 30
0.0
 11
-37.0
 21
-16.89999999999999
 31
0.0
  0
LINE
  5
70
330
1E
100
AcDbEntity
  8
0
 62
     7
100
AcDbLine
 10
-35.0
 20
-18.1
 30
0.0
 11
-35.0
 21
-21.0
 31
0.0
  0
LINE
  5
71
330
1E
100
AcDbEntity
  8
0
 62
     7
100
AcDbLine
 10
-35.5
 20
-16.89999999999999
 30
0.0
 11
-35.5
 21
-13.5
 31
0.0
  0
LINE
  5
72
330
1E
100
AcDbEntity
  8
0
 62
     7
100
AcDbLine
 10
-35.5
 20
16.89999999999999
 30
0.0
 11
-35.5
 21
13.5
 31
0.0
  0
LINE
  5
73
330
1E
100
AcDbEntity
  8
0
 62
     7
100
AcDbLine
 10
-35.0
 20
18.1
 30
0.0
 11
-35.0
 21
21.0
 31
0.0
  0
LINE
  5
74
330
1E
100
AcDbEntity
  8
0
 62
     7
100
AcDbLine
 10
-37.0
 20
18.1
 30
0.0
 11
-37.0
 21
16.89999999999999
 31
0.0
  0
LINE
  5
75
330
1E
100
AcDbEntity
  8
0
 62
     7
100
AcDbLine
 10
-37.0
 20
16.89999999999999
 30
0.0
 11
-35.0
 21
16.89999999999999
 31
0.0
  0
LINE
  5
76
330
1E
100
AcDbEntity
  8
0
 62
     7
100
AcDbLine
 10
-37.0
 20
18.1
 30
0.0
 11
-35.0
 21
18.1
 31
0.0
  0
LINE
  5
77
330
1E
100
AcDbEntity
  8
0
 62
     7
100
AcDbLine
 10
-35.5
 20
21.49999999999999
 30
0.0
 11
-35.5
 21
18.1
 31
0.0
  0
LINE
  5
78
330
1E
100
AcDbEntity
  8
0
 62
     7
100
AcDbLine
 10
-35.5
 20
13.5
 30
0.0
 11
-35.0
 21
14.0
 31
0.0
  0
LINE
  5
79
330
1E
100
AcDbEntity
  8
0
 62
     7
100
AcDbLine
 10
-35.5
 20
21.49999999999999
 30
0.0
 11
-35.0
 21
21.0
 31
0.0
  0
LINE
  5
7A
330
1E
100
AcDbEntity
  8
0
 62
     7
100
AcDbLine
 10
-35.0
 20
14.0
 30
0.0
 11
-35.0
 21
16.89999999999999
 31
0.0
  0
LINE
  5
7B
330
1E
100
AcDbEntity
  8
0
  6
CENTER
 62
     2
100
AcDbLine
 10
-43.5
 20
17.5
 30
0.0
 11
-33.0
 21
17.5
 31
0.0
  0
LINE
  5
7C
330
1E
100
AcDbEntity
  8
0
 62
     2
100
AcDbLine
 10
-41.5
 20
13.875
 30
0.0
 11
-35.125
 21
13.875
 31
0.0
  0
LINE
  5
7D
330
1E
100
AcDbEntity
  8
0
 62
     2
100
AcDbLine
 10
-35.125
 20
21.125
 30
0.0
 11
-41.5
 21
21.125
 31
0.0
  0
LINE
  5
7E
330
1E
100
AcDbEntity
  8
0
 62
     7
100
AcDbLine
 10
-41.5
 20
13.5
 30
0.0
 11
-35.5
 21
13.5
 31
0.0
  0
LINE
  5
7F
330
1E
100
AcDbEntity
  8
0
 62
     7
100
AcDbLine
 10
-41.5
 20
21.49999999999999
 30
0.0
 11
-35.5
 21
21.49999999999999
 31
0.0
  0
LINE
  5
80
330
1E
100
AcDbEntity
  8
0
 62
     7
100
AcDbLine
 10
-41.5
 20
22.4999886
 30
0.0
 11
-41.5
 21
12.5000496
 31
0.0
  0
LINE
  5
81
330
1E
100
AcDbEntity
  8
0
 62
     7
100
AcDbLine
 10
-43.0533905
 20
23.27346799999999
 30
0.0
 11
-41.9465637
 21
23.27346799999999
 31
0.0
  0
LINE
  5
82
330
1E
100
AcDbEntity
  8
0
 62
     7
100
AcDbLine
 10
-43.05340579999999
 20
20.38670349999999
 30
0.0
 11
-41.9465637
 21
20.38670349999999
 31
0.0
  0
LINE
  5
83
330
1E
100
AcDbEntity
  8
0
 62
     7
100
AcDbLine
 10
-43.0533905
 20
14.613205
 30
0.0
 11
-41.9465637
 21
14.613205
 31
0.0
  0
LINE
  5
84
330
1E
100
AcDbEntity
  8
0
 62
     7
100
AcDbLine
 10
-43.0533447
 20
11.7264557
 30
0.0
 11
-41.9465637
 21
11.7264557
 31
0.0
  0
LINE
  5
85
330
1E
100
AcDbEntity
  8
0
 62
     7
100
AcDbLine
 10
-41.94655329999999
 20
23.2734778
 30
0.0
 11
-41.4999667
 21
22.4999671
 31
0.0
  0
LINE
  5
86
330
1E
100
AcDbEntity
  8
0
 62
     7
100
AcDbLine
 10
-41.94654179999999
 20
11.7265095
 30
0.0
 11
-41.4999552
 21
12.5000201
 31
0.0
  0
LINE
  5
87
330
1E
100
AcDbEntity
  8
0
 62
     7
100
AcDbLine
 10
-43.05338309999999
 20
23.27346879999999
 30
0.0
 11
-43.49996979999999
 21
22.4999581
 31
0.0
  0
LINE
  5
88
330
1E
100
AcDbEntity
  8
0
 62
     7
100
AcDbLine
 10
-43.0533777
 20
11.7265348
 30
0.0
 11
-43.4999491
 21
12.50001909999999
 31
0.0
  0
ARC
  5
89
330
1E
100
AcDbEntity
  8
0
 62
     7
100
AcDbCircle
 10
-44.0558167
 20
21.83009719999999
 30
0.0
 40
2.555816169999999
100
AcDbArc
 50
325.615625
 51
34.3843471
  0
ARC
  5
8A
330
1E
100
AcDbEntity
  8
0
 62
     7
100
AcDbCircle
 10
-51.05339050000001
 20
17.4999733
 30
0.0
 40
9.55339146
100
AcDbArc
 50
342.4119899999999
 51
17.5880103
  0
ARC
  5
8B
330
1E
100
AcDbEntity
  8
0
 62
     7
100
AcDbCircle
 10
-44.0558014
 20
13.16989519999999
 30
0.0
 40
2.555816169999999
100
AcDbArc
 50
325.615599
 51
34.3843198
  0
ARC
  5
8C
330
1E
100
AcDbEntity
  8
0
 62
     7
100
AcDbCircle
 10
-33.9465942
 20
17.4999733
 30
0.0
 40
9.55339146
100
AcDbArc
 50
162.411954
 51
197.587974
  0
ARC
  5
8D
330
1E
100
AcDbEntity
  8
0
 62
     7
100
AcDbCircle
 10
-40.94416810000001
 20
21.83009719999999
 30
0.0
 40
2.555816169999999
100
AcDbArc
 50
145.6156169999999
 51
214.3843379999999
  0
ARC
  5
8E
330
1E
100
AcDbEntity
  8
0
 62
     7
100
AcDbCircle
 10
-40.94416810000001
 20
13.16989519999999
 30
0.0
 40
2.555816169999999
100
AcDbArc
 50
145.6156439999999
 51
214.384366
  0
LINE
  5
8F
330
1E
100
AcDbEntity
  8
0
 62
     7
100
AcDbLine
 10
-174.5
 20
24.5
 30
0.0
 11
-178.5
 21
24.5
 31
0.0
  0
LINE
  5
90
330
1E
100
AcDbEntity
  8
0
 62
     7
100
AcDbLine
 10
-174.5
 20
-24.5
 30
0.0
 11
-178.5
 21
-24.5
 31
0.0
  0
LINE
  5
91
330
1E
100
AcDbEntity
  8
0
 62
     7
100
AcDbLine
 10
-178.5
 20
22.5
 30
0.0
 11
-179.4999999999999
 21
22.5
 31
0.0
  0
LINE
  5
92
330
1E
100
AcDbEntity
  8
0
 62
     7
100
AcDbLine
 10
-178.5
 20
-22.5
 30
0.0
 11
-179.4999999999999
 21
-22.5
 31
0.0
  0
LINE
  5
93
330
1E
100
AcDbEntity
  8
0
 62
     7
100
AcDbLine
 10
-186.5
 20
-25.0
 30
0.0
 11
-179.4999999999999
 21
-25.0
 31
0.0
  0
LINE
  5
94
330
1E
100
AcDbEntity
  8
0
 62
     7
100
AcDbLine
 10
-186.5
 20
25.0
 30
0.0
 11
-179.4999999999999
 21
25.0
 31
0.0
  0
LINE
  5
95
330
1E
100
AcDbEntity
  8
0
 62
     7
100
AcDbLine
 10
-194.4
 20
-38.0
 30
0.0
 11
-194.4
 21
38.0
 31
0.0
  0
LINE
  5
96
330
1E
100
AcDbEntity
  8
0
 62
     7
100
AcDbLine
 10
-197.5999999999999
 20
-38.0
 30
0.0
 11
-197.5999999999999
 21
38.0
 31
0.0
  0
LINE
  5
97
330
1E
100
AcDbEntity
  8
0
 62
     7
100
AcDbLine
 10
-202.4
 20
-38.0
 30
0.0
 11
-202.4
 21
38.0
 31
0.0
  0
LINE
  5
98
330
1E
100
AcDbEntity
  8
0
 62
     7
100
AcDbLine
 10
-205.6
 20
-38.0
 30
0.0
 11
-205.6
 21
38.0
 31
0.0
  0
LINE
  5
99
330
1E
100
AcDbEntity
  8
0
 62
     7
100
AcDbLine
 10
-188.0
 20
38.0
 30
0.0
 11
-188.0
 21
-38.00000189999999
 31
0.0
  0
LINE
  5
9A
330
1E
100
AcDbEntity
  8
0
 62
     7
100
AcDbLine
 10
-186.5
 20
38.0
 30
0.0
 11
-186.5
 21
-38.00000189999999
 31
0.0
  0
LINE
  5
9B
330
1E
100
AcDbEntity
  8
0
  6
CENTER
 62
     2
100
AcDbLine
 10
-200.0
 20
-42.00000189999999
 30
0.0
 11
-200.0
 21
42.0
 31
0.0
  0
LINE
  5
9C
330
1E
100
AcDbEntity
  8
0
 62
     7
100
AcDbLine
 10
-178.5
 20
24.5
 30
0.0
 11
-178.5
 21
-24.5
 31
0.0
  0
LINE
  5
9D
330
1E
100
AcDbEntity
  8
0
 62
     7
100
AcDbLine
 10
-179.4999999999999
 20
25.0
 30
0.0
 11
-179.4999999999999
 21
-25.0
 31
0.0
  0
LINE
  5
9E
330
1E
100
AcDbEntity
  8
0
 62
     7
100
AcDbLine
 10
-213.0
 20
38.0
 30
0.0
 11
-213.0
 21
-38.00000189999999
 31
0.0
  0
LINE
  5
9F
330
1E
100
AcDbEntity
  8
0
 62
     7
100
AcDbLine
 10
-186.5
 20
-38.0
 30
0.0
 11
-214.5
 21
-38.0
 31
0.0
  0
LINE
  5
A0
330
1E
100
AcDbEntity
  8
0
 62
     7
100
AcDbLine
 10
-214.5
 20
38.0
 30
0.0
 11
-214.5
 21
-38.00000189999999
 31
0.0
  0
LINE
  5
A1
330
1E
100
AcDbEntity
  8
0
 62
     7
100
AcDbLine
 10
-186.5
 20
38.0
 30
0.0
 11
-214.5
 21
38.0
 31
0.0
  0
LINE
  5
A2
330
1E
100
AcDbEntity
  8
0
 62
     7
100
AcDbLine
 10
-174.5
 20
-24.5
 30
0.0
 11
-174.5
 21
24.5
 31
0.0
  0
LINE
  5
A3
330
1E
100
AcDbEntity
  8
0
  6
CENTER
 62
     2
100
AcDbLine
 10
-170.5
 20
0.0
 30
0.0
 11
-218.5
 21
0.0
 31
0.0
  0
LINE
  5
A4
330
1E
100
AcDbEntity
  8
0
 62
     7
100
AcDbLine
 10
34.5
 20
-24.5
 30
0.0
 11
38.5
 21
-24.5
 31
0.0
  0
LINE
  5
A5
330
1E
100
AcDbEntity
  8
0
 62
     7
100
AcDbLine
 10
34.5
 20
24.5
 30
0.0
 11
38.5
 21
24.5
 31
0.0
  0
LINE
  5
A6
330
1E
100
AcDbEntity
  8
0
 62
     7
100
AcDbLine
 10
38.5
 20
-22.5
 30
0.0
 11
39.5
 21
-22.5
 31
0.0
  0
LINE
  5
A7
330
1E
100
AcDbEntity
  8
0
 62
     7
100
AcDbLine
 10
38.5
 20
22.5
 30
0.0
 11
39.5
 21
22.5
 31
0.0
  0
LINE
  5
A8
330
1E
100
AcDbEntity
  8
0
 62
     7
100
AcDbLine
 10
48.0
 20
-25.0
 30
0.0
 11
39.5
 21
-25.0
 31
0.0
  0
LINE
  5
A9
330
1E
100
AcDbEntity
  8
0
 62
     7
100
AcDbLine
 10
48.0
 20
25.0
 30
0.0
 11
39.5
 21
25.0
 31
0.0
  0
LINE
  5
AA
330
1E
100
AcDbEntity
  8
0
 62
     7
100
AcDbLine
 10
48.0
 20
-25.0
 30
0.0
 11
48.0
 21
-38.0
 31
0.0
  0
LINE
  5
AB
330
1E
100
AcDbEntity
  8
0
 62
     7
100
AcDbLine
 10
48.0
 20
38.0
 30
0.0
 11
48.0
 21
25.0
 31
0.0
  0
LINE
  5
AC
330
1E
100
AcDbEntity
  8
0
 62
     7
100
AcDbLine
 10
46.5
 20
-25.0
 30
0.0
 11
46.5
 21
-38.0
 31
0.0
  0
LINE
  5
AD
330
1E
100
AcDbEntity
  8
0
 62
     7
100
AcDbLine
 10
46.5
 20
38.0
 30
0.0
 11
46.5
 21
25.0
 31
0.0
  0
LINE
  5
AE
330
1E
100
AcDbEntity
  8
0
 62
     7
100
AcDbLine
 10
38.5
 20
24.5
 30
0.0
 11
38.5
 21
-24.5
 31
0.0
  0
LINE
  5
AF
330
1E
100
AcDbEntity
  8
0
 62
     7
100
AcDbLine
 10
39.5
 20
25.0
 30
0.0
 11
39.5
 21
-25.0
 31
0.0
  0
LINE
  5
B0
330
1E
100
AcDbEntity
  8
0
 62
     7
100
AcDbLine
 10
73.0
 20
38.0
 30
0.0
 11
73.0
 21
-38.0
 31
0.0
  0
LINE
  5
B1
330
1E
100
AcDbEntity
  8
0
  6
CENTER
 62
     2
100
AcDbLine
 10
66.5
 20
-23.5
 30
0.0
 11
66.5
 21
-32.5
 31
0.0
  0
CIRCLE
  5
B2
330
1E
100
AcDbEntity
  8
0
 62
     7
100
AcDbCircle
 10
66.5
 20
-28.0
 30
0.0
 40
2.1
  0
LINE
  5
B3
330
1E
100
AcDbEntity
  8
0
  6
CENTER
 62
     2
100
AcDbLine
 10
71.0
 20
-28.0
 30
0.0
 11
62.0
 21
-28.0
 31
0.0
  0
CIRCLE
  5
B4
330
1E
100
AcDbEntity
  8
0
 62
     2
100
AcDbCircle
 10
66.5
 20
-28.0
 30
0.0
 40
2.5
  0
CIRCLE
  5
B5
330
1E
100
AcDbEntity
  8
0
 62
     7
100
AcDbCircle
 10
66.5
 20
28.0
 30
0.0
 40
2.1
  0
LINE
  5
B6
330
1E
100
AcDbEntity
  8
0
  6
CENTER
 62
     2
100
AcDbLine
 10
30.5
 20
0.0
 30
0.0
 11
78.5
 21
0.0
 31
0.0
  0
LINE
  5
B7
330
1E
100
AcDbEntity
  8
0
 62
     7
100
AcDbLine
 10
46.5
 20
-38.0
 30
0.0
 11
74.5
 21
-38.0
 31
0.0
  0
LINE
  5
B8
330
1E
100
AcDbEntity
  8
0
 62
     7
100
AcDbLine
 10
46.5
 20
38.0
 30
0.0
 11
74.5
 21
38.0
 31
0.0
  0
LINE
  5
B9
330
1E
100
AcDbEntity
  8
0
  6
CENTER
 62
     2
100
AcDbLine
 10
60.0
 20
-42.0
 30
0.0
 11
60.0
 21
42.0
 31
0.0
  0
LINE
  5
BA
330
1E
100
AcDbEntity
  8
0
 62
     7
100
AcDbLine
 10
34.5
 20
-24.5
 30
0.0
 11
34.5
 21
24.5
 31
0.0
  0
LINE
  5
BB
330
1E
100
AcDbEntity
  8
0
  6
CENTER
 62
     2
100
AcDbLine
 10
66.5
 20
23.5
 30
0.0
 11
66.5
 21
32.5
 31
0.0
  0
LINE
  5
BC
330
1E
100
AcDbEntity
  8
0
  6
CENTER
 62
     2
100
AcDbLine
 10
71.0
 20
28.0
 30
0.0
 11
62.0
 21
28.0
 31
0.0
  0
LINE
  5
BD
330
1E
100
AcDbEntity
  8
0
 62
     7
100
AcDbLine
 10
74.5
 20
38.0
 30
0.0
 11
74.5
 21
-38.0
 31
0.0
  0
CIRCLE
  5
BE
330
1E
100
AcDbEntity
  8
0
 62
     2
100
AcDbCircle
 10
66.5
 20
28.0
 30
0.0
 40
2.5
  0
LINE
  5
BF
330
1E
100
AcDbEntity
  8
0
  6
CENTER
 62
     2
100
AcDbLine
 10
39.0
 20
-17.5
 30
0.0
 11
53.0
 21
-17.5
 31
0.0
  0
LINE
  5
C0
330
1E
100
AcDbEntity
  8
0
  6
CENTER
 62
     2
100
AcDbLine
 10
46.0
 20
-24.5
 30
0.0
 11
46.0
 21
-10.5
 31
0.0
  0
CIRCLE
  5
C1
330
1E
100
AcDbEntity
  8
0
 62
     2
100
AcDbCircle
 10
46.0
 20
-17.5
 30
0.0
 40
3.6
  0
LINE
  5
C2
330
1E
100
AcDbEntity
  8
0
 62
     7
100
AcDbLine
 10
51.0
 20
-20.3867513
 30
0.0
 11
46.0
 21
-23.2735027
 31
0.0
  0
LINE
  5
C3
330
1E
100
AcDbEntity
  8
0
 62
     7
100
AcDbLine
 10
51.0
 20
-14.6132487
 30
0.0
 11
51.0
 21
-20.3867513
 31
0.0
  0
LINE
  5
C4
330
1E
100
AcDbEntity
  8
0
 62
     7
100
AcDbLine
 10
46.0
 20
-11.7264973
 30
0.0
 11
51.0
 21
-14.6132487
 31
0.0
  0
LINE
  5
C5
330
1E
100
AcDbEntity
  8
0
 62
     7
100
AcDbLine
 10
41.0
 20
-14.6132487
 30
0.0
 11
46.0
 21
-11.7264973
 31
0.0
  0
LINE
  5
C6
330
1E
100
AcDbEntity
  8
0
 62
     7
100
AcDbLine
 10
41.0
 20
-20.3867513
 30
0.0
 11
41.0
 21
-14.6132487
 31
0.0
  0
LINE
  5
C7
330
1E
100
AcDbEntity
  8
0
 62
     7
100
AcDbLine
 10
46.0
 20
-23.2735027
 30
0.0
 11
41.0
 21
-20.3867513
 31
0.0
  0
CIRCLE
  5
C8
330
1E
100
AcDbEntity
  8
0
 62
     7
100
AcDbCircle
 10
46.0
 20
-17.5
 30
0.0
 40
5.0
  0
CIRCLE
  5
C9
330
1E
100
AcDbEntity
  8
0
 62
     7
100
AcDbCircle
 10
46.0
 20
-17.5
 30
0.0
 40
4.0
  0
LINE
  5
CA
330
1E
100
AcDbEntity
  8
0
 62
     7
100
AcDbLine
 10
42.045256
 20
-16.89999999999999
 30
0.0
 11
49.95474399999999
 21
-16.89999999999999
 31
0.0
  0
LINE
  5
CB
330
1E
100
AcDbEntity
  8
0
 62
     7
100
AcDbLine
 10
42.045256
 20
-18.1
 30
0.0
 11
49.95474399999999
 21
-18.1
 31
0.0
  0
LINE
  5
CC
330
1E
100
AcDbEntity
  8
0
  6
CENTER
 62
     2
100
AcDbLine
 10
39.0
 20
17.5
 30
0.0
 11
53.0
 21
17.5
 31
0.0
  0
LINE
  5
CD
330
1E
100
AcDbEntity
  8
0
  6
CENTER
 62
     2
100
AcDbLine
 10
46.0
 20
10.5
 30
0.0
 11
46.0
 21
24.5
 31
0.0
  0
LINE
  5
CE
330
1E
100
AcDbEntity
  8
0
 62
     7
100
AcDbLine
 10
51.0
 20
14.6132487
 30
0.0
 11
46.0
 21
11.7264973
 31
0.0
  0
LINE
  5
CF
330
1E
100
AcDbEntity
  8
0
 62
     7
100
AcDbLine
 10
46.0
 20
11.7264973
 30
0.0
 11
41.0
 21
14.6132487
 31
0.0
  0
LINE
  5
D0
330
1E
100
AcDbEntity
  8
0
 62
     7
100
AcDbLine
 10
42.045256
 20
16.89999999999999
 30
0.0
 11
49.95474399999999
 21
16.89999999999999
 31
0.0
  0
LINE
  5
D1
330
1E
100
AcDbEntity
  8
0
 62
     7
100
AcDbLine
 10
42.045256
 20
18.1
 30
0.0
 11
49.95474399999999
 21
18.1
 31
0.0
  0
CIRCLE
  5
D2
330
1E
100
AcDbEntity
  8
0
 62
     7
100
AcDbCircle
 10
46.0
 20
17.5
 30
0.0
 40
4.0
  0
CIRCLE
  5
D3
330
1E
100
AcDbEntity
  8
0
 62
     7
100
AcDbCircle
 10
46.0
 20
17.5
 30
0.0
 40
5.0
  0
LINE
  5
D4
330
1E
100
AcDbEntity
  8
0
 62
     7
100
AcDbLine
 10
41.0
 20
14.6132487
 30
0.0
 11
41.0
 21
20.3867513
 31
0.0
  0
LINE
  5
D5
330
1E
100
AcDbEntity
  8
0
 62
     7
100
AcDbLine
 10
41.0
 20
20.3867513
 30
0.0
 11
46.0
 21
23.2735027
 31
0.0
  0
LINE
  5
D6
330
1E
100
AcDbEntity
  8
0
 62
     7
100
AcDbLine
 10
46.0
 20
23.2735027
 30
0.0
 11
51.0
 21
20.3867513
 31
0.0
  0
LINE
  5
D7
330
1E
100
AcDbEntity
  8
0
 62
     7
100
AcDbLine
 10
51.0
 20
20.3867513
 30
0.0
 11
51.0
 21
14.6132487
 31
0.0
  0
CIRCLE
  5
D8
330
1E
100
AcDbEntity
  8
0
 62
     2
100
AcDbCircle
 10
46.0
 20
17.5
 30
0.0
 40
3.6
  0
CIRCLE
  5
D9
330
1E
100
AcDbEntity
  8
0
 62
     7
100
AcDbCircle
 10
-55.926712
 20
127.7377399999999
 30
0.0
 40
0.472222209
  0
CIRCLE
  5
DA
330
1E
100
AcDbEntity
  8
0
 62
     7
100
AcDbCircle
 10
-60.073349
 20
127.7377399999999
 30
0.0
 40
0.472222209
  0
ARC
  5
DB
330
1E
100
AcDbEntity
  8
0
 62
     7
100
AcDbCircle
 10
-58.0000305
 20
120.4722209999999
 30
0.0
 40
7.555555339999999
100
AcDbArc
 50
113.093607
 51
66.90653860000001
  0
CIRCLE
  5
DC
330
1E
100
AcDbEntity
  8
0
 62
     7
100
AcDbCircle
 10
-58.0000305
 20
120.0
 30
0.0
 40
8.5
  0
ARC
  5
DD
330
1E
100
AcDbEntity
  8
0
 62
     7
100
AcDbCircle
 10
-60.073349
 20
127.7377399999999
 30
0.0
 40
1.0
100
AcDbArc
 50
199.721087
 51
41.22073799999999
  0
ARC
  5
DE
330
1E
100
AcDbEntity
  8
0
 62
     7
100
AcDbCircle
 10
-55.926712
 20
127.7377399999999
 30
0.0
 40
1.0
100
AcDbArc
 50
138.7794209999999
 51
340.279017
  0
CIRCLE
  5
DF
330
1E
100
AcDbEntity
  8
0
 62
     7
100
AcDbCircle
 10
-84.0733185
 20
127.7377399999999
 30
0.0
 40
0.472222209
  0
CIRCLE
  5
E0
330
1E
100
AcDbEntity
  8
0
 62
     7
100
AcDbCircle
 10
-79.9266815
 20
127.7377399999999
 30
0.0
 40
0.472222209
  0
ARC
  5
E1
330
1E
100
AcDbEntity
  8
0
 62
     7
100
AcDbCircle
 10
-82.0
 20
120.4722209999999
 30
0.0
 40
7.555555339999999
100
AcDbArc
 50
113.0934969999999
 51
66.90642920000001
  0
CIRCLE
  5
E2
330
1E
100
AcDbEntity
  8
0
 62
     7
100
AcDbCircle
 10
-82.0
 20
120.0
 30
0.0
 40
8.5
  0
ARC
  5
E3
330
1E
100
AcDbEntity
  8
0
 62
     7
100
AcDbCircle
 10
-79.9266815
 20
127.7377399999999
 30
0.0
 40
1.0
100
AcDbArc
 50
138.779298
 51
340.2789489999999
  0
ARC
  5
E4
330
1E
100
AcDbEntity
  8
0
 62
     7
100
AcDbCircle
 10
-84.0733185
 20
127.7377399999999
 30
0.0
 40
1.0
100
AcDbArc
 50
199.721019
 51
41.2206151
  0
LINE
  5
E5
330
1E
100
AcDbEntity
  8
0
 62
     7
100
AcDbLine
 10
-43.05340029999999
 20
106.0
 30
0.0
 11
-41.94659620000001
 21
106.0
 31
0.0
  0
LINE
  5
E6
330
1E
100
AcDbEntity
  8
0
 62
     7
100
AcDbLine
 10
-43.49997759999999
 20
111.0
 30
0.0
 11
-41.5
 21
111.0
 31
0.0
  0
LINE
  5
E7
330
1E
100
AcDbEntity
  8
0
 62
     7
100
AcDbLine
 10
-43.5
 20
101.0
 30
0.0
 11
-41.5
 21
101.0
 31
0.0
  0
LINE
  5
E8
330
1E
100
AcDbEntity
  8
0
 62
     7
100
AcDbLine
 10
-47.5
 20
99.50000000000001
 30
0.0
 11
-47.5
 21
98.50000000000001
 31
0.0
  0
LINE
  5
E9
330
1E
100
AcDbEntity
  8
0
 62
     7
100
AcDbLine
 10
-92.5
 20
99.50000000000001
 30
0.0
 11
-92.5
 21
98.50000000000001
 31
0.0
  0
LINE
  5
EA
330
1E
100
AcDbEntity
  8
0
  6
CENTER
 62
     2
100
AcDbLine
 10
-58.0
 20
130.4999999999999
 30
0.0
 11
-58.0
 21
109.4999999999999
 31
0.0
  0
LINE
  5
EB
330
1E
100
AcDbEntity
  8
0
  6
CENTER
 62
     2
100
AcDbLine
 10
-47.5000305
 20
120.0
 30
0.0
 11
-92.5
 21
120.0
 31
0.0
  0
LINE
  5
EC
330
1E
100
AcDbEntity
  8
0
  6
CENTER
 62
     2
100
AcDbLine
 10
-82.0
 20
130.4999999999999
 30
0.0
 11
-82.0
 21
109.4999999999999
 31
0.0
  0
LINE
  5
ED
330
1E
100
AcDbEntity
  8
0
  6
CENTER
 62
     2
100
AcDbLine
 10
-70.0
 20
138.5
 30
0.0
 11
-70.0
 21
90.5
 31
0.0
  0
LINE
  5
EE
330
1E
100
AcDbEntity
  8
0
 62
     7
100
AcDbLine
 10
-45.0
 20
106.4999999999999
 30
0.0
 11
-95.0
 21
106.4999999999999
 31
0.0
  0
LINE
  5
EF
330
1E
100
AcDbEntity
  8
0
 62
     7
100
AcDbLine
 10
-94.50000000000001
 20
94.50000000000001
 30
0.0
 11
-45.49999999999999
 21
94.50000000000001
 31
0.0
  0
LINE
  5
F0
330
1E
100
AcDbEntity
  8
0
 62
     7
100
AcDbLine
 10
-45.0
 20
134.4999999999999
 30
0.0
 11
-57.0
 21
134.4999999999999
 31
0.0
  0
LINE
  5
F1
330
1E
100
AcDbEntity
  8
0
 62
     7
100
AcDbLine
 10
-95.79999970000001
 20
117.5999999999999
 30
0.0
 11
-95.5749997
 21
117.5999999999999
 31
0.0
  0
LINE
  5
F2
330
1E
100
AcDbEntity
  8
0
 62
     7
100
AcDbLine
 10
-96.0999997
 20
114.4
 30
0.0
 11
-95.5749997
 21
114.4
 31
0.0
  0
LINE
  5
F3
330
1E
100
AcDbEntity
  8
0
 62
     7
100
AcDbLine
 10
-96.0999997
 20
114.4
 30
0.0
 11
-96.49999970000001
 21
114.0
 31
0.0
  0
LINE
  5
F4
330
1E
100
AcDbEntity
  8
0
  6
CENTER
 62
     2
100
AcDbLine
 10
-90.95298690000001
 20
116.0
 30
0.0
 11
-98.4999997
 21
116.0
 31
0.0
  0
LINE
  5
F5
330
1E
100
AcDbEntity
  8
0
 62
     7
100
AcDbLine
 10
-93.47499969999999
 20
118.0749999999999
 30
0.0
 11
-95.0999997
 21
118.0749999999999
 31
0.0
  0
LINE
  5
F6
330
1E
100
AcDbEntity
  8
0
 62
     7
100
AcDbLine
 10
-93.47499969999999
 20
113.925
 30
0.0
 11
-95.0999997
 21
113.925
 31
0.0
  0
LINE
  5
F7
330
1E
100
AcDbEntity
  8
0
 62
     7
100
AcDbLine
 10
-95.0999997
 20
113.925
 30
0.0
 11
-95.5749997
 21
114.4
 31
0.0
  0
LINE
  5
F8
330
1E
100
AcDbEntity
  8
0
 62
     7
100
AcDbLine
 10
-95.0999997
 20
118.0749999999999
 30
0.0
 11
-95.5749997
 21
117.5999999999999
 31
0.0
  0
ARC
  5
F9
330
1E
100
AcDbEntity
  8
0
 62
     7
100
AcDbCircle
 10
-93.47499969999999
 20
116.0
 30
0.0
 40
2.075
100
AcDbArc
 50
270.0
 51
90.00000020000001
  0
LINE
  5
FA
330
1E
100
AcDbEntity
  8
0
 62
     7
100
AcDbLine
 10
-96.0999997
 20
117.9
 30
0.0
 11
-96.0999997
 21
122.0999999999999
 31
0.0
  0
ARC
  5
FB
330
1E
100
AcDbEntity
  8
0
 62
     7
100
AcDbCircle
 10
-95.79999970000001
 20
117.9
 30
0.0
 40
0.3
100
AcDbArc
 50
180.0
 51
270.0
  0
LINE
  5
FC
330
1E
100
AcDbEntity
  8
0
 62
     7
100
AcDbLine
 10
-96.0999997
 20
125.6
 30
0.0
 11
-96.49999970000001
 21
126.0
 31
0.0
  0
LINE
  5
FD
330
1E
100
AcDbEntity
  8
0
  6
CENTER
 62
     2
100
AcDbLine
 10
-90.95298690000001
 20
124.0
 30
0.0
 11
-98.4999997
 21
124.0
 31
0.0
  0
LINE
  5
FE
330
1E
100
AcDbEntity
  8
0
 62
     7
100
AcDbLine
 10
-95.0999997
 20
126.075
 30
0.0
 11
-95.5749997
 21
125.6
 31
0.0
  0
ARC
  5
FF
330
1E
100
AcDbEntity
  8
0
 62
     7
100
AcDbCircle
 10
-93.47499969999999
 20
124.0
 30
0.0
 40
2.075
100
AcDbArc
 50
270.0
 51
90.00000020000001
  0
ARC
  5
100
330
1E
100
AcDbEntity
  8
0
 62
     7
100
AcDbCircle
 10
-95.79999970000001
 20
122.0999999999999
 30
0.0
 40
0.3
100
AcDbArc
 50
90.00000020000001
 51
180.0
  0
LINE
  5
101
330
1E
100
AcDbEntity
  8
0
 62
     7
100
AcDbLine
 10
-95.0999997
 20
121.9249999999999
 30
0.0
 11
-95.5749997
 21
122.3999999999999
 31
0.0
  0
LINE
  5
102
330
1E
100
AcDbEntity
  8
0
 62
     7
100
AcDbLine
 10
-93.47499969999999
 20
121.9249999999999
 30
0.0
 11
-95.0999997
 21
121.9249999999999
 31
0.0
  0
LINE
  5
103
330
1E
100
AcDbEntity
  8
0
 62
     7
100
AcDbLine
 10
-96.0999997
 20
125.6
 30
0.0
 11
-95.5749997
 21
125.6
 31
0.0
  0
LINE
  5
104
330
1E
100
AcDbEntity
  8
0
 62
     7
100
AcDbLine
 10
-95.79999970000001
 20
122.3999999999999
 30
0.0
 11
-95.5749997
 21
122.3999999999999
 31
0.0
  0
LINE
  5
105
330
1E
100
AcDbEntity
  8
0
 62
     7
100
AcDbLine
 10
-93.47499969999999
 20
126.075
 30
0.0
 11
-95.0999997
 21
126.075
 31
0.0
  0
LINE
  5
106
330
1E
100
AcDbEntity
  8
0
 62
     7
100
AcDbLine
 10
-96.5
 20
133.0
 30
0.0
 11
-96.5
 21
126.0
 31
0.0
  0
LINE
  5
107
330
1E
100
AcDbEntity
  8
0
 62
     7
100
AcDbLine
 10
-43.5
 20
133.0
 30
0.0
 11
-43.5
 21
99.50000000000001
 31
0.0
  0
LINE
  5
108
330
1E
100
AcDbEntity
  8
0
 62
     7
100
AcDbLine
 10
-96.5
 20
114.0
 30
0.0
 11
-96.5
 21
108.0
 31
0.0
  0
LINE
  5
109
330
1E
100
AcDbEntity
  8
0
 62
     7
100
AcDbLine
 10
-41.5
 20
111.0
 30
0.0
 11
-41.5
 21
101.0
 31
0.0
  0
LINE
  5
10A
330
1E
100
AcDbEntity
  8
0
 62
     7
100
AcDbLine
 10
-95.0
 20
106.4999999999999
 30
0.0
 11
-95.0
 21
99.50000000000001
 31
0.0
  0
LINE
  5
10B
330
1E
100
AcDbEntity
  8
0
 62
     7
100
AcDbLine
 10
-95.0
 20
106.4999999999999
 30
0.0
 11
-96.5
 21
108.0
 31
0.0
  0
LINE
  5
10C
330
1E
100
AcDbEntity
  8
0
 62
     7
100
AcDbLine
 10
-43.5
 20
108.0
 30
0.0
 11
-45.0
 21
106.4999999999999
 31
0.0
  0
LINE
  5
10D
330
1E
100
AcDbEntity
  8
0
 62
     7
100
AcDbLine
 10
-43.5
 20
133.0
 30
0.0
 11
-45.0
 21
134.4999999999999
 31
0.0
  0
LINE
  5
10E
330
1E
100
AcDbEntity
  8
0
 62
     7
100
AcDbLine
 10
-95.0
 20
134.4999999999999
 30
0.0
 11
-96.5
 21
133.0
 31
0.0
  0
LINE
  5
10F
330
1E
100
AcDbEntity
  8
0
 62
     7
100
AcDbLine
 10
-95.0
 20
99.50000000000001
 30
0.0
 11
-43.5
 21
99.50000000000001
 31
0.0
  0
LINE
  5
110
330
1E
100
AcDbEntity
  8
0
 62
     7
100
AcDbLine
 10
-94.50000000000001
 20
98.50000000000001
 30
0.0
 11
-45.49999999999999
 21
98.50000000000001
 31
0.0
  0
LINE
  5
111
330
1E
100
AcDbEntity
  8
0
 62
     7
100
AcDbLine
 10
-45.49999999999999
 20
98.50000000000001
 30
0.0
 11
-45.49999999999999
 21
94.50000379999998
 31
0.0
  0
LINE
  5
112
330
1E
100
AcDbEntity
  8
0
 62
     7
100
AcDbLine
 10
-94.50000000000001
 20
98.50000000000001
 30
0.0
 11
-94.50000000000001
 21
94.50000379999998
 31
0.0
  0
LINE
  5
113
330
1E
100
AcDbEntity
  8
0
 62
     7
100
AcDbLine
 10
-57.0
 20
134.4999999999999
 30
0.0
 11
-57.2
 21
134.3
 31
0.0
  0
LINE
  5
114
330
1E
100
AcDbEntity
  8
0
 62
     7
100
AcDbLine
 10
-57.2
 20
134.3
 30
0.0
 11
-82.79999999999999
 21
134.3
 31
0.0
  0
LINE
  5
115
330
1E
100
AcDbEntity
  8
0
 62
     7
100
AcDbLine
 10
-83.0
 20
134.4999999999999
 30
0.0
 11
-82.79999999999999
 21
134.3
 31
0.0
  0
LINE
  5
116
330
1E
100
AcDbEntity
  8
0
 62
     7
100
AcDbLine
 10
-83.0
 20
134.4999999999999
 30
0.0
 11
-95.0
 21
134.4999999999999
 31
0.0
  0
LINE
  5
117
330
1E
100
AcDbEntity
  8
0
  6
CENTER
 62
     2
100
AcDbLine
 10
-43.5000005
 20
106.0
 30
0.0
 11
-33.0
 21
106.0
 31
0.0
  0
LINE
  5
118
330
1E
100
AcDbEntity
  8
0
 62
     7
100
AcDbLine
 10
-41.50001429999999
 20
110.0
 30
0.0
 11
-35.5000143
 21
110.0
 31
0.0
  0
LINE
  5
119
330
1E
100
AcDbEntity
  8
0
 62
     2
100
AcDbLine
 10
-35.12501429999999
 20
109.6249999999999
 30
0.0
 11
-41.50001429999999
 21
109.6249999999999
 31
0.0
  0
LINE
  5
11A
330
1E
100
AcDbEntity
  8
0
 62
     7
100
AcDbLine
 10
-35.5000143
 20
102.0
 30
0.0
 11
-35.5000143
 21
110.0
 31
0.0
  0
LINE
  5
11B
330
1E
100
AcDbEntity
  8
0
 62
     7
100
AcDbLine
 10
-35.00001429999999
 20
102.4999999999999
 30
0.0
 11
-35.00001429999999
 21
109.4999999999999
 31
0.0
  0
LINE
  5
11C
330
1E
100
AcDbEntity
  8
0
 62
     7
100
AcDbLine
 10
-35.5000143
 20
110.0
 30
0.0
 11
-35.00001429999999
 21
109.4999999999999
 31
0.0
  0
LINE
  5
11D
330
1E
100
AcDbEntity
  8
0
 62
     7
100
AcDbLine
 10
-41.50001429999999
 20
102.0
 30
0.0
 11
-35.5000143
 21
102.0
 31
0.0
  0
LINE
  5
11E
330
1E
100
AcDbEntity
  8
0
 62
     2
100
AcDbLine
 10
-41.50001429999999
 20
102.3749999999999
 30
0.0
 11
-35.12501429999999
 21
102.3749999999999
 31
0.0
  0
LINE
  5
11F
330
1E
100
AcDbEntity
  8
0
 62
     7
100
AcDbLine
 10
-35.5000143
 20
102.0
 30
0.0
 11
-35.00001429999999
 21
102.4999999999999
 31
0.0
  0
POLYLINE
  5
120
330
1E
100
AcDbEntity
  8
0
 62
     7
100
AcDb2dPolyline
 66
     1
 10
0.0
 20
0.0
 30
0.0
  0
VERTEX
  5
376
330
120
100
AcDbEntity
  8
0
 62
     7
100
AcDbVertex
100
AcDb2dVertex
 10
-43.05340029999999
 20
101.0
 30
0.0
  0
VERTEX
  5
377
330
120
100
AcDbEntity
  8
0
 62
     7
100
AcDbVertex
100
AcDb2dVertex
 10
-43.13511489999999
 20
101.240725
 30
0.0
  0
VERTEX
  5
378
330
120
100
AcDbEntity
  8
0
 62
     7
100
AcDbVertex
100
AcDb2dVertex
 10
-43.20921529999999
 20
101.484379
 30
0.0
  0
VERTEX
  5
379
330
120
100
AcDbEntity
  8
0
 62
     7
100
AcDbVertex
100
AcDb2dVertex
 10
-43.27546889999999
 20
101.730637
 30
0.0
  0
VERTEX
  5
37A
330
120
100
AcDbEntity
  8
0
 62
     7
100
AcDbVertex
100
AcDb2dVertex
 10
-43.3336431
 20
101.9791719999999
 30
0.0
  0
VERTEX
  5
37B
330
120
100
AcDbEntity
  8
0
 62
     7
100
AcDbVertex
100
AcDb2dVertex
 10
-43.3835055
 20
102.2296599999999
 30
0.0
  0
VERTEX
  5
37C
330
120
100
AcDbEntity
  8
0
 62
     7
100
AcDbVertex
100
AcDb2dVertex
 10
-43.4248234
 20
102.4817759999999
 30
0.0
  0
VERTEX
  5
37D
330
120
100
AcDbEntity
  8
0
 62
     7
100
AcDbVertex
100
AcDb2dVertex
 10
-43.45736429999999
 20
102.735193
 30
0.0
  0
VERTEX
  5
37E
330
120
100
AcDbEntity
  8
0
 62
     7
100
AcDbVertex
100
AcDb2dVertex
 10
-43.48089579999999
 20
102.989586
 30
0.0
  0
VERTEX
  5
37F
330
120
100
AcDbEntity
  8
0
 62
     7
100
AcDbVertex
100
AcDb2dVertex
 10
-43.4951852
 20
103.2446299999999
 30
0.0
  0
VERTEX
  5
380
330
120
100
AcDbEntity
  8
0
 62
     7
100
AcDbVertex
100
AcDb2dVertex
 10
-43.5
 20
103.4999999999999
 30
0.0
  0
VERTEX
  5
381
330
120
100
AcDbEntity
  8
0
 62
     7
100
AcDbVertex
100
AcDb2dVertex
 10
-43.4951852
 20
103.7553699999999
 30
0.0
  0
VERTEX
  5
382
330
120
100
AcDbEntity
  8
0
 62
     7
100
AcDbVertex
100
AcDb2dVertex
 10
-43.48089579999999
 20
104.0104139999999
 30
0.0
  0
VERTEX
  5
383
330
120
100
AcDbEntity
  8
0
 62
     7
100
AcDbVertex
100
AcDb2dVertex
 10
-43.45736429999999
 20
104.2648069999999
 30
0.0
  0
VERTEX
  5
384
330
120
100
AcDbEntity
  8
0
 62
     7
100
AcDbVertex
100
AcDb2dVertex
 10
-43.4248234
 20
104.518224
 30
0.0
  0
VERTEX
  5
385
330
120
100
AcDbEntity
  8
0
 62
     7
100
AcDbVertex
100
AcDb2dVertex
 10
-43.3835055
 20
104.77034
 30
0.0
  0
VERTEX
  5
386
330
120
100
AcDbEntity
  8
0
 62
     7
100
AcDbVertex
100
AcDb2dVertex
 10
-43.3336431
 20
105.020828
 30
0.0
  0
VERTEX
  5
387
330
120
100
AcDbEntity
  8
0
 62
     7
100
AcDbVertex
100
AcDb2dVertex
 10
-43.27546889999999
 20
105.2693629999999
 30
0.0
  0
VERTEX
  5
388
330
120
100
AcDbEntity
  8
0
 62
     7
100
AcDbVertex
100
AcDb2dVertex
 10
-43.20921529999999
 20
105.515621
 30
0.0
  0
VERTEX
  5
389
330
120
100
AcDbEntity
  8
0
 62
     7
100
AcDbVertex
100
AcDb2dVertex
 10
-43.13511489999999
 20
105.7592749999999
 30
0.0
  0
VERTEX
  5
38A
330
120
100
AcDbEntity
  8
0
 62
     7
100
AcDbVertex
100
AcDb2dVertex
 10
-43.05340029999999
 20
106.0
 30
0.0
  0
SEQEND
  5
38B
330
120
100
AcDbEntity
  8
0
 62
     7
  0
POLYLINE
  5
137
330
1E
100
AcDbEntity
  8
0
 62
     7
100
AcDb2dPolyline
 66
     1
 10
0.0
 20
0.0
 30
0.0
  0
VERTEX
  5
38C
330
137
100
AcDbEntity
  8
0
 62
     7
100
AcDbVertex
100
AcDb2dVertex
 10
-41.94659620000001
 20
101.0
 30
0.0
  0
VERTEX
  5
38D
330
137
100
AcDbEntity
  8
0
 62
     7
100
AcDbVertex
100
AcDb2dVertex
 10
-41.8648822
 20
101.240725
 30
0.0
  0
VERTEX
  5
38E
330
137
100
AcDbEntity
  8
0
 62
     7
100
AcDbVertex
100
AcDb2dVertex
 10
-41.7907823
 20
101.484379
 30
0.0
  0
VERTEX
  5
38F
330
137
100
AcDbEntity
  8
0
 62
     7
100
AcDbVertex
100
AcDb2dVertex
 10
-41.72452929999999
 20
101.730637
 30
0.0
  0
VERTEX
  5
390
330
137
100
AcDbEntity
  8
0
 62
     7
100
AcDbVertex
100
AcDb2dVertex
 10
-41.6663555
 20
101.979173
 30
0.0
  0
VERTEX
  5
391
330
137
100
AcDbEntity
  8
0
 62
     7
100
AcDbVertex
100
AcDb2dVertex
 10
-41.6164936
 20
102.2296609999999
 30
0.0
  0
VERTEX
  5
392
330
137
100
AcDbEntity
  8
0
 62
     7
100
AcDbVertex
100
AcDb2dVertex
 10
-41.575176
 20
102.4817759999999
 30
0.0
  0
VERTEX
  5
393
330
137
100
AcDbEntity
  8
0
 62
     7
100
AcDbVertex
100
AcDb2dVertex
 10
-41.54263529999999
 20
102.735193
 30
0.0
  0
VERTEX
  5
394
330
137
100
AcDbEntity
  8
0
 62
     7
100
AcDbVertex
100
AcDb2dVertex
 10
-41.519104
 20
102.989586
 30
0.0
  0
VERTEX
  5
395
330
137
100
AcDbEntity
  8
0
 62
     7
100
AcDbVertex
100
AcDb2dVertex
 10
-41.50481479999999
 20
103.2446299999999
 30
0.0
  0
VERTEX
  5
396
330
137
100
AcDbEntity
  8
0
 62
     7
100
AcDbVertex
100
AcDb2dVertex
 10
-41.5
 20
103.4999999999999
 30
0.0
  0
VERTEX
  5
397
330
137
100
AcDbEntity
  8
0
 62
     7
100
AcDbVertex
100
AcDb2dVertex
 10
-41.50481479999999
 20
103.7553699999999
 30
0.0
  0
VERTEX
  5
398
330
137
100
AcDbEntity
  8
0
 62
     7
100
AcDbVertex
100
AcDb2dVertex
 10
-41.519104
 20
104.0104139999999
 30
0.0
  0
VERTEX
  5
399
330
137
100
AcDbEntity
  8
0
 62
     7
100
AcDbVertex
100
AcDb2dVertex
 10
-41.54263529999999
 20
104.2648069999999
 30
0.0
  0
VERTEX
  5
39A
330
137
100
AcDbEntity
  8
0
 62
     7
100
AcDbVertex
100
AcDb2dVertex
 10
-41.575176
 20
104.518224
 30
0.0
  0
VERTEX
  5
39B
330
137
100
AcDbEntity
  8
0
 62
     7
100
AcDbVertex
100
AcDb2dVertex
 10
-41.6164936
 20
104.770339
 30
0.0
  0
VERTEX
  5
39C
330
137
100
AcDbEntity
  8
0
 62
     7
100
AcDbVertex
100
AcDb2dVertex
 10
-41.6663555
 20
105.0208269999999
 30
0.0
  0
VERTEX
  5
39D
330
137
100
AcDbEntity
  8
0
 62
     7
100
AcDbVertex
100
AcDb2dVertex
 10
-41.72452929999999
 20
105.2693629999999
 30
0.0
  0
VERTEX
  5
39E
330
137
100
AcDbEntity
  8
0
 62
     7
100
AcDbVertex
100
AcDb2dVertex
 10
-41.7907823
 20
105.515621
 30
0.0
  0
VERTEX
  5
39F
330
137
100
AcDbEntity
  8
0
 62
     7
100
AcDbVertex
100
AcDb2dVertex
 10
-41.8648822
 20
105.7592749999999
 30
0.0
  0
VERTEX
  5
3A0
330
137
100
AcDbEntity
  8
0
 62
     7
100
AcDbVertex
100
AcDb2dVertex
 10
-41.94659620000001
 20
106.0
 30
0.0
  0
SEQEND
  5
3A1
330
137
100
AcDbEntity
  8
0
 62
     7
  0
POLYLINE
  5
14E
330
1E
100
AcDbEntity
  8
0
 62
     7
100
AcDb2dPolyline
 66
     1
 10
0.0
 20
0.0
 30
0.0
  0
VERTEX
  5
3A2
330
14E
100
AcDbEntity
  8
0
 62
     7
100
AcDbVertex
100
AcDb2dVertex
 10
-41.94659620000001
 20
106.0
 30
0.0
  0
VERTEX
  5
3A3
330
14E
100
AcDbEntity
  8
0
 62
     7
100
AcDbVertex
100
AcDb2dVertex
 10
-41.8648822
 20
106.2407249999999
 30
0.0
  0
VERTEX
  5
3A4
330
14E
100
AcDbEntity
  8
0
 62
     7
100
AcDbVertex
100
AcDb2dVertex
 10
-41.7907823
 20
106.484379
 30
0.0
  0
VERTEX
  5
3A5
330
14E
100
AcDbEntity
  8
0
 62
     7
100
AcDbVertex
100
AcDb2dVertex
 10
-41.72452929999999
 20
106.730637
 30
0.0
  0
VERTEX
  5
3A6
330
14E
100
AcDbEntity
  8
0
 62
     7
100
AcDbVertex
100
AcDb2dVertex
 10
-41.6663555
 20
106.979173
 30
0.0
  0
VERTEX
  5
3A7
330
14E
100
AcDbEntity
  8
0
 62
     7
100
AcDbVertex
100
AcDb2dVertex
 10
-41.6164936
 20
107.229661
 30
0.0
  0
VERTEX
  5
3A8
330
14E
100
AcDbEntity
  8
0
 62
     7
100
AcDbVertex
100
AcDb2dVertex
 10
-41.575176
 20
107.4817759999999
 30
0.0
  0
VERTEX
  5
3A9
330
14E
100
AcDbEntity
  8
0
 62
     7
100
AcDbVertex
100
AcDb2dVertex
 10
-41.54263529999999
 20
107.735193
 30
0.0
  0
VERTEX
  5
3AA
330
14E
100
AcDbEntity
  8
0
 62
     7
100
AcDbVertex
100
AcDb2dVertex
 10
-41.519104
 20
107.989586
 30
0.0
  0
VERTEX
  5
3AB
330
14E
100
AcDbEntity
  8
0
 62
     7
100
AcDbVertex
100
AcDb2dVertex
 10
-41.50481479999999
 20
108.2446299999999
 30
0.0
  0
VERTEX
  5
3AC
330
14E
100
AcDbEntity
  8
0
 62
     7
100
AcDbVertex
100
AcDb2dVertex
 10
-41.5
 20
108.4999999999999
 30
0.0
  0
VERTEX
  5
3AD
330
14E
100
AcDbEntity
  8
0
 62
     7
100
AcDbVertex
100
AcDb2dVertex
 10
-41.50481479999999
 20
108.7553699999999
 30
0.0
  0
VERTEX
  5
3AE
330
14E
100
AcDbEntity
  8
0
 62
     7
100
AcDbVertex
100
AcDb2dVertex
 10
-41.519104
 20
109.0104139999999
 30
0.0
  0
VERTEX
  5
3AF
330
14E
100
AcDbEntity
  8
0
 62
     7
100
AcDbVertex
100
AcDb2dVertex
 10
-41.54263529999999
 20
109.264807
 30
0.0
  0
VERTEX
  5
3B0
330
14E
100
AcDbEntity
  8
0
 62
     7
100
AcDbVertex
100
AcDb2dVertex
 10
-41.575176
 20
109.5182239999999
 30
0.0
  0
VERTEX
  5
3B1
330
14E
100
AcDbEntity
  8
0
 62
     7
100
AcDbVertex
100
AcDb2dVertex
 10
-41.6164936
 20
109.7703389999999
 30
0.0
  0
VERTEX
  5
3B2
330
14E
100
AcDbEntity
  8
0
 62
     7
100
AcDbVertex
100
AcDb2dVertex
 10
-41.6663555
 20
110.0208269999999
 30
0.0
  0
VERTEX
  5
3B3
330
14E
100
AcDbEntity
  8
0
 62
     7
100
AcDbVertex
100
AcDb2dVertex
 10
-41.72452929999999
 20
110.2693629999999
 30
0.0
  0
VERTEX
  5
3B4
330
14E
100
AcDbEntity
  8
0
 62
     7
100
AcDbVertex
100
AcDb2dVertex
 10
-41.7907823
 20
110.515621
 30
0.0
  0
VERTEX
  5
3B5
330
14E
100
AcDbEntity
  8
0
 62
     7
100
AcDbVertex
100
AcDb2dVertex
 10
-41.8648822
 20
110.759275
 30
0.0
  0
VERTEX
  5
3B6
330
14E
100
AcDbEntity
  8
0
 62
     7
100
AcDbVertex
100
AcDb2dVertex
 10
-41.94659620000001
 20
111.0
 30
0.0
  0
SEQEND
  5
3B7
330
14E
100
AcDbEntity
  8
0
 62
     7
  0
POLYLINE
  5
165
330
1E
100
AcDbEntity
  8
0
 62
     7
100
AcDb2dPolyline
 66
     1
 10
0.0
 20
0.0
 30
0.0
  0
VERTEX
  5
3B8
330
165
100
AcDbEntity
  8
0
 62
     7
100
AcDbVertex
100
AcDb2dVertex
 10
-43.05340029999999
 20
106.0
 30
0.0
  0
VERTEX
  5
3B9
330
165
100
AcDbEntity
  8
0
 62
     7
100
AcDbVertex
100
AcDb2dVertex
 10
-43.13511489999999
 20
106.2407249999999
 30
0.0
  0
VERTEX
  5
3BA
330
165
100
AcDbEntity
  8
0
 62
     7
100
AcDbVertex
100
AcDb2dVertex
 10
-43.20921529999999
 20
106.484379
 30
0.0
  0
VERTEX
  5
3BB
330
165
100
AcDbEntity
  8
0
 62
     7
100
AcDbVertex
100
AcDb2dVertex
 10
-43.27546889999999
 20
106.730637
 30
0.0
  0
VERTEX
  5
3BC
330
165
100
AcDbEntity
  8
0
 62
     7
100
AcDbVertex
100
AcDb2dVertex
 10
-43.3336431
 20
106.979172
 30
0.0
  0
VERTEX
  5
3BD
330
165
100
AcDbEntity
  8
0
 62
     7
100
AcDbVertex
100
AcDb2dVertex
 10
-43.3835055
 20
107.22966
 30
0.0
  0
VERTEX
  5
3BE
330
165
100
AcDbEntity
  8
0
 62
     7
100
AcDbVertex
100
AcDb2dVertex
 10
-43.4248234
 20
107.4817759999999
 30
0.0
  0
VERTEX
  5
3BF
330
165
100
AcDbEntity
  8
0
 62
     7
100
AcDbVertex
100
AcDb2dVertex
 10
-43.45736429999999
 20
107.735193
 30
0.0
  0
VERTEX
  5
3C0
330
165
100
AcDbEntity
  8
0
 62
     7
100
AcDbVertex
100
AcDb2dVertex
 10
-43.48089579999999
 20
107.989586
 30
0.0
  0
VERTEX
  5
3C1
330
165
100
AcDbEntity
  8
0
 62
     7
100
AcDbVertex
100
AcDb2dVertex
 10
-43.4951852
 20
108.2446299999999
 30
0.0
  0
VERTEX
  5
3C2
330
165
100
AcDbEntity
  8
0
 62
     7
100
AcDbVertex
100
AcDb2dVertex
 10
-43.5
 20
108.4999999999999
 30
0.0
  0
VERTEX
  5
3C3
330
165
100
AcDbEntity
  8
0
 62
     7
100
AcDbVertex
100
AcDb2dVertex
 10
-43.4951852
 20
108.7553699999999
 30
0.0
  0
VERTEX
  5
3C4
330
165
100
AcDbEntity
  8
0
 62
     7
100
AcDbVertex
100
AcDb2dVertex
 10
-43.48089579999999
 20
109.0104139999999
 30
0.0
  0
VERTEX
  5
3C5
330
165
100
AcDbEntity
  8
0
 62
     7
100
AcDbVertex
100
AcDb2dVertex
 10
-43.45736429999999
 20
109.264807
 30
0.0
  0
VERTEX
  5
3C6
330
165
100
AcDbEntity
  8
0
 62
     7
100
AcDbVertex
100
AcDb2dVertex
 10
-43.4248234
 20
109.5182239999999
 30
0.0
  0
VERTEX
  5
3C7
330
165
100
AcDbEntity
  8
0
 62
     7
100
AcDbVertex
100
AcDb2dVertex
 10
-43.3835055
 20
109.7703399999999
 30
0.0
  0
VERTEX
  5
3C8
330
165
100
AcDbEntity
  8
0
 62
     7
100
AcDbVertex
100
AcDb2dVertex
 10
-43.3336431
 20
110.020828
 30
0.0
  0
VERTEX
  5
3C9
330
165
100
AcDbEntity
  8
0
 62
     7
100
AcDbVertex
100
AcDb2dVertex
 10
-43.27546889999999
 20
110.2693629999999
 30
0.0
  0
VERTEX
  5
3CA
330
165
100
AcDbEntity
  8
0
 62
     7
100
AcDbVertex
100
AcDb2dVertex
 10
-43.20921529999999
 20
110.515621
 30
0.0
  0
VERTEX
  5
3CB
330
165
100
AcDbEntity
  8
0
 62
     7
100
AcDbVertex
100
AcDb2dVertex
 10
-43.13511489999999
 20
110.759275
 30
0.0
  0
VERTEX
  5
3CC
330
165
100
AcDbEntity
  8
0
 62
     7
100
AcDbVertex
100
AcDb2dVertex
 10
-43.05340029999999
 20
111.0
 30
0.0
  0
SEQEND
  5
3CD
330
165
100
AcDbEntity
  8
0
 62
     7
  0
LINE
  5
17C
330
1E
100
AcDbEntity
  8
0
 62
     7
100
AcDbLine
 10
-83.0
 20
-134.4999999999999
 30
0.0
 11
-95.0
 21
-134.4999999999999
 31
0.0
  0
LINE
  5
17D
330
1E
100
AcDbEntity
  8
0
 62
     7
100
AcDbLine
 10
-83.0
 20
-134.4999999999999
 30
0.0
 11
-82.79999999999999
 21
-134.3
 31
0.0
  0
LINE
  5
17E
330
1E
100
AcDbEntity
  8
0
 62
     7
100
AcDbLine
 10
-57.2
 20
-134.3
 30
0.0
 11
-82.79999999999999
 21
-134.3
 31
0.0
  0
LINE
  5
17F
330
1E
100
AcDbEntity
  8
0
 62
     7
100
AcDbLine
 10
-57.0
 20
-134.4999999999999
 30
0.0
 11
-57.2
 21
-134.3
 31
0.0
  0
LINE
  5
180
330
1E
100
AcDbEntity
  8
0
 62
     7
100
AcDbLine
 10
-94.50000000000001
 20
-98.50000000000001
 30
0.0
 11
-94.50000000000001
 21
-94.50000379999998
 31
0.0
  0
LINE
  5
181
330
1E
100
AcDbEntity
  8
0
 62
     7
100
AcDbLine
 10
-45.49999999999999
 20
-98.50000000000001
 30
0.0
 11
-45.49999999999999
 21
-94.50000379999998
 31
0.0
  0
LINE
  5
182
330
1E
100
AcDbEntity
  8
0
 62
     7
100
AcDbLine
 10
-94.50000000000001
 20
-98.50000000000001
 30
0.0
 11
-45.49999999999999
 21
-98.50000000000001
 31
0.0
  0
LINE
  5
183
330
1E
100
AcDbEntity
  8
0
 62
     7
100
AcDbLine
 10
-95.0
 20
-99.50000000000001
 30
0.0
 11
-43.5
 21
-99.50000000000001
 31
0.0
  0
LINE
  5
184
330
1E
100
AcDbEntity
  8
0
 62
     7
100
AcDbLine
 10
-95.0
 20
-134.4999999999999
 30
0.0
 11
-96.5
 21
-133.0
 31
0.0
  0
LINE
  5
185
330
1E
100
AcDbEntity
  8
0
 62
     7
100
AcDbLine
 10
-43.5
 20
-133.0
 30
0.0
 11
-45.0
 21
-134.4999999999999
 31
0.0
  0
LINE
  5
186
330
1E
100
AcDbEntity
  8
0
 62
     7
100
AcDbLine
 10
-43.5
 20
-108.0
 30
0.0
 11
-45.0
 21
-106.4999999999999
 31
0.0
  0
LINE
  5
187
330
1E
100
AcDbEntity
  8
0
 62
     7
100
AcDbLine
 10
-95.0
 20
-106.4999999999999
 30
0.0
 11
-96.5
 21
-108.0
 31
0.0
  0
LINE
  5
188
330
1E
100
AcDbEntity
  8
0
 62
     7
100
AcDbLine
 10
-95.0
 20
-106.4999999999999
 30
0.0
 11
-95.0
 21
-99.50000000000001
 31
0.0
  0
LINE
  5
189
330
1E
100
AcDbEntity
  8
0
 62
     7
100
AcDbLine
 10
-41.5
 20
-111.0
 30
0.0
 11
-41.5
 21
-101.0
 31
0.0
  0
LINE
  5
18A
330
1E
100
AcDbEntity
  8
0
 62
     7
100
AcDbLine
 10
-96.5
 20
-114.0
 30
0.0
 11
-96.5
 21
-108.0
 31
0.0
  0
LINE
  5
18B
330
1E
100
AcDbEntity
  8
0
 62
     7
100
AcDbLine
 10
-43.5
 20
-133.0
 30
0.0
 11
-43.5
 21
-99.50000000000001
 31
0.0
  0
LINE
  5
18C
330
1E
100
AcDbEntity
  8
0
 62
     7
100
AcDbLine
 10
-96.5
 20
-133.0
 30
0.0
 11
-96.5
 21
-126.0
 31
0.0
  0
LINE
  5
18D
330
1E
100
AcDbEntity
  8
0
 62
     7
100
AcDbLine
 10
-93.47499969999999
 20
-126.075
 30
0.0
 11
-95.0999997
 21
-126.075
 31
0.0
  0
LINE
  5
18E
330
1E
100
AcDbEntity
  8
0
 62
     7
100
AcDbLine
 10
-95.79999970000001
 20
-122.3999999999999
 30
0.0
 11
-95.5749997
 21
-122.3999999999999
 31
0.0
  0
LINE
  5
18F
330
1E
100
AcDbEntity
  8
0
 62
     7
100
AcDbLine
 10
-96.0999997
 20
-125.6
 30
0.0
 11
-95.5749997
 21
-125.6
 31
0.0
  0
LINE
  5
190
330
1E
100
AcDbEntity
  8
0
 62
     7
100
AcDbLine
 10
-93.47499969999999
 20
-121.9249999999999
 30
0.0
 11
-95.0999997
 21
-121.9249999999999
 31
0.0
  0
LINE
  5
191
330
1E
100
AcDbEntity
  8
0
 62
     7
100
AcDbLine
 10
-95.0999997
 20
-121.9249999999999
 30
0.0
 11
-95.5749997
 21
-122.3999999999999
 31
0.0
  0
ARC
  5
192
330
1E
100
AcDbEntity
  8
0
 62
     7
100
AcDbCircle
 10
-95.79999970000001
 20
-122.0999999999999
 30
0.0
 40
0.3
100
AcDbArc
 50
180.0
 51
270.0
  0
ARC
  5
193
330
1E
100
AcDbEntity
  8
0
 62
     7
100
AcDbCircle
 10
-93.47499969999999
 20
-124.0
 30
0.0
 40
2.075
100
AcDbArc
 50
270.0
 51
90.00000020000001
  0
LINE
  5
194
330
1E
100
AcDbEntity
  8
0
 62
     7
100
AcDbLine
 10
-95.0999997
 20
-126.075
 30
0.0
 11
-95.5749997
 21
-125.6
 31
0.0
  0
LINE
  5
195
330
1E
100
AcDbEntity
  8
0
  6
CENTER
 62
     2
100
AcDbLine
 10
-90.95298690000001
 20
-124.0
 30
0.0
 11
-98.4999997
 21
-124.0
 31
0.0
  0
LINE
  5
196
330
1E
100
AcDbEntity
  8
0
 62
     7
100
AcDbLine
 10
-96.0999997
 20
-125.6
 30
0.0
 11
-96.49999970000001
 21
-126.0
 31
0.0
  0
ARC
  5
197
330
1E
100
AcDbEntity
  8
0
 62
     7
100
AcDbCircle
 10
-95.79999970000001
 20
-117.9
 30
0.0
 40
0.3
100
AcDbArc
 50
90.00000020000001
 51
180.0
  0
LINE
  5
198
330
1E
100
AcDbEntity
  8
0
 62
     7
100
AcDbLine
 10
-96.0999997
 20
-117.9
 30
0.0
 11
-96.0999997
 21
-122.0999999999999
 31
0.0
  0
ARC
  5
199
330
1E
100
AcDbEntity
  8
0
 62
     7
100
AcDbCircle
 10
-93.47499969999999
 20
-116.0
 30
0.0
 40
2.075
100
AcDbArc
 50
270.0
 51
90.00000020000001
  0
LINE
  5
19A
330
1E
100
AcDbEntity
  8
0
 62
     7
100
AcDbLine
 10
-95.0999997
 20
-118.0749999999999
 30
0.0
 11
-95.5749997
 21
-117.5999999999999
 31
0.0
  0
LINE
  5
19B
330
1E
100
AcDbEntity
  8
0
 62
     7
100
AcDbLine
 10
-95.0999997
 20
-113.925
 30
0.0
 11
-95.5749997
 21
-114.4
 31
0.0
  0
LINE
  5
19C
330
1E
100
AcDbEntity
  8
0
 62
     7
100
AcDbLine
 10
-93.47499969999999
 20
-113.925
 30
0.0
 11
-95.0999997
 21
-113.925
 31
0.0
  0
LINE
  5
19D
330
1E
100
AcDbEntity
  8
0
 62
     7
100
AcDbLine
 10
-93.47499969999999
 20
-118.0749999999999
 30
0.0
 11
-95.0999997
 21
-118.0749999999999
 31
0.0
  0
LINE
  5
19E
330
1E
100
AcDbEntity
  8
0
  6
CENTER
 62
     2
100
AcDbLine
 10
-90.95298690000001
 20
-116.0
 30
0.0
 11
-98.4999997
 21
-116.0
 31
0.0
  0
LINE
  5
19F
330
1E
100
AcDbEntity
  8
0
 62
     7
100
AcDbLine
 10
-96.0999997
 20
-114.4
 30
0.0
 11
-96.49999970000001
 21
-114.0
 31
0.0
  0
LINE
  5
1A0
330
1E
100
AcDbEntity
  8
0
 62
     7
100
AcDbLine
 10
-96.0999997
 20
-114.4
 30
0.0
 11
-95.5749997
 21
-114.4
 31
0.0
  0
LINE
  5
1A1
330
1E
100
AcDbEntity
  8
0
 62
     7
100
AcDbLine
 10
-95.79999970000001
 20
-117.5999999999999
 30
0.0
 11
-95.5749997
 21
-117.5999999999999
 31
0.0
  0
LINE
  5
1A2
330
1E
100
AcDbEntity
  8
0
 62
     7
100
AcDbLine
 10
-45.0
 20
-134.4999999999999
 30
0.0
 11
-57.0
 21
-134.4999999999999
 31
0.0
  0
LINE
  5
1A3
330
1E
100
AcDbEntity
  8
0
 62
     7
100
AcDbLine
 10
-94.50000000000001
 20
-94.50000000000001
 30
0.0
 11
-45.49999999999999
 21
-94.50000000000001
 31
0.0
  0
LINE
  5
1A4
330
1E
100
AcDbEntity
  8
0
 62
     7
100
AcDbLine
 10
-45.0
 20
-106.4999999999999
 30
0.0
 11
-95.0
 21
-106.4999999999999
 31
0.0
  0
LINE
  5
1A5
330
1E
100
AcDbEntity
  8
0
  6
CENTER
 62
     2
100
AcDbLine
 10
-70.0
 20
-138.5
 30
0.0
 11
-70.0
 21
-90.5
 31
0.0
  0
LINE
  5
1A6
330
1E
100
AcDbEntity
  8
0
  6
CENTER
 62
     2
100
AcDbLine
 10
-82.0
 20
-130.4999999999999
 30
0.0
 11
-82.0
 21
-109.4999999999999
 31
0.0
  0
LINE
  5
1A7
330
1E
100
AcDbEntity
  8
0
  6
CENTER
 62
     2
100
AcDbLine
 10
-47.5000305
 20
-120.0
 30
0.0
 11
-92.5
 21
-120.0
 31
0.0
  0
LINE
  5
1A8
330
1E
100
AcDbEntity
  8
0
  6
CENTER
 62
     2
100
AcDbLine
 10
-58.0
 20
-130.4999999999999
 30
0.0
 11
-58.0
 21
-109.4999999999999
 31
0.0
  0
LINE
  5
1A9
330
1E
100
AcDbEntity
  8
0
 62
     7
100
AcDbLine
 10
-92.5
 20
-99.50000000000001
 30
0.0
 11
-92.5
 21
-98.50000000000001
 31
0.0
  0
LINE
  5
1AA
330
1E
100
AcDbEntity
  8
0
 62
     7
100
AcDbLine
 10
-47.5
 20
-99.50000000000001
 30
0.0
 11
-47.5
 21
-98.50000000000001
 31
0.0
  0
LINE
  5
1AB
330
1E
100
AcDbEntity
  8
0
 62
     7
100
AcDbLine
 10
-43.5
 20
-101.0
 30
0.0
 11
-41.5
 21
-101.0
 31
0.0
  0
LINE
  5
1AC
330
1E
100
AcDbEntity
  8
0
 62
     7
100
AcDbLine
 10
-43.49997759999999
 20
-111.0
 30
0.0
 11
-41.5
 21
-111.0
 31
0.0
  0
LINE
  5
1AD
330
1E
100
AcDbEntity
  8
0
 62
     7
100
AcDbLine
 10
-43.05340029999999
 20
-106.0
 30
0.0
 11
-41.94659620000001
 21
-106.0
 31
0.0
  0
ARC
  5
1AE
330
1E
100
AcDbEntity
  8
0
 62
     7
100
AcDbCircle
 10
-84.0733185
 20
-127.7377399999999
 30
0.0
 40
1.0
100
AcDbArc
 50
318.7793849999999
 51
160.278981
  0
ARC
  5
1AF
330
1E
100
AcDbEntity
  8
0
 62
     7
100
AcDbCircle
 10
-79.9266815
 20
-127.7377399999999
 30
0.0
 40
1.0
100
AcDbArc
 50
19.7210511
 51
221.220702
  0
CIRCLE
  5
1B0
330
1E
100
AcDbEntity
  8
0
 62
     7
100
AcDbCircle
 10
-82.0
 20
-120.0
 30
0.0
 40
8.5
  0
ARC
  5
1B1
330
1E
100
AcDbEntity
  8
0
 62
     7
100
AcDbCircle
 10
-82.0
 20
-120.4722209999999
 30
0.0
 40
7.555555339999999
100
AcDbArc
 50
293.09357
 51
246.9065029999999
  0
CIRCLE
  5
1B2
330
1E
100
AcDbEntity
  8
0
 62
     7
100
AcDbCircle
 10
-79.9266815
 20
-127.7377399999999
 30
0.0
 40
0.472222209
  0
CIRCLE
  5
1B3
330
1E
100
AcDbEntity
  8
0
 62
     7
100
AcDbCircle
 10
-84.0733185
 20
-127.7377399999999
 30
0.0
 40
0.472222209
  0
ARC
  5
1B4
330
1E
100
AcDbEntity
  8
0
 62
     7
100
AcDbCircle
 10
-55.926712
 20
-127.7377399999999
 30
0.0
 40
1.0
100
AcDbArc
 50
19.7209828
 51
221.220579
  0
ARC
  5
1B5
330
1E
100
AcDbEntity
  8
0
 62
     7
100
AcDbCircle
 10
-60.073349
 20
-127.7377399999999
 30
0.0
 40
1.0
100
AcDbArc
 50
318.779262
 51
160.2789129999999
  0
CIRCLE
  5
1B6
330
1E
100
AcDbEntity
  8
0
 62
     7
100
AcDbCircle
 10
-58.0000305
 20
-120.0
 30
0.0
 40
8.5
  0
ARC
  5
1B7
330
1E
100
AcDbEntity
  8
0
 62
     7
100
AcDbCircle
 10
-58.0000305
 20
-120.4722209999999
 30
0.0
 40
7.555555339999999
100
AcDbArc
 50
293.093462
 51
246.906393
  0
CIRCLE
  5
1B8
330
1E
100
AcDbEntity
  8
0
 62
     7
100
AcDbCircle
 10
-60.073349
 20
-127.7377399999999
 30
0.0
 40
0.472222209
  0
CIRCLE
  5
1B9
330
1E
100
AcDbEntity
  8
0
 62
     7
100
AcDbCircle
 10
-55.926712
 20
-127.7377399999999
 30
0.0
 40
0.472222209
  0
LINE
  5
1BA
330
1E
100
AcDbEntity
  8
0
 62
     7
100
AcDbLine
 10
-35.5
 20
-101.999979
 30
0.0
 11
-35.0
 21
-102.499979
 31
0.0
  0
LINE
  5
1BB
330
1E
100
AcDbEntity
  8
0
 62
     7
100
AcDbLine
 10
-35.5
 20
-109.999979
 30
0.0
 11
-35.0
 21
-109.499979
 31
0.0
  0
LINE
  5
1BC
330
1E
100
AcDbEntity
  8
0
 62
     7
100
AcDbLine
 10
-35.0
 20
-109.499979
 30
0.0
 11
-35.0
 21
-102.499979
 31
0.0
  0
LINE
  5
1BD
330
1E
100
AcDbEntity
  8
0
 62
     7
100
AcDbLine
 10
-35.5
 20
-110.0
 30
0.0
 11
-35.5
 21
-101.999979
 31
0.0
  0
LINE
  5
1BE
330
1E
100
AcDbEntity
  8
0
  6
CENTER
 62
     2
100
AcDbLine
 10
-43.5000005
 20
-106.0
 30
0.0
 11
-33.0000143
 21
-106.0
 31
0.0
  0
LINE
  5
1BF
330
1E
100
AcDbEntity
  8
0
 62
     7
100
AcDbLine
 10
-41.5000005
 20
-102.0
 30
0.0
 11
-35.5
 21
-102.0
 31
0.0
  0
LINE
  5
1C0
330
1E
100
AcDbEntity
  8
0
 62
     7
100
AcDbLine
 10
-41.5000005
 20
-110.0
 30
0.0
 11
-35.5
 21
-110.0
 31
0.0
  0
LINE
  5
1C1
330
1E
100
AcDbEntity
  8
0
 62
     2
100
AcDbLine
 10
-35.12497949999999
 20
-102.3749999999999
 30
0.0
 11
-41.5000005
 21
-102.3749999999999
 31
0.0
  0
LINE
  5
1C2
330
1E
100
AcDbEntity
  8
0
 62
     2
100
AcDbLine
 10
-41.5000005
 20
-109.6249999999999
 30
0.0
 11
-35.1250205
 21
-109.6249999999999
 31
0.0
  0
POLYLINE
  5
1C3
330
1E
100
AcDbEntity
  8
0
 62
     7
100
AcDb2dPolyline
 66
     1
 10
0.0
 20
0.0
 30
0.0
  0
VERTEX
  5
3CE
330
1C3
100
AcDbEntity
  8
0
 62
     7
100
AcDbVertex
100
AcDb2dVertex
 10
-43.05340029999999
 20
-106.0
 30
0.0
  0
VERTEX
  5
3CF
330
1C3
100
AcDbEntity
  8
0
 62
     7
100
AcDbVertex
100
AcDb2dVertex
 10
-43.13511489999999
 20
-106.2407249999999
 30
0.0
  0
VERTEX
  5
3D0
330
1C3
100
AcDbEntity
  8
0
 62
     7
100
AcDbVertex
100
AcDb2dVertex
 10
-43.20921529999999
 20
-106.484379
 30
0.0
  0
VERTEX
  5
3D1
330
1C3
100
AcDbEntity
  8
0
 62
     7
100
AcDbVertex
100
AcDb2dVertex
 10
-43.27546889999999
 20
-106.730637
 30
0.0
  0
VERTEX
  5
3D2
330
1C3
100
AcDbEntity
  8
0
 62
     7
100
AcDbVertex
100
AcDb2dVertex
 10
-43.3336431
 20
-106.979172
 30
0.0
  0
VERTEX
  5
3D3
330
1C3
100
AcDbEntity
  8
0
 62
     7
100
AcDbVertex
100
AcDb2dVertex
 10
-43.3835055
 20
-107.22966
 30
0.0
  0
VERTEX
  5
3D4
330
1C3
100
AcDbEntity
  8
0
 62
     7
100
AcDbVertex
100
AcDb2dVertex
 10
-43.4248234
 20
-107.4817759999999
 30
0.0
  0
VERTEX
  5
3D5
330
1C3
100
AcDbEntity
  8
0
 62
     7
100
AcDbVertex
100
AcDb2dVertex
 10
-43.45736429999999
 20
-107.735193
 30
0.0
  0
VERTEX
  5
3D6
330
1C3
100
AcDbEntity
  8
0
 62
     7
100
AcDbVertex
100
AcDb2dVertex
 10
-43.48089579999999
 20
-107.989586
 30
0.0
  0
VERTEX
  5
3D7
330
1C3
100
AcDbEntity
  8
0
 62
     7
100
AcDbVertex
100
AcDb2dVertex
 10
-43.4951852
 20
-108.2446299999999
 30
0.0
  0
VERTEX
  5
3D8
330
1C3
100
AcDbEntity
  8
0
 62
     7
100
AcDbVertex
100
AcDb2dVertex
 10
-43.5
 20
-108.4999999999999
 30
0.0
  0
VERTEX
  5
3D9
330
1C3
100
AcDbEntity
  8
0
 62
     7
100
AcDbVertex
100
AcDb2dVertex
 10
-43.4951852
 20
-108.7553699999999
 30
0.0
  0
VERTEX
  5
3DA
330
1C3
100
AcDbEntity
  8
0
 62
     7
100
AcDbVertex
100
AcDb2dVertex
 10
-43.48089579999999
 20
-109.0104139999999
 30
0.0
  0
VERTEX
  5
3DB
330
1C3
100
AcDbEntity
  8
0
 62
     7
100
AcDbVertex
100
AcDb2dVertex
 10
-43.45736429999999
 20
-109.264807
 30
0.0
  0
VERTEX
  5
3DC
330
1C3
100
AcDbEntity
  8
0
 62
     7
100
AcDbVertex
100
AcDb2dVertex
 10
-43.4248234
 20
-109.5182239999999
 30
0.0
  0
VERTEX
  5
3DD
330
1C3
100
AcDbEntity
  8
0
 62
     7
100
AcDbVertex
100
AcDb2dVertex
 10
-43.3835055
 20
-109.7703399999999
 30
0.0
  0
VERTEX
  5
3DE
330
1C3
100
AcDbEntity
  8
0
 62
     7
100
AcDbVertex
100
AcDb2dVertex
 10
-43.3336431
 20
-110.020828
 30
0.0
  0
VERTEX
  5
3DF
330
1C3
100
AcDbEntity
  8
0
 62
     7
100
AcDbVertex
100
AcDb2dVertex
 10
-43.27546889999999
 20
-110.2693629999999
 30
0.0
  0
VERTEX
  5
3E0
330
1C3
100
AcDbEntity
  8
0
 62
     7
100
AcDbVertex
100
AcDb2dVertex
 10
-43.20921529999999
 20
-110.515621
 30
0.0
  0
VERTEX
  5
3E1
330
1C3
100
AcDbEntity
  8
0
 62
     7
100
AcDbVertex
100
AcDb2dVertex
 10
-43.13511489999999
 20
-110.759275
 30
0.0
  0
VERTEX
  5
3E2
330
1C3
100
AcDbEntity
  8
0
 62
     7
100
AcDbVertex
100
AcDb2dVertex
 10
-43.05340029999999
 20
-111.0
 30
0.0
  0
SEQEND
  5
3E3
330
1C3
100
AcDbEntity
  8
0
 62
     7
  0
POLYLINE
  5
1DA
330
1E
100
AcDbEntity
  8
0
 62
     7
100
AcDb2dPolyline
 66
     1
 10
0.0
 20
0.0
 30
0.0
  0
VERTEX
  5
3E4
330
1DA
100
AcDbEntity
  8
0
 62
     7
100
AcDbVertex
100
AcDb2dVertex
 10
-41.94659620000001
 20
-106.0
 30
0.0
  0
VERTEX
  5
3E5
330
1DA
100
AcDbEntity
  8
0
 62
     7
100
AcDbVertex
100
AcDb2dVertex
 10
-41.8648822
 20
-106.2407249999999
 30
0.0
  0
VERTEX
  5
3E6
330
1DA
100
AcDbEntity
  8
0
 62
     7
100
AcDbVertex
100
AcDb2dVertex
 10
-41.7907823
 20
-106.484379
 30
0.0
  0
VERTEX
  5
3E7
330
1DA
100
AcDbEntity
  8
0
 62
     7
100
AcDbVertex
100
AcDb2dVertex
 10
-41.72452929999999
 20
-106.730637
 30
0.0
  0
VERTEX
  5
3E8
330
1DA
100
AcDbEntity
  8
0
 62
     7
100
AcDbVertex
100
AcDb2dVertex
 10
-41.6663555
 20
-106.979173
 30
0.0
  0
VERTEX
  5
3E9
330
1DA
100
AcDbEntity
  8
0
 62
     7
100
AcDbVertex
100
AcDb2dVertex
 10
-41.6164936
 20
-107.229661
 30
0.0
  0
VERTEX
  5
3EA
330
1DA
100
AcDbEntity
  8
0
 62
     7
100
AcDbVertex
100
AcDb2dVertex
 10
-41.575176
 20
-107.4817759999999
 30
0.0
  0
VERTEX
  5
3EB
330
1DA
100
AcDbEntity
  8
0
 62
     7
100
AcDbVertex
100
AcDb2dVertex
 10
-41.54263529999999
 20
-107.735193
 30
0.0
  0
VERTEX
  5
3EC
330
1DA
100
AcDbEntity
  8
0
 62
     7
100
AcDbVertex
100
AcDb2dVertex
 10
-41.519104
 20
-107.989586
 30
0.0
  0
VERTEX
  5
3ED
330
1DA
100
AcDbEntity
  8
0
 62
     7
100
AcDbVertex
100
AcDb2dVertex
 10
-41.50481479999999
 20
-108.2446299999999
 30
0.0
  0
VERTEX
  5
3EE
330
1DA
100
AcDbEntity
  8
0
 62
     7
100
AcDbVertex
100
AcDb2dVertex
 10
-41.5
 20
-108.4999999999999
 30
0.0
  0
VERTEX
  5
3EF
330
1DA
100
AcDbEntity
  8
0
 62
     7
100
AcDbVertex
100
AcDb2dVertex
 10
-41.50481479999999
 20
-108.7553699999999
 30
0.0
  0
VERTEX
  5
3F0
330
1DA
100
AcDbEntity
  8
0
 62
     7
100
AcDbVertex
100
AcDb2dVertex
 10
-41.519104
 20
-109.0104139999999
 30
0.0
  0
VERTEX
  5
3F1
330
1DA
100
AcDbEntity
  8
0
 62
     7
100
AcDbVertex
100
AcDb2dVertex
 10
-41.54263529999999
 20
-109.264807
 30
0.0
  0
VERTEX
  5
3F2
330
1DA
100
AcDbEntity
  8
0
 62
     7
100
AcDbVertex
100
AcDb2dVertex
 10
-41.575176
 20
-109.5182239999999
 30
0.0
  0
VERTEX
  5
3F3
330
1DA
100
AcDbEntity
  8
0
 62
     7
100
AcDbVertex
100
AcDb2dVertex
 10
-41.6164936
 20
-109.7703389999999
 30
0.0
  0
VERTEX
  5
3F4
330
1DA
100
AcDbEntity
  8
0
 62
     7
100
AcDbVertex
100
AcDb2dVertex
 10
-41.6663555
 20
-110.0208269999999
 30
0.0
  0
VERTEX
  5
3F5
330
1DA
100
AcDbEntity
  8
0
 62
     7
100
AcDbVertex
100
AcDb2dVertex
 10
-41.72452929999999
 20
-110.2693629999999
 30
0.0
  0
VERTEX
  5
3F6
330
1DA
100
AcDbEntity
  8
0
 62
     7
100
AcDbVertex
100
AcDb2dVertex
 10
-41.7907823
 20
-110.515621
 30
0.0
  0
VERTEX
  5
3F7
330
1DA
100
AcDbEntity
  8
0
 62
     7
100
AcDbVertex
100
AcDb2dVertex
 10
-41.8648822
 20
-110.759275
 30
0.0
  0
VERTEX
  5
3F8
330
1DA
100
AcDbEntity
  8
0
 62
     7
100
AcDbVertex
100
AcDb2dVertex
 10
-41.94659620000001
 20
-111.0
 30
0.0
  0
SEQEND
  5
3F9
330
1DA
100
AcDbEntity
  8
0
 62
     7
  0
POLYLINE
  5
1F1
330
1E
100
AcDbEntity
  8
0
 62
     7
100
AcDb2dPolyline
 66
     1
 10
0.0
 20
0.0
 30
0.0
  0
VERTEX
  5
3FA
330
1F1
100
AcDbEntity
  8
0
 62
     7
100
AcDbVertex
100
AcDb2dVertex
 10
-41.94659620000001
 20
-101.0
 30
0.0
  0
VERTEX
  5
3FB
330
1F1
100
AcDbEntity
  8
0
 62
     7
100
AcDbVertex
100
AcDb2dVertex
 10
-41.8648822
 20
-101.240725
 30
0.0
  0
VERTEX
  5
3FC
330
1F1
100
AcDbEntity
  8
0
 62
     7
100
AcDbVertex
100
AcDb2dVertex
 10
-41.7907823
 20
-101.484379
 30
0.0
  0
VERTEX
  5
3FD
330
1F1
100
AcDbEntity
  8
0
 62
     7
100
AcDbVertex
100
AcDb2dVertex
 10
-41.72452929999999
 20
-101.730637
 30
0.0
  0
VERTEX
  5
3FE
330
1F1
100
AcDbEntity
  8
0
 62
     7
100
AcDbVertex
100
AcDb2dVertex
 10
-41.6663555
 20
-101.979173
 30
0.0
  0
VERTEX
  5
3FF
330
1F1
100
AcDbEntity
  8
0
 62
     7
100
AcDbVertex
100
AcDb2dVertex
 10
-41.6164936
 20
-102.2296609999999
 30
0.0
  0
VERTEX
  5
400
330
1F1
100
AcDbEntity
  8
0
 62
     7
100
AcDbVertex
100
AcDb2dVertex
 10
-41.575176
 20
-102.4817759999999
 30
0.0
  0
VERTEX
  5
401
330
1F1
100
AcDbEntity
  8
0
 62
     7
100
AcDbVertex
100
AcDb2dVertex
 10
-41.54263529999999
 20
-102.735193
 30
0.0
  0
VERTEX
  5
402
330
1F1
100
AcDbEntity
  8
0
 62
     7
100
AcDbVertex
100
AcDb2dVertex
 10
-41.519104
 20
-102.989586
 30
0.0
  0
VERTEX
  5
403
330
1F1
100
AcDbEntity
  8
0
 62
     7
100
AcDbVertex
100
AcDb2dVertex
 10
-41.50481479999999
 20
-103.2446299999999
 30
0.0
  0
VERTEX
  5
404
330
1F1
100
AcDbEntity
  8
0
 62
     7
100
AcDbVertex
100
AcDb2dVertex
 10
-41.5
 20
-103.4999999999999
 30
0.0
  0
VERTEX
  5
405
330
1F1
100
AcDbEntity
  8
0
 62
     7
100
AcDbVertex
100
AcDb2dVertex
 10
-41.50481479999999
 20
-103.7553699999999
 30
0.0
  0
VERTEX
  5
406
330
1F1
100
AcDbEntity
  8
0
 62
     7
100
AcDbVertex
100
AcDb2dVertex
 10
-41.519104
 20
-104.0104139999999
 30
0.0
  0
VERTEX
  5
407
330
1F1
100
AcDbEntity
  8
0
 62
     7
100
AcDbVertex
100
AcDb2dVertex
 10
-41.54263529999999
 20
-104.2648069999999
 30
0.0
  0
VERTEX
  5
408
330
1F1
100
AcDbEntity
  8
0
 62
     7
100
AcDbVertex
100
AcDb2dVertex
 10
-41.575176
 20
-104.518224
 30
0.0
  0
VERTEX
  5
409
330
1F1
100
AcDbEntity
  8
0
 62
     7
100
AcDbVertex
100
AcDb2dVertex
 10
-41.6164936
 20
-104.770339
 30
0.0
  0
VERTEX
  5
40A
330
1F1
100
AcDbEntity
  8
0
 62
     7
100
AcDbVertex
100
AcDb2dVertex
 10
-41.6663555
 20
-105.0208269999999
 30
0.0
  0
VERTEX
  5
40B
330
1F1
100
AcDbEntity
  8
0
 62
     7
100
AcDbVertex
100
AcDb2dVertex
 10
-41.72452929999999
 20
-105.2693629999999
 30
0.0
  0
VERTEX
  5
40C
330
1F1
100
AcDbEntity
  8
0
 62
     7
100
AcDbVertex
100
AcDb2dVertex
 10
-41.7907823
 20
-105.515621
 30
0.0
  0
VERTEX
  5
40D
330
1F1
100
AcDbEntity
  8
0
 62
     7
100
AcDbVertex
100
AcDb2dVertex
 10
-41.8648822
 20
-105.7592749999999
 30
0.0
  0
VERTEX
  5
40E
330
1F1
100
AcDbEntity
  8
0
 62
     7
100
AcDbVertex
100
AcDb2dVertex
 10
-41.94659620000001
 20
-106.0
 30
0.0
  0
SEQEND
  5
40F
330
1F1
100
AcDbEntity
  8
0
 62
     7
  0
POLYLINE
  5
208
330
1E
100
AcDbEntity
  8
0
 62
     7
100
AcDb2dPolyline
 66
     1
 10
0.0
 20
0.0
 30
0.0
  0
VERTEX
  5
410
330
208
100
AcDbEntity
  8
0
 62
     7
100
AcDbVertex
100
AcDb2dVertex
 10
-43.05340029999999
 20
-101.0
 30
0.0
  0
VERTEX
  5
411
330
208
100
AcDbEntity
  8
0
 62
     7
100
AcDbVertex
100
AcDb2dVertex
 10
-43.13511489999999
 20
-101.240725
 30
0.0
  0
VERTEX
  5
412
330
208
100
AcDbEntity
  8
0
 62
     7
100
AcDbVertex
100
AcDb2dVertex
 10
-43.20921529999999
 20
-101.484379
 30
0.0
  0
VERTEX
  5
413
330
208
100
AcDbEntity
  8
0
 62
     7
100
AcDbVertex
100
AcDb2dVertex
 10
-43.27546889999999
 20
-101.730637
 30
0.0
  0
VERTEX
  5
414
330
208
100
AcDbEntity
  8
0
 62
     7
100
AcDbVertex
100
AcDb2dVertex
 10
-43.3336431
 20
-101.9791719999999
 30
0.0
  0
VERTEX
  5
415
330
208
100
AcDbEntity
  8
0
 62
     7
100
AcDbVertex
100
AcDb2dVertex
 10
-43.3835055
 20
-102.2296599999999
 30
0.0
  0
VERTEX
  5
416
330
208
100
AcDbEntity
  8
0
 62
     7
100
AcDbVertex
100
AcDb2dVertex
 10
-43.4248234
 20
-102.4817759999999
 30
0.0
  0
VERTEX
  5
417
330
208
100
AcDbEntity
  8
0
 62
     7
100
AcDbVertex
100
AcDb2dVertex
 10
-43.45736429999999
 20
-102.735193
 30
0.0
  0
VERTEX
  5
418
330
208
100
AcDbEntity
  8
0
 62
     7
100
AcDbVertex
100
AcDb2dVertex
 10
-43.48089579999999
 20
-102.989586
 30
0.0
  0
VERTEX
  5
419
330
208
100
AcDbEntity
  8
0
 62
     7
100
AcDbVertex
100
AcDb2dVertex
 10
-43.4951852
 20
-103.2446299999999
 30
0.0
  0
VERTEX
  5
41A
330
208
100
AcDbEntity
  8
0
 62
     7
100
AcDbVertex
100
AcDb2dVertex
 10
-43.5
 20
-103.4999999999999
 30
0.0
  0
VERTEX
  5
41B
330
208
100
AcDbEntity
  8
0
 62
     7
100
AcDbVertex
100
AcDb2dVertex
 10
-43.4951852
 20
-103.7553699999999
 30
0.0
  0
VERTEX
  5
41C
330
208
100
AcDbEntity
  8
0
 62
     7
100
AcDbVertex
100
AcDb2dVertex
 10
-43.48089579999999
 20
-104.0104139999999
 30
0.0
  0
VERTEX
  5
41D
330
208
100
AcDbEntity
  8
0
 62
     7
100
AcDbVertex
100
AcDb2dVertex
 10
-43.45736429999999
 20
-104.2648069999999
 30
0.0
  0
VERTEX
  5
41E
330
208
100
AcDbEntity
  8
0
 62
     7
100
AcDbVertex
100
AcDb2dVertex
 10
-43.4248234
 20
-104.518224
 30
0.0
  0
VERTEX
  5
41F
330
208
100
AcDbEntity
  8
0
 62
     7
100
AcDbVertex
100
AcDb2dVertex
 10
-43.3835055
 20
-104.77034
 30
0.0
  0
VERTEX
  5
420
330
208
100
AcDbEntity
  8
0
 62
     7
100
AcDbVertex
100
AcDb2dVertex
 10
-43.3336431
 20
-105.020828
 30
0.0
  0
VERTEX
  5
421
330
208
100
AcDbEntity
  8
0
 62
     7
100
AcDbVertex
100
AcDb2dVertex
 10
-43.27546889999999
 20
-105.2693629999999
 30
0.0
  0
VERTEX
  5
422
330
208
100
AcDbEntity
  8
0
 62
     7
100
AcDbVertex
100
AcDb2dVertex
 10
-43.20921529999999
 20
-105.515621
 30
0.0
  0
VERTEX
  5
423
330
208
100
AcDbEntity
  8
0
 62
     7
100
AcDbVertex
100
AcDb2dVertex
 10
-43.13511489999999
 20
-105.7592749999999
 30
0.0
  0
VERTEX
  5
424
330
208
100
AcDbEntity
  8
0
 62
     7
100
AcDbVertex
100
AcDb2dVertex
 10
-43.05340029999999
 20
-106.0
 30
0.0
  0
SEQEND
  5
425
330
208
100
AcDbEntity
  8
0
 62
     7
  0
LINE
  5
21F
330
1E
100
AcDbEntity
  8
0
  6
CENTER
 62
     2
100
AcDbLine
 10
192.05
 20
-4.0
 30
0.0
 11
187.9499999999999
 21
-4.0
 31
0.0
  0
CIRCLE
  5
220
330
1E
100
AcDbEntity
  8
0
 62
     7
100
AcDbCircle
 10
190.0
 20
-4.0
 30
0.0
 40
1.05
  0
CIRCLE
  5
221
330
1E
100
AcDbEntity
  8
0
 62
     7
100
AcDbCircle
 10
190.0
 20
4.0
 30
0.0
 40
1.05
  0
LINE
  5
222
330
1E
100
AcDbEntity
  8
0
  6
CENTER
 62
     2
100
AcDbLine
 10
192.05
 20
4.0
 30
0.0
 11
187.9499999999999
 21
4.0
 31
0.0
  0
CIRCLE
  5
223
330
1E
100
AcDbEntity
  8
0
 62
     7
100
AcDbCircle
 10
190.0
 20
0.0
 30
0.0
 40
5.4
  0
CIRCLE
  5
224
330
1E
100
AcDbEntity
  8
0
 62
     7
100
AcDbCircle
 10
190.0
 20
0.0
 30
0.0
 40
9.75
  0
CIRCLE
  5
225
330
1E
100
AcDbEntity
  8
0
 62
     7
100
AcDbCircle
 10
190.0
 20
0.0
 30
0.0
 40
9.5
  0
LINE
  5
226
330
1E
100
AcDbEntity
  8
0
 62
     7
100
AcDbLine
 10
161.5
 20
-22.4999886
 30
0.0
 11
161.5
 21
-12.5000496
 31
0.0
  0
LINE
  5
227
330
1E
100
AcDbEntity
  8
0
 62
     7
100
AcDbLine
 10
163.053391
 20
-23.27346799999999
 30
0.0
 11
161.946564
 21
-23.27346799999999
 31
0.0
  0
LINE
  5
228
330
1E
100
AcDbEntity
  8
0
 62
     7
100
AcDbLine
 10
163.053406
 20
-20.38670349999999
 30
0.0
 11
161.946564
 21
-20.38670349999999
 31
0.0
  0
LINE
  5
229
330
1E
100
AcDbEntity
  8
0
 62
     7
100
AcDbLine
 10
163.053391
 20
-14.613205
 30
0.0
 11
161.946564
 21
-14.613205
 31
0.0
  0
LINE
  5
22A
330
1E
100
AcDbEntity
  8
0
 62
     7
100
AcDbLine
 10
163.053345
 20
-11.7264557
 30
0.0
 11
161.946564
 21
-11.7264557
 31
0.0
  0
LINE
  5
22B
330
1E
100
AcDbEntity
  8
0
 62
     7
100
AcDbLine
 10
161.946553
 20
-23.2734778
 30
0.0
 11
161.4999669999999
 21
-22.4999671
 31
0.0
  0
LINE
  5
22C
330
1E
100
AcDbEntity
  8
0
 62
     7
100
AcDbLine
 10
161.946542
 20
-11.7265095
 30
0.0
 11
161.499955
 21
-12.5000201
 31
0.0
  0
LINE
  5
22D
330
1E
100
AcDbEntity
  8
0
 62
     7
100
AcDbLine
 10
163.053383
 20
-23.27346879999999
 30
0.0
 11
163.4999699999999
 21
-22.4999581
 31
0.0
  0
LINE
  5
22E
330
1E
100
AcDbEntity
  8
0
 62
     7
100
AcDbLine
 10
163.053378
 20
-11.7265348
 30
0.0
 11
163.499949
 21
-12.50001909999999
 31
0.0
  0
ARC
  5
22F
330
1E
100
AcDbEntity
  8
0
 62
     7
100
AcDbCircle
 10
164.055817
 20
-21.83009719999999
 30
0.0
 40
2.555816169999999
100
AcDbArc
 50
145.615626
 51
214.384347
  0
ARC
  5
230
330
1E
100
AcDbEntity
  8
0
 62
     7
100
AcDbCircle
 10
171.053391
 20
-17.4999733
 30
0.0
 40
9.55339146
100
AcDbArc
 50
162.4119889999999
 51
197.5880099999999
  0
ARC
  5
231
330
1E
100
AcDbEntity
  8
0
 62
     7
100
AcDbCircle
 10
164.055801
 20
-13.16989519999999
 30
0.0
 40
2.555816169999999
100
AcDbArc
 50
145.615598
 51
214.38432
  0
ARC
  5
232
330
1E
100
AcDbEntity
  8
0
 62
     7
100
AcDbCircle
 10
153.946594
 20
-17.4999733
 30
0.0
 40
9.55339146
100
AcDbArc
 50
342.4119539999999
 51
17.5879743
  0
ARC
  5
233
330
1E
100
AcDbEntity
  8
0
 62
     7
100
AcDbCircle
 10
160.9441679999999
 20
-21.83009719999999
 30
0.0
 40
2.555816169999999
100
AcDbArc
 50
325.615617
 51
34.3843384
  0
ARC
  5
234
330
1E
100
AcDbEntity
  8
0
 62
     7
100
AcDbCircle
 10
160.9441679999999
 20
-13.16989519999999
 30
0.0
 40
2.555816169999999
100
AcDbArc
 50
325.6156439999999
 51
34.3843657
  0
LINE
  5
235
330
1E
100
AcDbEntity
  8
0
 62
     7
100
AcDbLine
 10
163.4999999999999
 20
-38.0000076
 30
0.0
 11
163.4999999999999
 21
38.0
 31
0.0
  0
LINE
  5
236
330
1E
100
AcDbEntity
  8
0
  6
CENTER
 62
     2
100
AcDbLine
 10
194.7499999999999
 20
32.0
 30
0.0
 11
185.25
 21
32.0
 31
0.0
  0
LINE
  5
237
330
1E
100
AcDbEntity
  8
0
  6
CENTER
 62
     2
100
AcDbLine
 10
190.0
 20
41.99999239999999
 30
0.0
 11
190.0
 21
-42.0
 31
0.0
  0
LINE
  5
238
330
1E
100
AcDbEntity
  8
0
 62
     7
100
AcDbLine
 10
216.5
 20
38.0
 30
0.0
 11
163.4999999999999
 21
38.0
 31
0.0
  0
LINE
  5
239
330
1E
100
AcDbEntity
  8
0
 62
     7
100
AcDbLine
 10
216.5
 20
-38.0
 30
0.0
 11
163.4999999999999
 21
-38.0
 31
0.0
  0
LINE
  5
23A
330
1E
100
AcDbEntity
  8
0
  6
CENTER
 62
     2
100
AcDbLine
 10
194.7499999999999
 20
-32.0
 30
0.0
 11
185.25
 21
-32.0
 31
0.0
  0
LINE
  5
23B
330
1E
100
AcDbEntity
  8
0
 62
     7
100
AcDbLine
 10
216.5
 20
38.0000076
 30
0.0
 11
216.5
 21
-38.0
 31
0.0
  0
LINE
  5
23C
330
1E
100
AcDbEntity
  8
0
 62
     7
100
AcDbLine
 10
215.0
 20
38.0000076
 30
0.0
 11
215.0
 21
-38.0
 31
0.0
  0
LINE
  5
23D
330
1E
100
AcDbEntity
  8
0
 62
     7
100
AcDbLine
 10
165.0
 20
-38.0000076
 30
0.0
 11
165.0
 21
38.0
 31
0.0
  0
CIRCLE
  5
23E
330
1E
100
AcDbEntity
  8
0
 62
     7
100
AcDbCircle
 10
190.0
 20
-32.0
 30
0.0
 40
2.6
  0
CIRCLE
  5
23F
330
1E
100
AcDbEntity
  8
0
 62
     7
100
AcDbCircle
 10
190.0
 20
32.0
 30
0.0
 40
2.6
  0
CIRCLE
  5
240
330
1E
100
AcDbEntity
  8
0
 62
     2
100
AcDbCircle
 10
190.0
 20
-32.0
 30
0.0
 40
3.0
  0
CIRCLE
  5
241
330
1E
100
AcDbEntity
  8
0
 62
     2
100
AcDbCircle
 10
190.0
 20
32.0
 30
0.0
 40
3.0
  0
CIRCLE
  5
242
330
1E
100
AcDbEntity
  8
0
 62
     7
100
AcDbCircle
 10
190.0
 20
-20.0
 30
0.0
 40
2.0
  0
LINE
  5
243
330
1E
100
AcDbEntity
  8
0
  6
CENTER
 62
     2
100
AcDbLine
 10
194.0
 20
-20.0
 30
0.0
 11
186.0
 21
-20.0
 31
0.0
  0
ARC
  5
244
330
1E
100
AcDbEntity
  8
0
 62
     7
100
AcDbCircle
 10
190.0
 20
19.0
 30
0.0
 40
2.0
100
AcDbArc
 50
180.0
 51
0.0
  0
LINE
  5
245
330
1E
100
AcDbEntity
  8
0
  6
CENTER
 62
     2
100
AcDbLine
 10
194.0
 20
19.0
 30
0.0
 11
186.0
 21
19.0
 31
0.0
  0
LINE
  5
246
330
1E
100
AcDbEntity
  8
0
 62
     7
100
AcDbLine
 10
192.0
 20
19.0
 30
0.0
 11
192.0
 21
21.0
 31
0.0
  0
LINE
  5
247
330
1E
100
AcDbEntity
  8
0
  6
CENTER
 62
     2
100
AcDbLine
 10
194.0
 20
21.0
 30
0.0
 11
186.0
 21
21.0
 31
0.0
  0
ARC
  5
248
330
1E
100
AcDbEntity
  8
0
 62
     7
100
AcDbCircle
 10
190.0
 20
21.0
 30
0.0
 40
2.0
100
AcDbArc
 50
0.0
 51
180.0
  0
LINE
  5
249
330
1E
100
AcDbEntity
  8
0
 62
     7
100
AcDbLine
 10
188.0
 20
19.0
 30
0.0
 11
188.0
 21
21.0
 31
0.0
  0
LINE
  5
24A
330
1E
100
AcDbEntity
  8
0
 62
     7
100
AcDbLine
 10
177.0
 20
-38.0
 30
0.0
 11
177.0
 21
38.0
 31
0.0
  0
LINE
  5
24B
330
1E
100
AcDbEntity
  8
0
 62
     7
100
AcDbLine
 10
177.2
 20
-38.0
 30
0.0
 11
177.2
 21
38.0
 31
0.0
  0
LINE
  5
24C
330
1E
100
AcDbEntity
  8
0
 62
     7
100
AcDbLine
 10
202.8
 20
-38.0
 30
0.0
 11
202.8
 21
38.0
 31
0.0
  0
LINE
  5
24D
330
1E
100
AcDbEntity
  8
0
 62
     7
100
AcDbLine
 10
203.0
 20
-38.0
 30
0.0
 11
203.0
 21
38.0
 31
0.0
  0
LINE
  5
24E
330
1E
100
AcDbEntity
  8
0
  6
CENTER
 62
     2
100
AcDbLine
 10
220.5
 20
0.0
 30
0.0
 11
159.0
 21
0.0
 31
0.0
  0
LINE
  5
24F
330
1E
100
AcDbEntity
  8
0
  6
CENTER
 62
     2
100
AcDbLine
 10
194.0
 20
20.0
 30
0.0
 11
186.0
 21
20.0
 31
0.0
  0
LINE
  5
250
330
1E
100
AcDbEntity
  8
0
 62
     7
100
AcDbLine
 10
161.5
 20
-21.49999999999999
 30
0.0
 11
155.4999999999999
 21
-21.49999999999999
 31
0.0
  0
LINE
  5
251
330
1E
100
AcDbEntity
  8
0
 62
     7
100
AcDbLine
 10
161.5
 20
-13.5
 30
0.0
 11
155.4999999999999
 21
-13.5
 31
0.0
  0
LINE
  5
252
330
1E
100
AcDbEntity
  8
0
 62
     2
100
AcDbLine
 10
155.125
 20
-21.125
 30
0.0
 11
161.5
 21
-21.125
 31
0.0
  0
LINE
  5
253
330
1E
100
AcDbEntity
  8
0
 62
     2
100
AcDbLine
 10
161.5
 20
-13.875
 30
0.0
 11
155.125
 21
-13.875
 31
0.0
  0
LINE
  5
254
330
1E
100
AcDbEntity
  8
0
  6
CENTER
 62
     2
100
AcDbLine
 10
163.4999999999999
 20
-17.5
 30
0.0
 11
153.0
 21
-17.5
 31
0.0
  0
LINE
  5
255
330
1E
100
AcDbEntity
  8
0
 62
     7
100
AcDbLine
 10
155.4999999999999
 20
-16.89999999999999
 30
0.0
 11
155.4999999999999
 21
-13.5
 31
0.0
  0
LINE
  5
256
330
1E
100
AcDbEntity
  8
0
 62
     7
100
AcDbLine
 10
155.0
 20
-18.1
 30
0.0
 11
155.0
 21
-21.0
 31
0.0
  0
LINE
  5
257
330
1E
100
AcDbEntity
  8
0
 62
     7
100
AcDbLine
 10
157.0
 20
-18.1
 30
0.0
 11
157.0
 21
-16.89999999999999
 31
0.0
  0
LINE
  5
258
330
1E
100
AcDbEntity
  8
0
 62
     7
100
AcDbLine
 10
157.0
 20
-16.89999999999999
 30
0.0
 11
155.0
 21
-16.89999999999999
 31
0.0
  0
LINE
  5
259
330
1E
100
AcDbEntity
  8
0
 62
     7
100
AcDbLine
 10
157.0
 20
-18.1
 30
0.0
 11
155.0
 21
-18.1
 31
0.0
  0
LINE
  5
25A
330
1E
100
AcDbEntity
  8
0
 62
     7
100
AcDbLine
 10
155.4999999999999
 20
-21.49999999999999
 30
0.0
 11
155.4999999999999
 21
-18.1
 31
0.0
  0
LINE
  5
25B
330
1E
100
AcDbEntity
  8
0
 62
     7
100
AcDbLine
 10
155.4999999999999
 20
-13.5
 30
0.0
 11
155.0
 21
-14.0
 31
0.0
  0
LINE
  5
25C
330
1E
100
AcDbEntity
  8
0
 62
     7
100
AcDbLine
 10
155.4999999999999
 20
-21.49999999999999
 30
0.0
 11
155.0
 21
-21.0
 31
0.0
  0
LINE
  5
25D
330
1E
100
AcDbEntity
  8
0
 62
     7
100
AcDbLine
 10
155.0
 20
-14.0
 30
0.0
 11
155.0
 21
-16.89999999999999
 31
0.0
  0
LINE
  5
25E
330
1E
100
AcDbEntity
  8
0
 62
     7
100
AcDbLine
 10
155.0
 20
14.0
 30
0.0
 11
155.0
 21
16.89999999999999
 31
0.0
  0
LINE
  5
25F
330
1E
100
AcDbEntity
  8
0
 62
     7
100
AcDbLine
 10
155.4999999999999
 20
21.49999999999999
 30
0.0
 11
155.0
 21
21.0
 31
0.0
  0
LINE
  5
260
330
1E
100
AcDbEntity
  8
0
 62
     7
100
AcDbLine
 10
155.4999999999999
 20
13.5
 30
0.0
 11
155.0
 21
14.0
 31
0.0
  0
LINE
  5
261
330
1E
100
AcDbEntity
  8
0
 62
     7
100
AcDbLine
 10
155.4999999999999
 20
21.49999999999999
 30
0.0
 11
155.4999999999999
 21
18.1
 31
0.0
  0
LINE
  5
262
330
1E
100
AcDbEntity
  8
0
 62
     7
100
AcDbLine
 10
157.0
 20
18.1
 30
0.0
 11
155.0
 21
18.1
 31
0.0
  0
LINE
  5
263
330
1E
100
AcDbEntity
  8
0
 62
     7
100
AcDbLine
 10
157.0
 20
16.89999999999999
 30
0.0
 11
155.0
 21
16.89999999999999
 31
0.0
  0
LINE
  5
264
330
1E
100
AcDbEntity
  8
0
 62
     7
100
AcDbLine
 10
157.0
 20
18.1
 30
0.0
 11
157.0
 21
16.89999999999999
 31
0.0
  0
LINE
  5
265
330
1E
100
AcDbEntity
  8
0
 62
     7
100
AcDbLine
 10
155.0
 20
18.1
 30
0.0
 11
155.0
 21
21.0
 31
0.0
  0
LINE
  5
266
330
1E
100
AcDbEntity
  8
0
 62
     7
100
AcDbLine
 10
155.4999999999999
 20
16.89999999999999
 30
0.0
 11
155.4999999999999
 21
13.5
 31
0.0
  0
LINE
  5
267
330
1E
100
AcDbEntity
  8
0
  6
CENTER
 62
     2
100
AcDbLine
 10
163.4999999999999
 20
17.5
 30
0.0
 11
153.0
 21
17.5
 31
0.0
  0
LINE
  5
268
330
1E
100
AcDbEntity
  8
0
 62
     2
100
AcDbLine
 10
161.5
 20
13.875
 30
0.0
 11
155.125
 21
13.875
 31
0.0
  0
LINE
  5
269
330
1E
100
AcDbEntity
  8
0
 62
     2
100
AcDbLine
 10
155.125
 20
21.125
 30
0.0
 11
161.5
 21
21.125
 31
0.0
  0
LINE
  5
26A
330
1E
100
AcDbEntity
  8
0
 62
     7
100
AcDbLine
 10
161.5
 20
13.5
 30
0.0
 11
155.4999999999999
 21
13.5
 31
0.0
  0
LINE
  5
26B
330
1E
100
AcDbEntity
  8
0
 62
     7
100
AcDbLine
 10
161.5
 20
21.49999999999999
 30
0.0
 11
155.4999999999999
 21
21.49999999999999
 31
0.0
  0
ARC
  5
26C
330
1E
100
AcDbEntity
  8
0
 62
     7
100
AcDbCircle
 10
160.9441679999999
 20
13.16989519999999
 30
0.0
 40
2.555816169999999
100
AcDbArc
 50
325.6156339999999
 51
34.3843557
  0
ARC
  5
26D
330
1E
100
AcDbEntity
  8
0
 62
     7
100
AcDbCircle
 10
160.9441679999999
 20
21.83009719999999
 30
0.0
 40
2.555816169999999
100
AcDbArc
 50
325.615662
 51
34.384383
  0
ARC
  5
26E
330
1E
100
AcDbEntity
  8
0
 62
     7
100
AcDbCircle
 10
153.946594
 20
17.4999733
 30
0.0
 40
9.55339146
100
AcDbArc
 50
342.4120259999999
 51
17.5880463
  0
ARC
  5
26F
330
1E
100
AcDbEntity
  8
0
 62
     7
100
AcDbCircle
 10
164.055801
 20
13.16989519999999
 30
0.0
 40
2.555816169999999
100
AcDbArc
 50
145.61568
 51
214.3844009999999
  0
ARC
  5
270
330
1E
100
AcDbEntity
  8
0
 62
     7
100
AcDbCircle
 10
171.053391
 20
17.4999733
 30
0.0
 40
9.55339146
100
AcDbArc
 50
162.4119889999999
 51
197.5880099999999
  0
ARC
  5
271
330
1E
100
AcDbEntity
  8
0
 62
     7
100
AcDbCircle
 10
164.055817
 20
21.83009719999999
 30
0.0
 40
2.555816169999999
100
AcDbArc
 50
145.615653
 51
214.384375
  0
LINE
  5
272
330
1E
100
AcDbEntity
  8
0
 62
     7
100
AcDbLine
 10
163.053378
 20
11.7265348
 30
0.0
 11
163.499949
 21
12.50001909999999
 31
0.0
  0
LINE
  5
273
330
1E
100
AcDbEntity
  8
0
 62
     7
100
AcDbLine
 10
163.053383
 20
23.27346879999999
 30
0.0
 11
163.4999699999999
 21
22.4999581
 31
0.0
  0
LINE
  5
274
330
1E
100
AcDbEntity
  8
0
 62
     7
100
AcDbLine
 10
161.946542
 20
11.7265095
 30
0.0
 11
161.499955
 21
12.5000201
 31
0.0
  0
LINE
  5
275
330
1E
100
AcDbEntity
  8
0
 62
     7
100
AcDbLine
 10
161.946553
 20
23.2734778
 30
0.0
 11
161.4999669999999
 21
22.4999671
 31
0.0
  0
LINE
  5
276
330
1E
100
AcDbEntity
  8
0
 62
     7
100
AcDbLine
 10
163.053345
 20
11.7264557
 30
0.0
 11
161.946564
 21
11.7264557
 31
0.0
  0
LINE
  5
277
330
1E
100
AcDbEntity
  8
0
 62
     7
100
AcDbLine
 10
163.053391
 20
14.613205
 30
0.0
 11
161.946564
 21
14.613205
 31
0.0
  0
LINE
  5
278
330
1E
100
AcDbEntity
  8
0
 62
     7
100
AcDbLine
 10
163.053406
 20
20.38670349999999
 30
0.0
 11
161.946564
 21
20.38670349999999
 31
0.0
  0
LINE
  5
279
330
1E
100
AcDbEntity
  8
0
 62
     7
100
AcDbLine
 10
163.053391
 20
23.27346799999999
 30
0.0
 11
161.946564
 21
23.27346799999999
 31
0.0
  0
LINE
  5
27A
330
1E
100
AcDbEntity
  8
0
 62
     7
100
AcDbLine
 10
161.5
 20
22.4999886
 30
0.0
 11
161.5
 21
12.5000496
 31
0.0
  0
TEXT
  5
27B
330
1E
100
AcDbEntity
  8
0
 62
     7
100
AcDbText
 10
-267.6002899999999
 20
186.3499999999999
 30
0.0
 40
6.30000019
  1
ROTARY ACTUATOR
 41
1.04166682
  7
MONOTXT
100
AcDbText
  0
TEXT
  5
27C
330
1E
100
AcDbEntity
  8
0
 62
     7
100
AcDbText
 10
-229.800283
 20
178.35
 30
0.0
 40
6.30000019
  1
RAT
 41
1.000000149999999
  7
MONOTXT
100
AcDbText
  0
LINE
  5
27D
330
1E
100
AcDbEntity
  8
0
 62
     7
100
AcDbLine
 10
282.099854
 20
195.5
 30
0.0
 11
282.099854
 21
-195.0
 31
0.0
  0
LINE
  5
27E
330
1E
100
AcDbEntity
  8
0
 62
     7
100
AcDbLine
 10
-281.25
 20
195.5
 30
0.0
 11
282.099854
 21
195.5
 31
0.0
  0
LINE
  5
27F
330
1E
100
AcDbEntity
  8
0
 62
     7
100
AcDbLine
 10
-281.25
 20
195.5
 30
0.0
 11
-281.25
 21
-195.0
 31
0.0
  0
LINE
  5
280
330
1E
100
AcDbEntity
  8
0
 62
     7
100
AcDbLine
 10
-281.25
 20
-195.0
 30
0.0
 11
282.099854
 21
-195.0
 31
0.0
  0
LINE
  5
281
330
1E
100
AcDbEntity
  8
0
 62
     7
100
AcDbLine
 10
162.099976
 20
-175.0
 30
0.0
 11
162.099976
 21
-195.0
 31
0.0
  0
LINE
  5
282
330
1E
100
AcDbEntity
  8
0
 62
     7
100
AcDbLine
 10
162.099976
 20
-175.0
 30
0.0
 11
282.099854
 21
-175.0
 31
0.0
  0
LINE
  5
283
330
1E
100
AcDbEntity
  8
0
 62
     7
100
AcDbLine
 10
162.099976
 20
175.5
 30
0.0
 11
282.099854
 21
175.5
 31
0.0
  0
LINE
  5
284
330
1E
100
AcDbEntity
  8
0
 62
     7
100
AcDbLine
 10
-281.25
 20
175.5
 30
0.0
 11
-161.25
 21
175.5
 31
0.0
  0
LINE
  5
285
330
1E
100
AcDbEntity
  8
0
 62
     7
100
AcDbLine
 10
162.099976
 20
195.5
 30
0.0
 11
162.099976
 21
175.5
 31
0.0
  0
LINE
  5
286
330
1E
100
AcDbEntity
  8
0
 62
     7
100
AcDbLine
 10
-161.25
 20
195.5
 30
0.0
 11
-161.25
 21
175.5
 31
0.0
  0
TEXT
  5
287
330
1E
100
AcDbEntity
  8
0
 62
     7
100
AcDbText
 10
197.7996899999999
 20
182.3499999999999
 30
0.0
 40
6.30000019
  1
Ver. 1.0
 41
1.08108124
  7
MONOTXT
100
AcDbText
  0
TEXT
  5
288
330
1E
100
AcDbEntity
  8
0
 62
     7
100
AcDbText
 10
169.885276
 20
-189.4999999999999
 30
0.0
 40
9.0
  1
KOGANEI CORP.
 41
1.04838732
  7
MONOTXT
100
AcDbText
  0
TEXT
  5
289
330
1E
100
AcDbEntity
  8
0
 62
     7
100
AcDbText
 10
-267.600562
 20
157.3499999999999
 30
0.0
 40
6.30000019
  1
MODEL:RAT5-90
 41
1.000000149999999
  7
MONOTXT
100
AcDbText
  0
ENDSEC
  0
SECTION
  2
OBJECTS
  0
DICTIONARY
  5
C
330
0
100
AcDbDictionary
  3
ACAD_GROUP
350
D
  3
ACAD_MLINESTYLE
350
16
  3
ACAD_PLOTSETTINGS
350
18
  3
ACAD_LAYOUT
350
19
1001
ACAD
1000
TREAT_AS_HARD
1070
     0
  0
DICTIONARY
  5
374
330
1E
100
AcDbDictionary
  3
ACAD_LAYOUTSELFREF
350
375
  0
DICTIONARY
  5
372
330
1A
100
AcDbDictionary
  3
ACAD_LAYOUTSELFREF
350
373
  0
DICTIONARY
  5
D
102
{ACAD_REACTORS
330
C
102
}
330
C
100
AcDbDictionary
1001
ACAD
1000
TREAT_AS_HARD
1070
     0
  0
DICTIONARY
  5
16
102
{ACAD_REACTORS
330
C
102
}
330
C
100
AcDbDictionary
  3
STANDARD
350
17
1001
ACAD
1000
TREAT_AS_HARD
1070
     0
  0
DICTIONARY
  5
18
102
{ACAD_REACTORS
330
C
102
}
330
C
100
AcDbDictionary
1001
ACAD
1000
TREAT_AS_HARD
1070
     0
  0
DICTIONARY
  5
19
102
{ACAD_REACTORS
330
C
102
}
330
C
100
AcDbDictionary
1001
ACAD
1000
TREAT_AS_HARD
1070
     0
  0
XRECORD
  5
375
102
{ACAD_REACTORS
330
374
102
}
330
374
100
AcDbXrecord
340
1E
  0
XRECORD
  5
373
102
{ACAD_REACTORS
330
372
102
}
330
372
100
AcDbXrecord
340
1A
  0
MLINESTYLE
  5
17
102
{ACAD_REACTORS
330
16
102
}
330
16
100
AcDbMlineStyle
  2
STANDARD
 70
     0
  3

 62
   256
 51
90.0
 52
90.0
 71
     2
 49
0.5
 62
   256
  6
BYLAYER
 49
-0.5
 62
   256
  6
BYLAYER
  0
ENDSEC
  0
EOF
