  0
SECTION
  2
HEADER
  9
$ACADVER
  1
AC1012
  9
$DWGCODEPAGE
  3
dos932
  9
$INSBASE
 10
0.0
 20
0.0
 30
0.0
  9
$EXTMIN
 10
-281.2681908225806
 20
-195.0129162660985
 30
-0.0015258207003583
  9
$EXTMAX
 10
283.1495755000714
 20
195.5129180845152
 30
0.0000000349246037
  9
$LIMMIN
 10
-281.2509999999999
 20
-195.0009999999999
  9
$LIMMAX
 10
282.100854
 20
195.501
  9
$ORTHOMODE
 70
     0
  9
$REGENMODE
 70
     1
  9
$FILLMODE
 70
     1
  9
$QTEXTMODE
 70
     0
  9
$MIRRTEXT
 70
     1
  9
$DRAGMODE
 70
     2
  9
$LTSCALE
 40
9.38916423
  9
$OSMODE
 70
    37
  9
$ATTMODE
 70
     1
  9
$TEXTSIZE
 40
0.2
  9
$TRACEWID
 40
0.05
  9
$TEXTSTYLE
  7
STANDARD
  9
$CLAYER
  8
0
  9
$CELTYPE
  6
CONTINUOUS
  9
$CECOLOR
 62
   256
  9
$CELTSCALE
 40
1.0
  9
$DELOBJ
 70
     1
  9
$DISPSILH
 70
     0
  9
$DIMSCALE
 40
1.0
  9
$DIMASZ
 40
0.18
  9
$DIMEXO
 40
0.0625
  9
$DIMDLI
 40
0.38
  9
$DIMRND
 40
0.0
  9
$DIMDLE
 40
0.0
  9
$DIMEXE
 40
0.18
  9
$DIMTP
 40
0.0
  9
$DIMTM
 40
0.0
  9
$DIMTXT
 40
0.18
  9
$DIMCEN
 40
0.09
  9
$DIMTSZ
 40
0.0
  9
$DIMTOL
 70
     0
  9
$DIMLIM
 70
     0
  9
$DIMTIH
 70
     1
  9
$DIMTOH
 70
     1
  9
$DIMSE1
 70
     0
  9
$DIMSE2
 70
     0
  9
$DIMTAD
 70
     0
  9
$DIMZIN
 70
     0
  9
$DIMBLK
  1

  9
$DIMASO
 70
     1
  9
$DIMSHO
 70
     1
  9
$DIMPOST
  1

  9
$DIMAPOST
  1

  9
$DIMALT
 70
     0
  9
$DIMALTD
 70
     2
  9
$DIMALTF
 40
25.4
  9
$DIMLFAC
 40
1.0
  9
$DIMTOFL
 70
     0
  9
$DIMTVP
 40
0.0
  9
$DIMTIX
 70
     0
  9
$DIMSOXD
 70
     0
  9
$DIMSAH
 70
     0
  9
$DIMBLK1
  1

  9
$DIMBLK2
  1

  9
$DIMSTYLE
  2
STANDARD
  9
$DIMCLRD
 70
     0
  9
$DIMCLRE
 70
     0
  9
$DIMCLRT
 70
     0
  9
$DIMTFAC
 40
1.0
  9
$DIMGAP
 40
0.09
  9
$DIMJUST
 70
     0
  9
$DIMSD1
 70
     0
  9
$DIMSD2
 70
     0
  9
$DIMTOLJ
 70
     1
  9
$DIMTZIN
 70
     0
  9
$DIMALTZ
 70
     0
  9
$DIMALTTZ
 70
     0
  9
$DIMFIT
 70
     3
  9
$DIMUPT
 70
     0
  9
$DIMUNIT
 70
     2
  9
$DIMDEC
 70
     4
  9
$DIMTDEC
 70
     4
  9
$DIMALTU
 70
     2
  9
$DIMALTTD
 70
     2
  9
$DIMTXSTY
  7
STANDARD
  9
$DIMAUNIT
 70
     0
  9
$LUNITS
 70
     2
  9
$LUPREC
 70
     4
  9
$SKETCHINC
 40
0.1
  9
$FILLETRAD
 40
0.0
  9
$AUNITS
 70
     0
  9
$AUPREC
 70
     0
  9
$MENU
  1
.
  9
$ELEVATION
 40
0.0
  9
$PELEVATION
 40
0.0
  9
$THICKNESS
 40
0.0
  9
$LIMCHECK
 70
     0
  9
$BLIPMODE
 70
     0
  9
$CHAMFERA
 40
0.0
  9
$CHAMFERB
 40
0.0
  9
$CHAMFERC
 40
0.0
  9
$CHAMFERD
 40
0.0
  9
$SKPOLY
 70
     0
  9
$TDCREATE
 40
2451905.685920185
  9
$TDUPDATE
 40
2451905.685929224
  9
$TDINDWG
 40
0.0000095023
  9
$TDUSRTIMER
 40
0.0000095023
  9
$USRTIMER
 70
     1
  9
$ANGBASE
 50
0.0
  9
$ANGDIR
 70
     0
  9
$PDMODE
 70
     0
  9
$PDSIZE
 40
0.0
  9
$PLINEWID
 40
0.0
  9
$COORDS
 70
     0
  9
$SPLFRAME
 70
     0
  9
$SPLINETYPE
 70
     6
  9
$SPLINESEGS
 70
     8
  9
$ATTDIA
 70
     0
  9
$ATTREQ
 70
     1
  9
$HANDLING
 70
 10241
  9
$HANDSEED
  5
557
  9
$SURFTAB1
 70
     6
  9
$SURFTAB2
 70
     6
  9
$SURFTYPE
 70
     6
  9
$SURFU
 70
     6
  9
$SURFV
 70
     6
  9
$UCSNAME
  2

  9
$UCSORG
 10
0.0
 20
0.0
 30
0.0
  9
$UCSXDIR
 10
1.0
 20
0.0
 30
0.0
  9
$UCSYDIR
 10
0.0
 20
1.0
 30
0.0
  9
$PUCSNAME
  2

  9
$PUCSORG
 10
0.0
 20
0.0
 30
0.0
  9
$PUCSXDIR
 10
1.0
 20
0.0
 30
0.0
  9
$PUCSYDIR
 10
0.0
 20
1.0
 30
0.0
  9
$USERI1
 70
     0
  9
$USERI2
 70
     0
  9
$USERI3
 70
     0
  9
$USERI4
 70
     0
  9
$USERI5
 70
     0
  9
$USERR1
 40
0.0
  9
$USERR2
 40
0.0
  9
$USERR3
 40
0.0
  9
$USERR4
 40
0.0
  9
$USERR5
 40
0.0
  9
$WORLDVIEW
 70
     1
  9
$SHADEDGE
 70
     3
  9
$SHADEDIF
 70
    70
  9
$TILEMODE
 70
     1
  9
$MAXACTVP
 70
    64
  9
$PINSBASE
 10
0.0
 20
0.0
 30
0.0
  9
$PLIMCHECK
 70
     0
  9
$PEXTMIN
 10
1.000000000000000E+20
 20
1.000000000000000E+20
 30
1.000000000000000E+20
  9
$PEXTMAX
 10
-1.000000000000000E+20
 20
-1.000000000000000E+20
 30
-1.000000000000000E+20
  9
$PLIMMIN
 10
0.0
 20
0.0
  9
$PLIMMAX
 10
12.0
 20
9.0
  9
$UNITMODE
 70
     0
  9
$VISRETAIN
 70
     1
  9
$PLINEGEN
 70
     0
  9
$PSLTSCALE
 70
     1
  9
$TREEDEPTH
 70
  3020
  9
$PICKSTYLE
 70
     1
  9
$CMLSTYLE
  2
STANDARD
  9
$CMLJUST
 70
     0
  9
$CMLSCALE
 40
1.0
  9
$SAVEIMAGES
 70
     1
  0
ENDSEC
  0
SECTION
  2
CLASSES
  0
CLASS
  1
ACDBDICTIONARYWDFLT
  2
AcDbDictionaryWithDefault
  3
AutoCAD 2000
 90
    32768
280
     0
281
     0
  0
CLASS
  1
ACDBPLACEHOLDER
  2
AcDbPlaceHolder
  3
AutoCAD 2000
 90
    32768
280
     0
281
     0
  0
CLASS
  1
LAYOUT
  2
AcDbLayout
  3
AutoCAD 2000
 90
    32768
280
     0
281
     0
  0
CLASS
  1
LONG_TRANSACTION
  2
AcDbLongTransaction
  3
AutoCAD 2000
 90
    32768
280
     0
281
     0
  0
CLASS
  1
LWPOLYLINE
  2
AcDbPolyline
  3
AutoCAD 2000
 90
    32768
280
     0
281
     1
  0
CLASS
  1
HATCH
  2
AcDbHatch
  3
AutoCAD 2000
 90
    32768
280
     0
281
     1
  0
CLASS
  1
XRECORD
  2
AcDbXrecord
  3
AutoCAD 2000
 90
    32768
280
     0
281
     0
  0
ENDSEC
  0
SECTION
  2
TABLES
  0
TABLE
  2
VPORT
  5
8
330
0
100
AcDbSymbolTable
 70
     3
  0
VPORT
  5
44A
330
8
100
AcDbSymbolTableRecord
100
AcDbViewportTableRecord
  2
*ACTIVE
 70
     0
 10
0.0
 20
0.0
 11
1.0
 21
1.0
 12
0.9406923387454497
 22
0.2500009092083815
 13
0.0
 23
0.0
 14
1.0
 24
1.0
 15
0.0
 25
0.0
 16
0.0
 26
0.0
 36
1.0
 17
0.0
 27
0.0
 37
0.0
 40
394.8410369401233
 41
1.750922509225092
 42
50.0
 43
0.0
 44
0.0
 50
0.0
 51
0.0
 71
     0
 72
   100
 73
     1
 74
     1
 75
     0
 76
     0
 77
     0
 78
     0
  0
ENDTAB
  0
TABLE
  2
LTYPE
  5
5
330
0
100
AcDbSymbolTable
 70
     5
  0
LTYPE
  5
13
330
5
100
AcDbSymbolTableRecord
100
AcDbLinetypeTableRecord
  2
BYBLOCK
 70
     0
  3

 72
    65
 73
     0
 40
0.0
  0
LTYPE
  5
14
330
5
100
AcDbSymbolTableRecord
100
AcDbLinetypeTableRecord
  2
BYLAYER
 70
     0
  3

 72
    65
 73
     0
 40
0.0
  0
LTYPE
  5
15
330
5
100
AcDbSymbolTableRecord
100
AcDbLinetypeTableRecord
  2
CONTINUOUS
 70
     0
  3
Solid-Line
 72
    65
 73
     0
 40
0.0
  0
LTYPE
  5
22
330
5
100
AcDbSymbolTableRecord
100
AcDbLinetypeTableRecord
  2
DASHED
 70
     0
  3
DASHED
 72
    65
 73
     2
 40
0.75
 49
0.5
 74
     0
 49
-0.25
 74
     0
  0
LTYPE
  5
23
330
5
100
AcDbSymbolTableRecord
100
AcDbLinetypeTableRecord
  2
HIDDEN
 70
     0
  3
HIDDEN
 72
    65
 73
     2
 40
0.375
 49
0.25
 74
     0
 49
-0.125
 74
     0
  0
LTYPE
  5
24
330
5
100
AcDbSymbolTableRecord
100
AcDbLinetypeTableRecord
  2
CENTER
 70
     0
  3
CENTER
 72
    65
 73
     4
 40
2.0
 49
1.25
 74
     0
 49
-0.25
 74
     0
 49
0.25
 74
     0
 49
-0.25
 74
     0
  0
LTYPE
  5
25
330
5
100
AcDbSymbolTableRecord
100
AcDbLinetypeTableRecord
  2
PHANTOM
 70
     0
  3
PHANTOM
 72
    65
 73
     6
 40
2.5
 49
1.25
 74
     0
 49
-0.25
 74
     0
 49
0.25
 74
     0
 49
-0.25
 74
     0
 49
0.25
 74
     0
 49
-0.25
 74
     0
  0
ENDTAB
  0
TABLE
  2
LAYER
  5
2
330
0
100
AcDbSymbolTable
 70
     1
  0
LAYER
  5
10
330
2
100
AcDbSymbolTableRecord
100
AcDbLayerTableRecord
  2
0
 70
     0
 62
     7
  6
CONTINUOUS
  0
ENDTAB
  0
TABLE
  2
STYLE
  5
3
330
0
100
AcDbSymbolTable
 70
     3
  0
STYLE
  5
11
330
3
100
AcDbSymbolTableRecord
100
AcDbTextStyleTableRecord
  2
STANDARD
 70
     0
 40
0.0
 41
1.0
 50
0.0
 71
     0
 42
0.2
  3
txt
  4

  0
STYLE
  5
26
330
3
100
AcDbSymbolTableRecord
100
AcDbTextStyleTableRecord
  2
MONOTXT
 70
     0
 40
0.0
 41
1.0
 50
0.0
 71
     0
 42
0.2
  3
monotxt
  4

  0
STYLE
  5
27
330
3
100
AcDbSymbolTableRecord
100
AcDbTextStyleTableRecord
  2
BIGFONT
 70
     0
 40
0.0
 41
1.0
 50
0.0
 71
     0
 42
0.2
  3
txt
  4
bigfont
  0
ENDTAB
  0
TABLE
  2
VIEW
  5
6
330
0
100
AcDbSymbolTable
 70
     0
  0
ENDTAB
  0
TABLE
  2
UCS
  5
7
330
0
100
AcDbSymbolTable
 70
     0
  0
ENDTAB
  0
TABLE
  2
APPID
  5
9
330
0
100
AcDbSymbolTable
 70
     1
  0
APPID
  5
12
330
9
100
AcDbSymbolTableRecord
100
AcDbRegAppTableRecord
  2
ACAD
 70
     0
  0
ENDTAB
  0
TABLE
  2
DIMSTYLE
  5
A
330
0
100
AcDbSymbolTable
 70
     1
  0
DIMSTYLE
105
30B
330
A
100
AcDbSymbolTableRecord
100
AcDbDimStyleTableRecord
  2
STANDARD
 70
     0
  3

  4

  5

  6

  7

 40
1.0
 41
0.18
 42
0.0625
 43
0.38
 44
0.18
 45
0.0
 46
0.0
 47
0.0
 48
0.0
140
0.18
141
0.09
142
0.0
143
25.4
144
1.0
145
0.0
146
1.0
147
0.09
 71
     0
 72
     0
 73
     1
 74
     1
 75
     0
 76
     0
 77
     0
 78
     0
170
     0
171
     2
172
     0
173
     0
174
     0
175
     0
176
     0
177
     0
178
     0
270
     2
271
     4
272
     4
273
     2
274
     2
340
11
275
     0
280
     0
281
     0
282
     0
283
     1
284
     0
285
     0
286
     0
287
     3
288
     0
  0
ENDTAB
  0
TABLE
  2
BLOCK_RECORD
  5
1
330
0
100
AcDbSymbolTable
 70
     0
  0
BLOCK_RECORD
  5
1E
102
{ACAD_XDICTIONARY
360
44D
102
}
330
1
100
AcDbSymbolTableRecord
100
AcDbBlockTableRecord
  2
*MODEL_SPACE
  0
BLOCK_RECORD
  5
1A
102
{ACAD_XDICTIONARY
360
44B
102
}
330
1
100
AcDbSymbolTableRecord
100
AcDbBlockTableRecord
  2
*PAPER_SPACE
  0
ENDTAB
  0
ENDSEC
  0
SECTION
  2
BLOCKS
  0
BLOCK
  5
1F
330
1E
100
AcDbEntity
  8
0
100
AcDbBlockBegin
  2
*MODEL_SPACE
 70
     0
 10
0.0
 20
0.0
 30
0.0
  3
*MODEL_SPACE
  1

  0
ENDBLK
  5
20
330
1E
100
AcDbEntity
  8
0
100
AcDbBlockEnd
  0
BLOCK
  5
1B
330
1A
100
AcDbEntity
 67
     1
  8
0
100
AcDbBlockBegin
  2
*PAPER_SPACE
 70
     0
 10
0.0
 20
0.0
 30
0.0
  3
*PAPER_SPACE
  1

  0
ENDBLK
  5
1C
330
1A
100
AcDbEntity
 67
     1
  8
0
100
AcDbBlockEnd
  0
ENDSEC
  0
SECTION
  2
ENTITIES
  0
LINE
  5
2C
330
1E
100
AcDbEntity
  8
0
  6
CENTER
 62
     2
100
AcDbLine
 10
-64.0
 20
-18.5
 30
0.0
 11
-56.0
 21
-18.5
 31
0.0
  0
LINE
  5
2D
330
1E
100
AcDbEntity
  8
0
 62
     7
100
AcDbLine
 10
-58.0
 20
-16.5
 30
0.0
 11
-58.0
 21
-18.5
 31
0.0
  0
LINE
  5
2E
330
1E
100
AcDbEntity
  8
0
 62
     7
100
AcDbLine
 10
-62.0
 20
-16.5
 30
0.0
 11
-62.0
 21
-18.5
 31
0.0
  0
ARC
  5
2F
330
1E
100
AcDbEntity
  8
0
 62
     7
100
AcDbCircle
 10
-60.0
 20
-18.5
 30
0.0
 40
2.0
100
AcDbArc
 50
180.0
 51
0.0
  0
ARC
  5
30
330
1E
100
AcDbEntity
  8
0
 62
     7
100
AcDbCircle
 10
-60.0
 20
-16.5
 30
0.0
 40
2.0
100
AcDbArc
 50
0.0
 51
180.0
  0
LINE
  5
31
330
1E
100
AcDbEntity
  8
0
  6
CENTER
 62
     2
100
AcDbLine
 10
-64.0
 20
-16.5
 30
0.0
 11
-56.0
 21
-16.5
 31
0.0
  0
LINE
  5
32
330
1E
100
AcDbEntity
  8
0
 62
     7
100
AcDbLine
 10
-60.0
 20
-25.0
 30
0.0
 11
-33.5
 21
-25.0
 31
0.0
  0
LINE
  5
33
330
1E
100
AcDbEntity
  8
0
 62
     7
100
AcDbLine
 10
-60.0
 20
25.0
 30
0.0
 11
-33.5
 21
25.0
 31
0.0
  0
CIRCLE
  5
34
330
1E
100
AcDbEntity
  8
0
 62
     7
100
AcDbCircle
 10
-60.0
 20
-0.0000000000000036
 30
0.0
 40
25.0
  0
CIRCLE
  5
35
330
1E
100
AcDbEntity
  8
0
 62
     7
100
AcDbCircle
 10
-60.0
 20
-0.0000000000000036
 30
0.0
 40
24.5
  0
CIRCLE
  5
36
330
1E
100
AcDbEntity
  8
0
 62
     7
100
AcDbCircle
 10
-60.0
 20
-32.0
 30
0.0
 40
2.6
  0
LINE
  5
37
330
1E
100
AcDbEntity
  8
0
  6
CENTER
 62
     2
100
AcDbLine
 10
-64.59999999999999
 20
-32.0
 30
0.0
 11
-55.4
 21
-32.0
 31
0.0
  0
CIRCLE
  5
38
330
1E
100
AcDbEntity
  8
0
 62
     7
100
AcDbCircle
 10
-60.0
 20
32.0
 30
0.0
 40
2.6
  0
LINE
  5
39
330
1E
100
AcDbEntity
  8
0
  6
CENTER
 62
     2
100
AcDbLine
 10
-64.59999999999999
 20
32.0
 30
0.0
 11
-55.4
 21
32.0
 31
0.0
  0
CIRCLE
  5
3A
330
1E
100
AcDbEntity
  8
0
 62
     7
100
AcDbCircle
 10
-60.0
 20
-0.0000000000000036
 30
0.0
 40
7.0
  0
LINE
  5
3B
330
1E
100
AcDbEntity
  8
0
 62
     7
100
AcDbLine
 10
-35.0
 20
25.0
 30
0.0
 11
-35.0
 21
48.0
 31
0.0
  0
LINE
  5
3C
330
1E
100
AcDbEntity
  8
0
 62
     7
100
AcDbLine
 10
-85.0
 20
48.0000076
 30
0.0
 11
-85.0
 21
-48.0
 31
0.0
  0
LINE
  5
3D
330
1E
100
AcDbEntity
  8
0
 62
     7
100
AcDbLine
 10
-35.0
 20
-48.0000076
 30
0.0
 11
-35.0
 21
-25.0
 31
0.0
  0
CIRCLE
  5
3E
330
1E
100
AcDbEntity
  8
0
 62
     7
100
AcDbCircle
 10
-72.374353
 20
12.3743843
 30
0.0
 40
1.649999999999999
  0
LINE
  5
3F
330
1E
100
AcDbEntity
  8
0
  6
CENTER
 62
     2
100
AcDbLine
 10
-75.2027791
 20
15.2028106
 30
0.0
 11
-69.54592509999999
 21
9.545956119999999
 31
0.0
  0
CIRCLE
  5
40
330
1E
100
AcDbEntity
  8
0
 62
     2
100
AcDbCircle
 10
-72.37435340000001
 20
12.374382
 30
0.0
 40
2.0
  0
CIRCLE
  5
41
330
1E
100
AcDbEntity
  8
0
 62
     7
100
AcDbCircle
 10
-77.5
 20
-0.0000000000000036
 30
0.0
 40
2.1
  0
CIRCLE
  5
42
330
1E
100
AcDbEntity
  8
0
 62
     2
100
AcDbCircle
 10
-77.5
 20
-0.0000000000000036
 30
0.0
 40
2.5
  0
CIRCLE
  5
43
330
1E
100
AcDbEntity
  8
0
  6
CENTER
 62
     2
100
AcDbCircle
 10
-60.0
 20
-0.0000000000000036
 30
0.0
 40
17.5
  0
CIRCLE
  5
44
330
1E
100
AcDbEntity
  8
0
 62
     7
100
AcDbCircle
 10
-72.3743843
 20
-12.374353
 30
0.0
 40
1.649999999999999
  0
LINE
  5
45
330
1E
100
AcDbEntity
  8
0
  6
CENTER
 62
     2
100
AcDbLine
 10
-75.20281059999999
 20
-15.20277909999999
 30
0.0
 11
-69.5459561
 21
-9.54592506
 31
0.0
  0
CIRCLE
  5
46
330
1E
100
AcDbEntity
  8
0
 62
     2
100
AcDbCircle
 10
-72.37438199999999
 20
-12.3743534
 30
0.0
 40
2.0
  0
CIRCLE
  5
47
330
1E
100
AcDbEntity
  8
0
 62
     7
100
AcDbCircle
 10
-47.625647
 20
-12.3743843
 30
0.0
 40
1.649999999999999
  0
LINE
  5
48
330
1E
100
AcDbEntity
  8
0
  6
CENTER
 62
     2
100
AcDbLine
 10
-44.7972209
 20
-15.2028106
 30
0.0
 11
-50.4540749
 21
-9.545956119999999
 31
0.0
  0
CIRCLE
  5
49
330
1E
100
AcDbEntity
  8
0
 62
     2
100
AcDbCircle
 10
-47.6256466
 20
-12.374382
 30
0.0
 40
2.0
  0
CIRCLE
  5
4A
330
1E
100
AcDbEntity
  8
0
 62
     7
100
AcDbCircle
 10
-47.62561569999999
 20
12.374353
 30
0.0
 40
1.649999999999999
  0
LINE
  5
4B
330
1E
100
AcDbEntity
  8
0
  6
CENTER
 62
     2
100
AcDbLine
 10
-44.7971894
 20
15.20277909999999
 30
0.0
 11
-50.4540439
 21
9.54592506
 31
0.0
  0
CIRCLE
  5
4C
330
1E
100
AcDbEntity
  8
0
 62
     2
100
AcDbCircle
 10
-47.62561799999999
 20
12.3743534
 30
0.0
 40
2.0
  0
CIRCLE
  5
4D
330
1E
100
AcDbEntity
  8
0
 62
     7
100
AcDbCircle
 10
-60.0
 20
17.5
 30
0.0
 40
2.1
  0
CIRCLE
  5
4E
330
1E
100
AcDbEntity
  8
0
 62
     2
100
AcDbCircle
 10
-60.0
 20
17.5
 30
0.0
 40
2.5
  0
LINE
  5
4F
330
1E
100
AcDbEntity
  8
0
  6
CENTER
 62
     2
100
AcDbLine
 10
-60.0
 20
-52.0
 30
0.0
 11
-60.0
 21
52.0
 31
0.0
  0
ARC
  5
50
330
1E
100
AcDbEntity
  8
0
 62
     7
100
AcDbCircle
 10
-30.9441681
 20
-13.16989519999999
 30
0.0
 40
2.555816169999999
100
AcDbArc
 50
145.6156339999999
 51
214.384356
  0
ARC
  5
51
330
1E
100
AcDbEntity
  8
0
 62
     7
100
AcDbCircle
 10
-30.9441681
 20
-21.83009719999999
 30
0.0
 40
2.555816169999999
100
AcDbArc
 50
145.615662
 51
214.384383
  0
ARC
  5
52
330
1E
100
AcDbEntity
  8
0
 62
     7
100
AcDbCircle
 10
-23.94659419999999
 20
-17.4999733
 30
0.0
 40
9.55339146
100
AcDbArc
 50
162.4120259999999
 51
197.5880459999999
  0
ARC
  5
53
330
1E
100
AcDbEntity
  8
0
 62
     7
100
AcDbCircle
 10
-34.0558014
 20
-13.16989519999999
 30
0.0
 40
2.555816169999999
100
AcDbArc
 50
325.6156799999999
 51
34.3844017
  0
ARC
  5
54
330
1E
100
AcDbEntity
  8
0
 62
     7
100
AcDbCircle
 10
-41.0533905
 20
-17.4999733
 30
0.0
 40
9.55339146
100
AcDbArc
 50
342.4119899999999
 51
17.5880103
  0
ARC
  5
55
330
1E
100
AcDbEntity
  8
0
 62
     7
100
AcDbCircle
 10
-34.0558167
 20
-21.83009719999999
 30
0.0
 40
2.555816169999999
100
AcDbArc
 50
325.6156529999999
 51
34.38437439999999
  0
LINE
  5
56
330
1E
100
AcDbEntity
  8
0
 62
     7
100
AcDbLine
 10
-33.05337769999999
 20
-11.7265348
 30
0.0
 11
-33.4999491
 21
-12.50001909999999
 31
0.0
  0
LINE
  5
57
330
1E
100
AcDbEntity
  8
0
 62
     7
100
AcDbLine
 10
-33.05338309999999
 20
-23.27346879999999
 30
0.0
 11
-33.4999698
 21
-22.4999581
 31
0.0
  0
LINE
  5
58
330
1E
100
AcDbEntity
  8
0
 62
     7
100
AcDbLine
 10
-31.9465418
 20
-11.7265095
 30
0.0
 11
-31.49995519999999
 21
-12.5000201
 31
0.0
  0
LINE
  5
59
330
1E
100
AcDbEntity
  8
0
 62
     7
100
AcDbLine
 10
-31.94655329999999
 20
-23.2734778
 30
0.0
 11
-31.4999667
 21
-22.4999671
 31
0.0
  0
LINE
  5
5A
330
1E
100
AcDbEntity
  8
0
 62
     7
100
AcDbLine
 10
-33.0533447
 20
-11.7264557
 30
0.0
 11
-31.9465637
 21
-11.7264557
 31
0.0
  0
LINE
  5
5B
330
1E
100
AcDbEntity
  8
0
 62
     7
100
AcDbLine
 10
-33.0533905
 20
-14.613205
 30
0.0
 11
-31.9465637
 21
-14.613205
 31
0.0
  0
LINE
  5
5C
330
1E
100
AcDbEntity
  8
0
 62
     7
100
AcDbLine
 10
-33.0534058
 20
-20.38670349999999
 30
0.0
 11
-31.9465637
 21
-20.38670349999999
 31
0.0
  0
LINE
  5
5D
330
1E
100
AcDbEntity
  8
0
 62
     7
100
AcDbLine
 10
-33.0533905
 20
-23.27346799999999
 30
0.0
 11
-31.9465637
 21
-23.27346799999999
 31
0.0
  0
LINE
  5
5E
330
1E
100
AcDbEntity
  8
0
 62
     7
100
AcDbLine
 10
-31.5
 20
-22.4999886
 30
0.0
 11
-31.5
 21
-12.5000496
 31
0.0
  0
LINE
  5
5F
330
1E
100
AcDbEntity
  8
0
 62
     7
100
AcDbLine
 10
-33.5
 20
-48.0000076
 30
0.0
 11
-33.5
 21
48.0
 31
0.0
  0
LINE
  5
60
330
1E
100
AcDbEntity
  8
0
  6
CENTER
 62
     2
100
AcDbLine
 10
-90.5
 20
0.0
 30
0.0
 11
-29.5
 21
0.0
 31
0.0
  0
LINE
  5
61
330
1E
100
AcDbEntity
  8
0
 62
     7
100
AcDbLine
 10
-86.5
 20
48.0
 30
0.0
 11
-33.5
 21
48.0
 31
0.0
  0
LINE
  5
62
330
1E
100
AcDbEntity
  8
0
 62
     7
100
AcDbLine
 10
-86.5
 20
48.0000076
 30
0.0
 11
-86.5
 21
-48.0
 31
0.0
  0
LINE
  5
63
330
1E
100
AcDbEntity
  8
0
 62
     7
100
AcDbLine
 10
-86.5
 20
-48.0
 30
0.0
 11
-33.5
 21
-48.0
 31
0.0
  0
LINE
  5
64
330
1E
100
AcDbEntity
  8
0
 62
     7
100
AcDbLine
 10
-31.5
 20
22.4999886
 30
0.0
 11
-31.5
 21
12.5000496
 31
0.0
  0
LINE
  5
65
330
1E
100
AcDbEntity
  8
0
 62
     7
100
AcDbLine
 10
-33.0533905
 20
23.27346799999999
 30
0.0
 11
-31.9465637
 21
23.27346799999999
 31
0.0
  0
LINE
  5
66
330
1E
100
AcDbEntity
  8
0
 62
     7
100
AcDbLine
 10
-33.0534058
 20
20.38670349999999
 30
0.0
 11
-31.9465637
 21
20.38670349999999
 31
0.0
  0
LINE
  5
67
330
1E
100
AcDbEntity
  8
0
 62
     7
100
AcDbLine
 10
-33.0533905
 20
14.613205
 30
0.0
 11
-31.9465637
 21
14.613205
 31
0.0
  0
LINE
  5
68
330
1E
100
AcDbEntity
  8
0
 62
     7
100
AcDbLine
 10
-33.0533447
 20
11.7264557
 30
0.0
 11
-31.9465637
 21
11.7264557
 31
0.0
  0
LINE
  5
69
330
1E
100
AcDbEntity
  8
0
 62
     7
100
AcDbLine
 10
-31.94655329999999
 20
23.2734778
 30
0.0
 11
-31.4999667
 21
22.4999671
 31
0.0
  0
LINE
  5
6A
330
1E
100
AcDbEntity
  8
0
 62
     7
100
AcDbLine
 10
-31.9465418
 20
11.7265095
 30
0.0
 11
-31.49995519999999
 21
12.5000201
 31
0.0
  0
LINE
  5
6B
330
1E
100
AcDbEntity
  8
0
 62
     7
100
AcDbLine
 10
-33.05338309999999
 20
23.27346879999999
 30
0.0
 11
-33.4999698
 21
22.4999581
 31
0.0
  0
LINE
  5
6C
330
1E
100
AcDbEntity
  8
0
 62
     7
100
AcDbLine
 10
-33.05337769999999
 20
11.7265348
 30
0.0
 11
-33.4999491
 21
12.50001909999999
 31
0.0
  0
ARC
  5
6D
330
1E
100
AcDbEntity
  8
0
 62
     7
100
AcDbCircle
 10
-34.0558167
 20
21.83009719999999
 30
0.0
 40
2.555816169999999
100
AcDbArc
 50
325.615625
 51
34.3843471
  0
ARC
  5
6E
330
1E
100
AcDbEntity
  8
0
 62
     7
100
AcDbCircle
 10
-41.0533905
 20
17.4999733
 30
0.0
 40
9.55339146
100
AcDbArc
 50
342.4119899999999
 51
17.5880103
  0
ARC
  5
6F
330
1E
100
AcDbEntity
  8
0
 62
     7
100
AcDbCircle
 10
-34.0558014
 20
13.16989519999999
 30
0.0
 40
2.555816169999999
100
AcDbArc
 50
325.615599
 51
34.3843198
  0
ARC
  5
70
330
1E
100
AcDbEntity
  8
0
 62
     7
100
AcDbCircle
 10
-23.94659419999999
 20
17.4999733
 30
0.0
 40
9.55339146
100
AcDbArc
 50
162.411954
 51
197.587974
  0
ARC
  5
71
330
1E
100
AcDbEntity
  8
0
 62
     7
100
AcDbCircle
 10
-30.9441681
 20
21.83009719999999
 30
0.0
 40
2.555816169999999
100
AcDbArc
 50
145.6156169999999
 51
214.3843379999999
  0
ARC
  5
72
330
1E
100
AcDbEntity
  8
0
 62
     7
100
AcDbCircle
 10
-30.9441681
 20
13.16989519999999
 30
0.0
 40
2.555816169999999
100
AcDbArc
 50
145.6156439999999
 51
214.384366
  0
LINE
  5
73
330
1E
100
AcDbEntity
  8
0
 62
     7
100
AcDbLine
 10
-31.5
 20
-21.49999999999999
 30
0.0
 11
-25.5
 21
-21.49999999999999
 31
0.0
  0
LINE
  5
74
330
1E
100
AcDbEntity
  8
0
 62
     7
100
AcDbLine
 10
-31.5
 20
-13.5
 30
0.0
 11
-25.5
 21
-13.5
 31
0.0
  0
LINE
  5
75
330
1E
100
AcDbEntity
  8
0
 62
     2
100
AcDbLine
 10
-25.125
 20
-21.125
 30
0.0
 11
-31.5
 21
-21.125
 31
0.0
  0
LINE
  5
76
330
1E
100
AcDbEntity
  8
0
 62
     2
100
AcDbLine
 10
-31.5
 20
-13.875
 30
0.0
 11
-25.125
 21
-13.875
 31
0.0
  0
LINE
  5
77
330
1E
100
AcDbEntity
  8
0
  6
CENTER
 62
     2
100
AcDbLine
 10
-33.5
 20
-17.5
 30
0.0
 11
-23.0
 21
-17.5
 31
0.0
  0
LINE
  5
78
330
1E
100
AcDbEntity
  8
0
 62
     7
100
AcDbLine
 10
-25.5
 20
-16.89999999999999
 30
0.0
 11
-25.5
 21
-13.5
 31
0.0
  0
LINE
  5
79
330
1E
100
AcDbEntity
  8
0
 62
     7
100
AcDbLine
 10
-25.0
 20
-18.1
 30
0.0
 11
-25.0
 21
-21.0
 31
0.0
  0
LINE
  5
7A
330
1E
100
AcDbEntity
  8
0
 62
     7
100
AcDbLine
 10
-27.0
 20
-18.1
 30
0.0
 11
-27.0
 21
-16.89999999999999
 31
0.0
  0
LINE
  5
7B
330
1E
100
AcDbEntity
  8
0
 62
     7
100
AcDbLine
 10
-27.0
 20
-16.89999999999999
 30
0.0
 11
-25.0
 21
-16.89999999999999
 31
0.0
  0
LINE
  5
7C
330
1E
100
AcDbEntity
  8
0
 62
     7
100
AcDbLine
 10
-27.0
 20
-18.1
 30
0.0
 11
-25.0
 21
-18.1
 31
0.0
  0
LINE
  5
7D
330
1E
100
AcDbEntity
  8
0
 62
     7
100
AcDbLine
 10
-25.5
 20
-21.49999999999999
 30
0.0
 11
-25.5
 21
-18.1
 31
0.0
  0
LINE
  5
7E
330
1E
100
AcDbEntity
  8
0
 62
     7
100
AcDbLine
 10
-25.5
 20
-13.5
 30
0.0
 11
-25.0
 21
-14.0
 31
0.0
  0
LINE
  5
7F
330
1E
100
AcDbEntity
  8
0
 62
     7
100
AcDbLine
 10
-25.5
 20
-21.49999999999999
 30
0.0
 11
-25.0
 21
-21.0
 31
0.0
  0
LINE
  5
80
330
1E
100
AcDbEntity
  8
0
 62
     7
100
AcDbLine
 10
-25.0
 20
-14.0
 30
0.0
 11
-25.0
 21
-16.89999999999999
 31
0.0
  0
LINE
  5
81
330
1E
100
AcDbEntity
  8
0
  6
CENTER
 62
     2
100
AcDbLine
 10
-33.5
 20
17.5
 30
0.0
 11
-13.5
 21
17.5
 31
0.0
  0
LINE
  5
82
330
1E
100
AcDbEntity
  8
0
 62
     7
100
AcDbLine
 10
-31.5
 20
21.49999999999999
 30
0.0
 11
-21.0
 21
21.49999999999999
 31
0.0
  0
LINE
  5
83
330
1E
100
AcDbEntity
  8
0
 62
     7
100
AcDbLine
 10
-31.5
 20
13.5
 30
0.0
 11
-21.0
 21
13.5
 31
0.0
  0
LINE
  5
84
330
1E
100
AcDbEntity
  8
0
 62
     2
100
AcDbLine
 10
-20.625
 20
21.125
 30
0.0
 11
-31.5
 21
21.125
 31
0.0
  0
LINE
  5
85
330
1E
100
AcDbEntity
  8
0
 62
     2
100
AcDbLine
 10
-31.5
 20
13.875
 30
0.0
 11
-20.625
 21
13.875
 31
0.0
  0
LINE
  5
86
330
1E
100
AcDbEntity
  8
0
 62
     2
100
AcDbLine
 10
-23.5
 20
19.43649169999999
 30
0.0
 11
-21.0
 21
15.5635083
 31
0.0
  0
LINE
  5
87
330
1E
100
AcDbEntity
  8
0
 62
     2
100
AcDbLine
 10
-21.0
 20
19.43649169999999
 30
0.0
 11
-23.5
 21
15.5635083
 31
0.0
  0
LINE
  5
88
330
1E
100
AcDbEntity
  8
0
 62
     7
100
AcDbLine
 10
-21.0
 20
15.5635083
 30
0.0
 11
-21.0
 21
13.5
 31
0.0
  0
LINE
  5
89
330
1E
100
AcDbEntity
  8
0
 62
     7
100
AcDbLine
 10
-23.5
 20
15.5635083
 30
0.0
 11
-21.0
 21
15.5635083
 31
0.0
  0
LINE
  5
8A
330
1E
100
AcDbEntity
  8
0
 62
     7
100
AcDbLine
 10
-21.0
 20
19.43649169999999
 30
0.0
 11
-23.5
 21
19.43649169999999
 31
0.0
  0
LINE
  5
8B
330
1E
100
AcDbEntity
  8
0
 62
     7
100
AcDbLine
 10
-23.5
 20
19.43649169999999
 30
0.0
 11
-23.5
 21
15.5635083
 31
0.0
  0
LINE
  5
8C
330
1E
100
AcDbEntity
  8
0
 62
     7
100
AcDbLine
 10
-16.0
 20
20.89999999999999
 30
0.0
 11
-16.0
 21
14.1
 31
0.0
  0
LINE
  5
8D
330
1E
100
AcDbEntity
  8
0
 62
     7
100
AcDbLine
 10
-15.5
 20
14.59999999999999
 30
0.0
 11
-16.0
 21
14.1
 31
0.0
  0
LINE
  5
8E
330
1E
100
AcDbEntity
  8
0
 62
     7
100
AcDbLine
 10
-16.0
 20
20.89999999999999
 30
0.0
 11
-15.5
 21
20.4
 31
0.0
  0
LINE
  5
8F
330
1E
100
AcDbEntity
  8
0
 62
     7
100
AcDbLine
 10
-20.5
 20
14.1
 30
0.0
 11
-16.0
 21
14.1
 31
0.0
  0
LINE
  5
90
330
1E
100
AcDbEntity
  8
0
 62
     7
100
AcDbLine
 10
-20.5
 20
20.89999999999999
 30
0.0
 11
-16.0
 21
20.89999999999999
 31
0.0
  0
LINE
  5
91
330
1E
100
AcDbEntity
  8
0
 62
     7
100
AcDbLine
 10
-15.5
 20
20.4
 30
0.0
 11
-15.5
 21
14.59999999999999
 31
0.0
  0
LINE
  5
92
330
1E
100
AcDbEntity
  8
0
 62
     7
100
AcDbLine
 10
-20.5
 20
21.0
 30
0.0
 11
-20.5
 21
14.0
 31
0.0
  0
LINE
  5
93
330
1E
100
AcDbEntity
  8
0
 62
     7
100
AcDbLine
 10
-20.5
 20
21.0
 30
0.0
 11
-21.0
 21
21.49999999999999
 31
0.0
  0
LINE
  5
94
330
1E
100
AcDbEntity
  8
0
 62
     7
100
AcDbLine
 10
-20.5
 20
14.0
 30
0.0
 11
-21.0
 21
13.5
 31
0.0
  0
LINE
  5
95
330
1E
100
AcDbEntity
  8
0
 62
     7
100
AcDbLine
 10
-21.0
 20
21.49999999999999
 30
0.0
 11
-21.0
 21
19.43649169999999
 31
0.0
  0
POLYLINE
  5
96
330
1E
100
AcDbEntity
  8
0
 62
     7
100
AcDb2dPolyline
 66
     1
 10
0.0
 20
0.0
 30
0.0
  0
VERTEX
  5
44F
330
96
100
AcDbEntity
  8
0
 62
     7
100
AcDbVertex
100
AcDb2dVertex
 10
-23.5
 20
19.43649169999999
 30
0.0
  0
VERTEX
  5
450
330
96
100
AcDbEntity
  8
0
 62
     7
100
AcDbVertex
100
AcDb2dVertex
 10
-23.5883307
 20
19.2564751
 30
0.0
  0
VERTEX
  5
451
330
96
100
AcDbEntity
  8
0
 62
     7
100
AcDbVertex
100
AcDb2dVertex
 10
-23.6694609
 20
19.07215339999999
 30
0.0
  0
VERTEX
  5
452
330
96
100
AcDbEntity
  8
0
 62
     7
100
AcDbVertex
100
AcDb2dVertex
 10
-23.7428965
 20
18.8840051
 30
0.0
  0
VERTEX
  5
453
330
96
100
AcDbEntity
  8
0
 62
     7
100
AcDbVertex
100
AcDb2dVertex
 10
-23.8081435
 20
18.6925085
 30
0.0
  0
VERTEX
  5
454
330
96
100
AcDbEntity
  8
0
 62
     7
100
AcDbVertex
100
AcDb2dVertex
 10
-23.8647079
 20
18.4981418
 30
0.0
  0
VERTEX
  5
455
330
96
100
AcDbEntity
  8
0
 62
     7
100
AcDbVertex
100
AcDb2dVertex
 10
-23.9120956
 20
18.30138339999999
 30
0.0
  0
VERTEX
  5
456
330
96
100
AcDbEntity
  8
0
 62
     7
100
AcDbVertex
100
AcDb2dVertex
 10
-23.9498128
 20
18.1027117
 30
0.0
  0
VERTEX
  5
457
330
96
100
AcDbEntity
  8
0
 62
     7
100
AcDbVertex
100
AcDb2dVertex
 10
-23.9773652
 20
17.9026051
 30
0.0
  0
VERTEX
  5
458
330
96
100
AcDbEntity
  8
0
 62
     7
100
AcDbVertex
100
AcDb2dVertex
 10
-23.994259
 20
17.7015417
 30
0.0
  0
VERTEX
  5
459
330
96
100
AcDbEntity
  8
0
 62
     7
100
AcDbVertex
100
AcDb2dVertex
 10
-24.0
 20
17.5
 30
0.0
  0
VERTEX
  5
45A
330
96
100
AcDbEntity
  8
0
 62
     7
100
AcDbVertex
100
AcDb2dVertex
 10
-23.994259
 20
17.2984583
 30
0.0
  0
VERTEX
  5
45B
330
96
100
AcDbEntity
  8
0
 62
     7
100
AcDbVertex
100
AcDb2dVertex
 10
-23.9773652
 20
17.09739489999999
 30
0.0
  0
VERTEX
  5
45C
330
96
100
AcDbEntity
  8
0
 62
     7
100
AcDbVertex
100
AcDb2dVertex
 10
-23.9498128
 20
16.89728829999999
 30
0.0
  0
VERTEX
  5
45D
330
96
100
AcDbEntity
  8
0
 62
     7
100
AcDbVertex
100
AcDb2dVertex
 10
-23.9120956
 20
16.6986166
 30
0.0
  0
VERTEX
  5
45E
330
96
100
AcDbEntity
  8
0
 62
     7
100
AcDbVertex
100
AcDb2dVertex
 10
-23.8647079
 20
16.5018582
 30
0.0
  0
VERTEX
  5
45F
330
96
100
AcDbEntity
  8
0
 62
     7
100
AcDbVertex
100
AcDb2dVertex
 10
-23.8081435
 20
16.3074915
 30
0.0
  0
VERTEX
  5
460
330
96
100
AcDbEntity
  8
0
 62
     7
100
AcDbVertex
100
AcDb2dVertex
 10
-23.7428965
 20
16.1159949
 30
0.0
  0
VERTEX
  5
461
330
96
100
AcDbEntity
  8
0
 62
     7
100
AcDbVertex
100
AcDb2dVertex
 10
-23.6694609
 20
15.92784659999999
 30
0.0
  0
VERTEX
  5
462
330
96
100
AcDbEntity
  8
0
 62
     7
100
AcDbVertex
100
AcDb2dVertex
 10
-23.5883307
 20
15.7435249
 30
0.0
  0
VERTEX
  5
463
330
96
100
AcDbEntity
  8
0
 62
     7
100
AcDbVertex
100
AcDb2dVertex
 10
-23.5
 20
15.5635083
 30
0.0
  0
SEQEND
  5
464
330
96
100
AcDbEntity
  8
0
 62
     7
  0
POLYLINE
  5
AD
330
1E
100
AcDbEntity
  8
0
 62
     7
100
AcDb2dPolyline
 66
     1
 10
0.0
 20
0.0
 30
0.0
  0
VERTEX
  5
465
330
AD
100
AcDbEntity
  8
0
 62
     7
100
AcDbVertex
100
AcDb2dVertex
 10
-21.0
 20
19.43649169999999
 30
0.0
  0
VERTEX
  5
466
330
AD
100
AcDbEntity
  8
0
 62
     7
100
AcDbVertex
100
AcDb2dVertex
 10
-20.91166929999999
 20
19.2564751
 30
0.0
  0
VERTEX
  5
467
330
AD
100
AcDbEntity
  8
0
 62
     7
100
AcDbVertex
100
AcDb2dVertex
 10
-20.83053909999999
 20
19.07215339999999
 30
0.0
  0
VERTEX
  5
468
330
AD
100
AcDbEntity
  8
0
 62
     7
100
AcDbVertex
100
AcDb2dVertex
 10
-20.7571035
 20
18.8840051
 30
0.0
  0
VERTEX
  5
469
330
AD
100
AcDbEntity
  8
0
 62
     7
100
AcDbVertex
100
AcDb2dVertex
 10
-20.6918565
 20
18.6925085
 30
0.0
  0
VERTEX
  5
46A
330
AD
100
AcDbEntity
  8
0
 62
     7
100
AcDbVertex
100
AcDb2dVertex
 10
-20.6352921
 20
18.4981418
 30
0.0
  0
VERTEX
  5
46B
330
AD
100
AcDbEntity
  8
0
 62
     7
100
AcDbVertex
100
AcDb2dVertex
 10
-20.5879044
 20
18.30138339999999
 30
0.0
  0
VERTEX
  5
46C
330
AD
100
AcDbEntity
  8
0
 62
     7
100
AcDbVertex
100
AcDb2dVertex
 10
-20.5501872
 20
18.1027117
 30
0.0
  0
VERTEX
  5
46D
330
AD
100
AcDbEntity
  8
0
 62
     7
100
AcDbVertex
100
AcDb2dVertex
 10
-20.5226348
 20
17.9026051
 30
0.0
  0
VERTEX
  5
46E
330
AD
100
AcDbEntity
  8
0
 62
     7
100
AcDbVertex
100
AcDb2dVertex
 10
-20.50574099999999
 20
17.7015417
 30
0.0
  0
VERTEX
  5
46F
330
AD
100
AcDbEntity
  8
0
 62
     7
100
AcDbVertex
100
AcDb2dVertex
 10
-20.5
 20
17.5
 30
0.0
  0
VERTEX
  5
470
330
AD
100
AcDbEntity
  8
0
 62
     7
100
AcDbVertex
100
AcDb2dVertex
 10
-20.50574099999999
 20
17.2984583
 30
0.0
  0
VERTEX
  5
471
330
AD
100
AcDbEntity
  8
0
 62
     7
100
AcDbVertex
100
AcDb2dVertex
 10
-20.5226348
 20
17.09739489999999
 30
0.0
  0
VERTEX
  5
472
330
AD
100
AcDbEntity
  8
0
 62
     7
100
AcDbVertex
100
AcDb2dVertex
 10
-20.5501872
 20
16.89728829999999
 30
0.0
  0
VERTEX
  5
473
330
AD
100
AcDbEntity
  8
0
 62
     7
100
AcDbVertex
100
AcDb2dVertex
 10
-20.5879044
 20
16.6986166
 30
0.0
  0
VERTEX
  5
474
330
AD
100
AcDbEntity
  8
0
 62
     7
100
AcDbVertex
100
AcDb2dVertex
 10
-20.6352921
 20
16.5018582
 30
0.0
  0
VERTEX
  5
475
330
AD
100
AcDbEntity
  8
0
 62
     7
100
AcDbVertex
100
AcDb2dVertex
 10
-20.6918565
 20
16.3074915
 30
0.0
  0
VERTEX
  5
476
330
AD
100
AcDbEntity
  8
0
 62
     7
100
AcDbVertex
100
AcDb2dVertex
 10
-20.7571035
 20
16.1159949
 30
0.0
  0
VERTEX
  5
477
330
AD
100
AcDbEntity
  8
0
 62
     7
100
AcDbVertex
100
AcDb2dVertex
 10
-20.83053909999999
 20
15.92784659999999
 30
0.0
  0
VERTEX
  5
478
330
AD
100
AcDbEntity
  8
0
 62
     7
100
AcDbVertex
100
AcDb2dVertex
 10
-20.91166929999999
 20
15.7435249
 30
0.0
  0
VERTEX
  5
479
330
AD
100
AcDbEntity
  8
0
 62
     7
100
AcDbVertex
100
AcDb2dVertex
 10
-21.0
 20
15.5635083
 30
0.0
  0
SEQEND
  5
47A
330
AD
100
AcDbEntity
  8
0
 62
     7
  0
LINE
  5
C4
330
1E
100
AcDbEntity
  8
0
 62
     7
100
AcDbLine
 10
-164.5
 20
24.5
 30
0.0
 11
-168.5
 21
24.5
 31
0.0
  0
LINE
  5
C5
330
1E
100
AcDbEntity
  8
0
 62
     7
100
AcDbLine
 10
-164.5
 20
-24.5
 30
0.0
 11
-168.5
 21
-24.5
 31
0.0
  0
LINE
  5
C6
330
1E
100
AcDbEntity
  8
0
 62
     7
100
AcDbLine
 10
-168.5
 20
22.5
 30
0.0
 11
-169.5
 21
22.5
 31
0.0
  0
LINE
  5
C7
330
1E
100
AcDbEntity
  8
0
 62
     7
100
AcDbLine
 10
-168.5
 20
-22.5
 30
0.0
 11
-169.5
 21
-22.5
 31
0.0
  0
LINE
  5
C8
330
1E
100
AcDbEntity
  8
0
 62
     7
100
AcDbLine
 10
-176.5
 20
-25.0
 30
0.0
 11
-169.5
 21
-25.0
 31
0.0
  0
LINE
  5
C9
330
1E
100
AcDbEntity
  8
0
 62
     7
100
AcDbLine
 10
-176.5
 20
25.0
 30
0.0
 11
-169.5
 21
25.0
 31
0.0
  0
LINE
  5
CA
330
1E
100
AcDbEntity
  8
0
 62
     7
100
AcDbLine
 10
-184.4
 20
-48.0
 30
0.0
 11
-184.4
 21
48.0
 31
0.0
  0
LINE
  5
CB
330
1E
100
AcDbEntity
  8
0
 62
     7
100
AcDbLine
 10
-187.5999999999999
 20
-48.0
 30
0.0
 11
-187.5999999999999
 21
48.0
 31
0.0
  0
LINE
  5
CC
330
1E
100
AcDbEntity
  8
0
 62
     7
100
AcDbLine
 10
-192.4
 20
-48.0
 30
0.0
 11
-192.4
 21
48.0
 31
0.0
  0
LINE
  5
CD
330
1E
100
AcDbEntity
  8
0
 62
     7
100
AcDbLine
 10
-195.5999999999999
 20
-48.0
 30
0.0
 11
-195.5999999999999
 21
48.0
 31
0.0
  0
LINE
  5
CE
330
1E
100
AcDbEntity
  8
0
 62
     7
100
AcDbLine
 10
-178.0
 20
48.0
 30
0.0
 11
-178.0
 21
-48.00000189999999
 31
0.0
  0
LINE
  5
CF
330
1E
100
AcDbEntity
  8
0
 62
     7
100
AcDbLine
 10
-176.5
 20
48.0
 30
0.0
 11
-176.5
 21
-48.00000189999999
 31
0.0
  0
LINE
  5
D0
330
1E
100
AcDbEntity
  8
0
  6
CENTER
 62
     2
100
AcDbLine
 10
-190.0
 20
-52.00000189999999
 30
0.0
 11
-190.0
 21
52.0
 31
0.0
  0
LINE
  5
D1
330
1E
100
AcDbEntity
  8
0
 62
     7
100
AcDbLine
 10
-168.5
 20
24.5
 30
0.0
 11
-168.5
 21
-24.5
 31
0.0
  0
LINE
  5
D2
330
1E
100
AcDbEntity
  8
0
 62
     7
100
AcDbLine
 10
-169.5
 20
25.0
 30
0.0
 11
-169.5
 21
-25.0
 31
0.0
  0
LINE
  5
D3
330
1E
100
AcDbEntity
  8
0
 62
     7
100
AcDbLine
 10
-203.0
 20
48.0
 30
0.0
 11
-203.0
 21
-48.00000189999999
 31
0.0
  0
LINE
  5
D4
330
1E
100
AcDbEntity
  8
0
 62
     7
100
AcDbLine
 10
-176.5
 20
-48.0
 30
0.0
 11
-204.4999999999999
 21
-48.0
 31
0.0
  0
LINE
  5
D5
330
1E
100
AcDbEntity
  8
0
 62
     7
100
AcDbLine
 10
-204.4999999999999
 20
48.0
 30
0.0
 11
-204.4999999999999
 21
-48.00000189999999
 31
0.0
  0
LINE
  5
D6
330
1E
100
AcDbEntity
  8
0
 62
     7
100
AcDbLine
 10
-176.5
 20
48.0
 30
0.0
 11
-204.4999999999999
 21
48.0
 31
0.0
  0
LINE
  5
D7
330
1E
100
AcDbEntity
  8
0
 62
     7
100
AcDbLine
 10
-164.5
 20
-24.5
 30
0.0
 11
-164.5
 21
24.5
 31
0.0
  0
LINE
  5
D8
330
1E
100
AcDbEntity
  8
0
  6
CENTER
 62
     2
100
AcDbLine
 10
-160.4999999999999
 20
0.0
 30
0.0
 11
-208.4999999999999
 21
0.0
 31
0.0
  0
LINE
  5
D9
330
1E
100
AcDbEntity
  8
0
  6
CENTER
 62
     2
100
AcDbLine
 10
70.0
 20
-52.0
 30
0.0
 11
70.0
 21
52.0
 31
0.0
  0
LINE
  5
DA
330
1E
100
AcDbEntity
  8
0
 62
     7
100
AcDbLine
 10
44.5
 20
-24.5
 30
0.0
 11
48.5
 21
-24.5
 31
0.0
  0
LINE
  5
DB
330
1E
100
AcDbEntity
  8
0
 62
     7
100
AcDbLine
 10
44.5
 20
24.5
 30
0.0
 11
48.5
 21
24.5
 31
0.0
  0
LINE
  5
DC
330
1E
100
AcDbEntity
  8
0
 62
     7
100
AcDbLine
 10
48.5
 20
-22.5
 30
0.0
 11
49.5
 21
-22.5
 31
0.0
  0
LINE
  5
DD
330
1E
100
AcDbEntity
  8
0
 62
     7
100
AcDbLine
 10
48.5
 20
22.5
 30
0.0
 11
49.5
 21
22.5
 31
0.0
  0
LINE
  5
DE
330
1E
100
AcDbEntity
  8
0
 62
     7
100
AcDbLine
 10
58.0
 20
-25.0
 30
0.0
 11
49.5
 21
-25.0
 31
0.0
  0
LINE
  5
DF
330
1E
100
AcDbEntity
  8
0
 62
     7
100
AcDbLine
 10
58.0
 20
25.0
 30
0.0
 11
49.5
 21
25.0
 31
0.0
  0
LINE
  5
E0
330
1E
100
AcDbEntity
  8
0
 62
     7
100
AcDbLine
 10
58.0
 20
-25.0
 30
0.0
 11
58.0
 21
-48.0
 31
0.0
  0
LINE
  5
E1
330
1E
100
AcDbEntity
  8
0
 62
     7
100
AcDbLine
 10
58.0
 20
48.0
 30
0.0
 11
58.0
 21
25.0
 31
0.0
  0
LINE
  5
E2
330
1E
100
AcDbEntity
  8
0
 62
     7
100
AcDbLine
 10
56.5
 20
-25.0
 30
0.0
 11
56.5
 21
-48.0
 31
0.0
  0
LINE
  5
E3
330
1E
100
AcDbEntity
  8
0
 62
     7
100
AcDbLine
 10
56.5
 20
48.0
 30
0.0
 11
56.5
 21
25.0
 31
0.0
  0
LINE
  5
E4
330
1E
100
AcDbEntity
  8
0
 62
     7
100
AcDbLine
 10
48.5
 20
24.5
 30
0.0
 11
48.5
 21
-24.5
 31
0.0
  0
LINE
  5
E5
330
1E
100
AcDbEntity
  8
0
 62
     7
100
AcDbLine
 10
49.5
 20
25.0
 30
0.0
 11
49.5
 21
-25.0
 31
0.0
  0
LINE
  5
E6
330
1E
100
AcDbEntity
  8
0
 62
     7
100
AcDbLine
 10
83.0
 20
48.0
 30
0.0
 11
83.0
 21
-48.0
 31
0.0
  0
LINE
  5
E7
330
1E
100
AcDbEntity
  8
0
  6
CENTER
 62
     2
100
AcDbLine
 10
76.5
 20
-33.5
 30
0.0
 11
76.5
 21
-42.5
 31
0.0
  0
CIRCLE
  5
E8
330
1E
100
AcDbEntity
  8
0
 62
     7
100
AcDbCircle
 10
76.5
 20
-38.0
 30
0.0
 40
2.1
  0
LINE
  5
E9
330
1E
100
AcDbEntity
  8
0
  6
CENTER
 62
     2
100
AcDbLine
 10
81.0
 20
-38.0
 30
0.0
 11
72.0
 21
-38.0
 31
0.0
  0
CIRCLE
  5
EA
330
1E
100
AcDbEntity
  8
0
 62
     2
100
AcDbCircle
 10
76.5
 20
-38.0
 30
0.0
 40
2.5
  0
CIRCLE
  5
EB
330
1E
100
AcDbEntity
  8
0
 62
     7
100
AcDbCircle
 10
76.5
 20
38.0
 30
0.0
 40
2.1
  0
LINE
  5
EC
330
1E
100
AcDbEntity
  8
0
  6
CENTER
 62
     2
100
AcDbLine
 10
40.49999999999999
 20
0.0
 30
0.0
 11
88.49999999999999
 21
0.0
 31
0.0
  0
LINE
  5
ED
330
1E
100
AcDbEntity
  8
0
 62
     7
100
AcDbLine
 10
56.5
 20
-48.0
 30
0.0
 11
84.50000000000001
 21
-48.0
 31
0.0
  0
LINE
  5
EE
330
1E
100
AcDbEntity
  8
0
 62
     7
100
AcDbLine
 10
56.5
 20
48.0
 30
0.0
 11
84.50000000000001
 21
48.0
 31
0.0
  0
LINE
  5
EF
330
1E
100
AcDbEntity
  8
0
 62
     7
100
AcDbLine
 10
44.5
 20
-24.5
 30
0.0
 11
44.5
 21
24.5
 31
0.0
  0
LINE
  5
F0
330
1E
100
AcDbEntity
  8
0
  6
CENTER
 62
     2
100
AcDbLine
 10
76.5
 20
33.5
 30
0.0
 11
76.5
 21
42.5
 31
0.0
  0
LINE
  5
F1
330
1E
100
AcDbEntity
  8
0
  6
CENTER
 62
     2
100
AcDbLine
 10
81.0
 20
38.0
 30
0.0
 11
72.0
 21
38.0
 31
0.0
  0
LINE
  5
F2
330
1E
100
AcDbEntity
  8
0
 62
     7
100
AcDbLine
 10
84.50000000000001
 20
48.0
 30
0.0
 11
84.50000000000001
 21
-48.0
 31
0.0
  0
CIRCLE
  5
F3
330
1E
100
AcDbEntity
  8
0
 62
     2
100
AcDbCircle
 10
76.5
 20
38.0
 30
0.0
 40
2.5
  0
LINE
  5
F4
330
1E
100
AcDbEntity
  8
0
  6
CENTER
 62
     2
100
AcDbLine
 10
49.0
 20
17.5
 30
0.0
 11
63.0
 21
17.5
 31
0.0
  0
CIRCLE
  5
F5
330
1E
100
AcDbEntity
  8
0
 62
     7
100
AcDbCircle
 10
56.0
 20
17.5
 30
0.0
 40
2.5
  0
ARC
  5
F6
330
1E
100
AcDbEntity
  8
0
 62
     2
100
AcDbCircle
 10
56.0
 20
17.5
 30
0.0
 40
3.6
100
AcDbArc
 50
13.53620269999999
 51
166.463797
  0
LINE
  5
F7
330
1E
100
AcDbEntity
  8
0
 62
     7
100
AcDbLine
 10
61.0
 20
20.3867513
 30
0.0
 11
56.0
 21
23.2735027
 31
0.0
  0
LINE
  5
F8
330
1E
100
AcDbEntity
  8
0
 62
     7
100
AcDbLine
 10
61.0
 20
14.6132487
 30
0.0
 11
61.0
 21
20.3867513
 31
0.0
  0
LINE
  5
F9
330
1E
100
AcDbEntity
  8
0
 62
     7
100
AcDbLine
 10
56.0
 20
11.7264973
 30
0.0
 11
61.0
 21
14.6132487
 31
0.0
  0
LINE
  5
FA
330
1E
100
AcDbEntity
  8
0
 62
     7
100
AcDbLine
 10
51.0
 20
14.6132487
 30
0.0
 11
56.0
 21
11.7264973
 31
0.0
  0
LINE
  5
FB
330
1E
100
AcDbEntity
  8
0
 62
     7
100
AcDbLine
 10
51.0
 20
20.3867513
 30
0.0
 11
51.0
 21
14.6132487
 31
0.0
  0
LINE
  5
FC
330
1E
100
AcDbEntity
  8
0
 62
     7
100
AcDbLine
 10
56.0
 20
23.2735027
 30
0.0
 11
51.0
 21
20.3867513
 31
0.0
  0
CIRCLE
  5
FD
330
1E
100
AcDbEntity
  8
0
 62
     7
100
AcDbCircle
 10
56.0
 20
17.5
 30
0.0
 40
5.0
  0
CIRCLE
  5
FE
330
1E
100
AcDbEntity
  8
0
 62
     7
100
AcDbCircle
 10
56.0
 20
17.5
 30
0.0
 40
4.0
  0
CIRCLE
  5
FF
330
1E
100
AcDbEntity
  8
0
 62
     7
100
AcDbCircle
 10
56.0
 20
17.5
 30
0.0
 40
3.399999999999999
  0
LINE
  5
100
330
1E
100
AcDbEntity
  8
0
 62
     7
100
AcDbLine
 10
52.5
 20
15.5635083
 30
0.0
 11
52.5
 21
19.43649169999999
 31
0.0
  0
LINE
  5
101
330
1E
100
AcDbEntity
  8
0
 62
     7
100
AcDbLine
 10
59.5
 20
15.5635083
 30
0.0
 11
59.5
 21
19.43649169999999
 31
0.0
  0
ARC
  5
102
330
1E
100
AcDbEntity
  8
0
 62
     2
100
AcDbCircle
 10
56.0
 20
17.5
 30
0.0
 40
3.6
100
AcDbArc
 50
193.536203
 51
346.463797
  0
LINE
  5
103
330
1E
100
AcDbEntity
  8
0
  6
CENTER
 62
     2
100
AcDbLine
 10
56.0
 20
10.5
 30
0.0
 11
56.0
 21
24.5
 31
0.0
  0
LINE
  5
104
330
1E
100
AcDbEntity
  8
0
  6
CENTER
 62
     2
100
AcDbLine
 10
49.0
 20
-17.5
 30
0.0
 11
63.0
 21
-17.5
 31
0.0
  0
LINE
  5
105
330
1E
100
AcDbEntity
  8
0
  6
CENTER
 62
     2
100
AcDbLine
 10
56.0
 20
-24.5
 30
0.0
 11
56.0
 21
-10.5
 31
0.0
  0
LINE
  5
106
330
1E
100
AcDbEntity
  8
0
 62
     7
100
AcDbLine
 10
52.045256
 20
-18.1
 30
0.0
 11
59.95474399999999
 21
-18.1
 31
0.0
  0
LINE
  5
107
330
1E
100
AcDbEntity
  8
0
 62
     7
100
AcDbLine
 10
52.045256
 20
-16.89999999999999
 30
0.0
 11
59.95474399999999
 21
-16.89999999999999
 31
0.0
  0
CIRCLE
  5
108
330
1E
100
AcDbEntity
  8
0
 62
     7
100
AcDbCircle
 10
56.0
 20
-17.5
 30
0.0
 40
4.0
  0
CIRCLE
  5
109
330
1E
100
AcDbEntity
  8
0
 62
     7
100
AcDbCircle
 10
56.0
 20
-17.5
 30
0.0
 40
5.0
  0
LINE
  5
10A
330
1E
100
AcDbEntity
  8
0
 62
     7
100
AcDbLine
 10
56.0
 20
-23.2735027
 30
0.0
 11
51.0
 21
-20.3867513
 31
0.0
  0
LINE
  5
10B
330
1E
100
AcDbEntity
  8
0
 62
     7
100
AcDbLine
 10
51.0
 20
-20.3867513
 30
0.0
 11
51.0
 21
-14.6132487
 31
0.0
  0
LINE
  5
10C
330
1E
100
AcDbEntity
  8
0
 62
     7
100
AcDbLine
 10
51.0
 20
-14.6132487
 30
0.0
 11
56.0
 21
-11.7264973
 31
0.0
  0
LINE
  5
10D
330
1E
100
AcDbEntity
  8
0
 62
     7
100
AcDbLine
 10
56.0
 20
-11.7264973
 30
0.0
 11
61.0
 21
-14.6132487
 31
0.0
  0
LINE
  5
10E
330
1E
100
AcDbEntity
  8
0
 62
     7
100
AcDbLine
 10
61.0
 20
-14.6132487
 30
0.0
 11
61.0
 21
-20.3867513
 31
0.0
  0
LINE
  5
10F
330
1E
100
AcDbEntity
  8
0
 62
     7
100
AcDbLine
 10
61.0
 20
-20.3867513
 30
0.0
 11
56.0
 21
-23.2735027
 31
0.0
  0
CIRCLE
  5
110
330
1E
100
AcDbEntity
  8
0
 62
     2
100
AcDbCircle
 10
56.0
 20
-17.5
 30
0.0
 40
3.6
  0
CIRCLE
  5
111
330
1E
100
AcDbEntity
  8
0
 62
     7
100
AcDbCircle
 10
-45.926712
 20
127.7377399999999
 30
0.0
 40
0.472222209
  0
CIRCLE
  5
112
330
1E
100
AcDbEntity
  8
0
 62
     7
100
AcDbCircle
 10
-50.073349
 20
127.7377399999999
 30
0.0
 40
0.472222209
  0
ARC
  5
113
330
1E
100
AcDbEntity
  8
0
 62
     7
100
AcDbCircle
 10
-48.0000305
 20
120.4722209999999
 30
0.0
 40
7.555555339999999
100
AcDbArc
 50
113.093607
 51
66.90653860000001
  0
CIRCLE
  5
114
330
1E
100
AcDbEntity
  8
0
 62
     7
100
AcDbCircle
 10
-48.0000305
 20
120.0
 30
0.0
 40
8.5
  0
ARC
  5
115
330
1E
100
AcDbEntity
  8
0
 62
     7
100
AcDbCircle
 10
-50.073349
 20
127.7377399999999
 30
0.0
 40
1.0
100
AcDbArc
 50
199.721087
 51
41.22073799999999
  0
ARC
  5
116
330
1E
100
AcDbEntity
  8
0
 62
     7
100
AcDbCircle
 10
-45.926712
 20
127.7377399999999
 30
0.0
 40
1.0
100
AcDbArc
 50
138.7794209999999
 51
340.279017
  0
CIRCLE
  5
117
330
1E
100
AcDbEntity
  8
0
 62
     7
100
AcDbCircle
 10
-74.0733185
 20
127.7377399999999
 30
0.0
 40
0.472222209
  0
CIRCLE
  5
118
330
1E
100
AcDbEntity
  8
0
 62
     7
100
AcDbCircle
 10
-69.9266815
 20
127.7377399999999
 30
0.0
 40
0.472222209
  0
ARC
  5
119
330
1E
100
AcDbEntity
  8
0
 62
     7
100
AcDbCircle
 10
-72.0
 20
120.4722209999999
 30
0.0
 40
7.555555339999999
100
AcDbArc
 50
113.0934969999999
 51
66.90642920000001
  0
CIRCLE
  5
11A
330
1E
100
AcDbEntity
  8
0
 62
     7
100
AcDbCircle
 10
-72.0
 20
120.0
 30
0.0
 40
8.5
  0
ARC
  5
11B
330
1E
100
AcDbEntity
  8
0
 62
     7
100
AcDbCircle
 10
-69.9266815
 20
127.7377399999999
 30
0.0
 40
1.0
100
AcDbArc
 50
138.779298
 51
340.2789489999999
  0
ARC
  5
11C
330
1E
100
AcDbEntity
  8
0
 62
     7
100
AcDbCircle
 10
-74.0733185
 20
127.7377399999999
 30
0.0
 40
1.0
100
AcDbArc
 50
199.721019
 51
41.2206151
  0
LINE
  5
11D
330
1E
100
AcDbEntity
  8
0
 62
     7
100
AcDbLine
 10
-33.05340029999999
 20
106.0
 30
0.0
 11
-31.94659619999999
 21
106.0
 31
0.0
  0
LINE
  5
11E
330
1E
100
AcDbEntity
  8
0
 62
     7
100
AcDbLine
 10
-33.4999776
 20
111.0
 30
0.0
 11
-31.5
 21
111.0
 31
0.0
  0
LINE
  5
11F
330
1E
100
AcDbEntity
  8
0
 62
     7
100
AcDbLine
 10
-33.5
 20
101.0
 30
0.0
 11
-31.5
 21
101.0
 31
0.0
  0
LINE
  5
120
330
1E
100
AcDbEntity
  8
0
 62
     7
100
AcDbLine
 10
-37.5
 20
99.50000000000001
 30
0.0
 11
-37.5
 21
98.50000000000001
 31
0.0
  0
LINE
  5
121
330
1E
100
AcDbEntity
  8
0
 62
     7
100
AcDbLine
 10
-82.5
 20
99.50000000000001
 30
0.0
 11
-82.5
 21
98.50000000000001
 31
0.0
  0
LINE
  5
122
330
1E
100
AcDbEntity
  8
0
  6
CENTER
 62
     2
100
AcDbLine
 10
-48.0
 20
130.4999999999999
 30
0.0
 11
-48.0
 21
109.4999999999999
 31
0.0
  0
LINE
  5
123
330
1E
100
AcDbEntity
  8
0
  6
CENTER
 62
     2
100
AcDbLine
 10
-37.5000305
 20
120.0
 30
0.0
 11
-82.5
 21
120.0
 31
0.0
  0
LINE
  5
124
330
1E
100
AcDbEntity
  8
0
  6
CENTER
 62
     2
100
AcDbLine
 10
-72.0
 20
130.4999999999999
 30
0.0
 11
-72.0
 21
109.4999999999999
 31
0.0
  0
LINE
  5
125
330
1E
100
AcDbEntity
  8
0
  6
CENTER
 62
     2
100
AcDbLine
 10
-60.0
 20
138.5
 30
0.0
 11
-60.0
 21
90.5
 31
0.0
  0
LINE
  5
126
330
1E
100
AcDbEntity
  8
0
 62
     7
100
AcDbLine
 10
-35.0
 20
106.4999999999999
 30
0.0
 11
-85.0
 21
106.4999999999999
 31
0.0
  0
LINE
  5
127
330
1E
100
AcDbEntity
  8
0
 62
     7
100
AcDbLine
 10
-84.50000000000001
 20
94.50000000000001
 30
0.0
 11
-35.5
 21
94.50000000000001
 31
0.0
  0
LINE
  5
128
330
1E
100
AcDbEntity
  8
0
 62
     7
100
AcDbLine
 10
-35.0
 20
134.4999999999999
 30
0.0
 11
-47.0
 21
134.4999999999999
 31
0.0
  0
LINE
  5
129
330
1E
100
AcDbEntity
  8
0
 62
     7
100
AcDbLine
 10
-85.79999970000001
 20
117.5999999999999
 30
0.0
 11
-85.5749997
 21
117.5999999999999
 31
0.0
  0
LINE
  5
12A
330
1E
100
AcDbEntity
  8
0
 62
     7
100
AcDbLine
 10
-86.0999997
 20
114.4
 30
0.0
 11
-85.5749997
 21
114.4
 31
0.0
  0
LINE
  5
12B
330
1E
100
AcDbEntity
  8
0
 62
     7
100
AcDbLine
 10
-86.0999997
 20
114.4
 30
0.0
 11
-86.49999970000001
 21
114.0
 31
0.0
  0
LINE
  5
12C
330
1E
100
AcDbEntity
  8
0
  6
CENTER
 62
     2
100
AcDbLine
 10
-80.95298690000001
 20
116.0
 30
0.0
 11
-88.4999997
 21
116.0
 31
0.0
  0
LINE
  5
12D
330
1E
100
AcDbEntity
  8
0
 62
     7
100
AcDbLine
 10
-83.47499969999999
 20
118.0749999999999
 30
0.0
 11
-85.0999997
 21
118.0749999999999
 31
0.0
  0
LINE
  5
12E
330
1E
100
AcDbEntity
  8
0
 62
     7
100
AcDbLine
 10
-83.47499969999999
 20
113.925
 30
0.0
 11
-85.0999997
 21
113.925
 31
0.0
  0
LINE
  5
12F
330
1E
100
AcDbEntity
  8
0
 62
     7
100
AcDbLine
 10
-85.0999997
 20
113.925
 30
0.0
 11
-85.5749997
 21
114.4
 31
0.0
  0
LINE
  5
130
330
1E
100
AcDbEntity
  8
0
 62
     7
100
AcDbLine
 10
-85.0999997
 20
118.0749999999999
 30
0.0
 11
-85.5749997
 21
117.5999999999999
 31
0.0
  0
ARC
  5
131
330
1E
100
AcDbEntity
  8
0
 62
     7
100
AcDbCircle
 10
-83.47499969999999
 20
116.0
 30
0.0
 40
2.075
100
AcDbArc
 50
270.0
 51
90.00000020000001
  0
LINE
  5
132
330
1E
100
AcDbEntity
  8
0
 62
     7
100
AcDbLine
 10
-86.0999997
 20
117.9
 30
0.0
 11
-86.0999997
 21
122.0999999999999
 31
0.0
  0
ARC
  5
133
330
1E
100
AcDbEntity
  8
0
 62
     7
100
AcDbCircle
 10
-85.79999970000001
 20
117.9
 30
0.0
 40
0.3
100
AcDbArc
 50
180.0
 51
270.0
  0
LINE
  5
134
330
1E
100
AcDbEntity
  8
0
 62
     7
100
AcDbLine
 10
-86.0999997
 20
125.6
 30
0.0
 11
-86.49999970000001
 21
126.0
 31
0.0
  0
LINE
  5
135
330
1E
100
AcDbEntity
  8
0
  6
CENTER
 62
     2
100
AcDbLine
 10
-80.95298690000001
 20
124.0
 30
0.0
 11
-88.4999997
 21
124.0
 31
0.0
  0
LINE
  5
136
330
1E
100
AcDbEntity
  8
0
 62
     7
100
AcDbLine
 10
-85.0999997
 20
126.075
 30
0.0
 11
-85.5749997
 21
125.6
 31
0.0
  0
ARC
  5
137
330
1E
100
AcDbEntity
  8
0
 62
     7
100
AcDbCircle
 10
-83.47499969999999
 20
124.0
 30
0.0
 40
2.075
100
AcDbArc
 50
270.0
 51
90.00000020000001
  0
ARC
  5
138
330
1E
100
AcDbEntity
  8
0
 62
     7
100
AcDbCircle
 10
-85.79999970000001
 20
122.0999999999999
 30
0.0
 40
0.3
100
AcDbArc
 50
90.00000020000001
 51
180.0
  0
LINE
  5
139
330
1E
100
AcDbEntity
  8
0
 62
     7
100
AcDbLine
 10
-85.0999997
 20
121.9249999999999
 30
0.0
 11
-85.5749997
 21
122.3999999999999
 31
0.0
  0
LINE
  5
13A
330
1E
100
AcDbEntity
  8
0
 62
     7
100
AcDbLine
 10
-83.47499969999999
 20
121.9249999999999
 30
0.0
 11
-85.0999997
 21
121.9249999999999
 31
0.0
  0
LINE
  5
13B
330
1E
100
AcDbEntity
  8
0
 62
     7
100
AcDbLine
 10
-86.0999997
 20
125.6
 30
0.0
 11
-85.5749997
 21
125.6
 31
0.0
  0
LINE
  5
13C
330
1E
100
AcDbEntity
  8
0
 62
     7
100
AcDbLine
 10
-85.79999970000001
 20
122.3999999999999
 30
0.0
 11
-85.5749997
 21
122.3999999999999
 31
0.0
  0
LINE
  5
13D
330
1E
100
AcDbEntity
  8
0
 62
     7
100
AcDbLine
 10
-83.47499969999999
 20
126.075
 30
0.0
 11
-85.0999997
 21
126.075
 31
0.0
  0
LINE
  5
13E
330
1E
100
AcDbEntity
  8
0
 62
     7
100
AcDbLine
 10
-86.5
 20
133.0
 30
0.0
 11
-86.5
 21
126.0
 31
0.0
  0
LINE
  5
13F
330
1E
100
AcDbEntity
  8
0
 62
     7
100
AcDbLine
 10
-33.5
 20
133.0
 30
0.0
 11
-33.5
 21
99.50000000000001
 31
0.0
  0
LINE
  5
140
330
1E
100
AcDbEntity
  8
0
 62
     7
100
AcDbLine
 10
-86.5
 20
114.0
 30
0.0
 11
-86.5
 21
108.0
 31
0.0
  0
LINE
  5
141
330
1E
100
AcDbEntity
  8
0
 62
     7
100
AcDbLine
 10
-31.5
 20
111.0
 30
0.0
 11
-31.5
 21
101.0
 31
0.0
  0
LINE
  5
142
330
1E
100
AcDbEntity
  8
0
 62
     7
100
AcDbLine
 10
-85.0
 20
106.4999999999999
 30
0.0
 11
-85.0
 21
99.50000000000001
 31
0.0
  0
LINE
  5
143
330
1E
100
AcDbEntity
  8
0
 62
     7
100
AcDbLine
 10
-85.0
 20
106.4999999999999
 30
0.0
 11
-86.5
 21
108.0
 31
0.0
  0
LINE
  5
144
330
1E
100
AcDbEntity
  8
0
 62
     7
100
AcDbLine
 10
-33.5
 20
108.0
 30
0.0
 11
-35.0
 21
106.4999999999999
 31
0.0
  0
LINE
  5
145
330
1E
100
AcDbEntity
  8
0
 62
     7
100
AcDbLine
 10
-33.5
 20
133.0
 30
0.0
 11
-35.0
 21
134.4999999999999
 31
0.0
  0
LINE
  5
146
330
1E
100
AcDbEntity
  8
0
 62
     7
100
AcDbLine
 10
-85.0
 20
134.4999999999999
 30
0.0
 11
-86.5
 21
133.0
 31
0.0
  0
LINE
  5
147
330
1E
100
AcDbEntity
  8
0
 62
     7
100
AcDbLine
 10
-85.0
 20
99.50000000000001
 30
0.0
 11
-33.5
 21
99.50000000000001
 31
0.0
  0
LINE
  5
148
330
1E
100
AcDbEntity
  8
0
 62
     7
100
AcDbLine
 10
-84.50000000000001
 20
98.50000000000001
 30
0.0
 11
-35.5
 21
98.50000000000001
 31
0.0
  0
LINE
  5
149
330
1E
100
AcDbEntity
  8
0
 62
     7
100
AcDbLine
 10
-35.5
 20
98.50000000000001
 30
0.0
 11
-35.5
 21
94.50000379999998
 31
0.0
  0
LINE
  5
14A
330
1E
100
AcDbEntity
  8
0
 62
     7
100
AcDbLine
 10
-84.50000000000001
 20
98.50000000000001
 30
0.0
 11
-84.50000000000001
 21
94.50000379999998
 31
0.0
  0
LINE
  5
14B
330
1E
100
AcDbEntity
  8
0
 62
     7
100
AcDbLine
 10
-47.0
 20
134.4999999999999
 30
0.0
 11
-47.2
 21
134.3
 31
0.0
  0
LINE
  5
14C
330
1E
100
AcDbEntity
  8
0
 62
     7
100
AcDbLine
 10
-47.2
 20
134.3
 30
0.0
 11
-72.8
 21
134.3
 31
0.0
  0
LINE
  5
14D
330
1E
100
AcDbEntity
  8
0
 62
     7
100
AcDbLine
 10
-73.0
 20
134.4999999999999
 30
0.0
 11
-72.8
 21
134.3
 31
0.0
  0
LINE
  5
14E
330
1E
100
AcDbEntity
  8
0
 62
     7
100
AcDbLine
 10
-73.0
 20
134.4999999999999
 30
0.0
 11
-85.0
 21
134.4999999999999
 31
0.0
  0
LINE
  5
14F
330
1E
100
AcDbEntity
  8
0
  6
CENTER
 62
     2
100
AcDbLine
 10
-33.5000005
 20
106.0
 30
0.0
 11
-13.5000005
 21
106.0
 31
0.0
  0
LINE
  5
150
330
1E
100
AcDbEntity
  8
0
 62
     7
100
AcDbLine
 10
-31.5000005
 20
110.0
 30
0.0
 11
-24.0000005
 21
110.0
 31
0.0
  0
LINE
  5
151
330
1E
100
AcDbEntity
  8
0
 62
     7
100
AcDbLine
 10
-31.5000005
 20
102.0
 30
0.0
 11
-24.0000005
 21
102.0
 31
0.0
  0
LINE
  5
152
330
1E
100
AcDbEntity
  8
0
 62
     2
100
AcDbLine
 10
-23.62500049999999
 20
109.6249999999999
 30
0.0
 11
-31.5000005
 21
109.6249999999999
 31
0.0
  0
LINE
  5
153
330
1E
100
AcDbEntity
  8
0
 62
     2
100
AcDbLine
 10
-31.5000005
 20
102.3749999999999
 30
0.0
 11
-23.62500049999999
 21
102.3749999999999
 31
0.0
  0
LINE
  5
154
330
1E
100
AcDbEntity
  8
0
 62
     7
100
AcDbLine
 10
-16.0000005
 20
109.4
 30
0.0
 11
-16.0000005
 21
102.6
 31
0.0
  0
LINE
  5
155
330
1E
100
AcDbEntity
  8
0
 62
     7
100
AcDbLine
 10
-15.5000005
 20
103.0999999999999
 30
0.0
 11
-16.0000005
 21
102.6
 31
0.0
  0
LINE
  5
156
330
1E
100
AcDbEntity
  8
0
 62
     7
100
AcDbLine
 10
-16.0000005
 20
109.4
 30
0.0
 11
-15.5000005
 21
108.9
 31
0.0
  0
LINE
  5
157
330
1E
100
AcDbEntity
  8
0
 62
     7
100
AcDbLine
 10
-20.50000049999999
 20
102.6
 30
0.0
 11
-16.0000005
 21
102.6
 31
0.0
  0
LINE
  5
158
330
1E
100
AcDbEntity
  8
0
 62
     7
100
AcDbLine
 10
-20.50000049999999
 20
109.4
 30
0.0
 11
-16.0000005
 21
109.4
 31
0.0
  0
LINE
  5
159
330
1E
100
AcDbEntity
  8
0
 62
     7
100
AcDbLine
 10
-15.5000005
 20
108.9
 30
0.0
 11
-15.5000005
 21
103.0999999999999
 31
0.0
  0
LINE
  5
15A
330
1E
100
AcDbEntity
  8
0
 62
     7
100
AcDbLine
 10
-20.50000049999999
 20
109.4999999999999
 30
0.0
 11
-20.50000049999999
 21
102.4999999999999
 31
0.0
  0
LINE
  5
15B
330
1E
100
AcDbEntity
  8
0
 62
     7
100
AcDbLine
 10
-21.00000049999999
 20
109.4999999999999
 30
0.0
 11
-21.00000049999999
 21
102.4999999999999
 31
0.0
  0
LINE
  5
15C
330
1E
100
AcDbEntity
  8
0
 62
     7
100
AcDbLine
 10
-23.50000049999999
 20
109.4999999999999
 30
0.0
 11
-20.50000049999999
 21
109.4999999999999
 31
0.0
  0
LINE
  5
15D
330
1E
100
AcDbEntity
  8
0
 62
     7
100
AcDbLine
 10
-23.50000049999999
 20
102.4999999999999
 30
0.0
 11
-20.50000049999999
 21
102.4999999999999
 31
0.0
  0
LINE
  5
15E
330
1E
100
AcDbEntity
  8
0
 62
     7
100
AcDbLine
 10
-23.50000049999999
 20
109.4999999999999
 30
0.0
 11
-24.0000005
 21
110.0
 31
0.0
  0
LINE
  5
15F
330
1E
100
AcDbEntity
  8
0
 62
     7
100
AcDbLine
 10
-23.50000049999999
 20
102.4999999999999
 30
0.0
 11
-24.0000005
 21
102.0
 31
0.0
  0
POLYLINE
  5
160
330
1E
100
AcDbEntity
  8
0
 62
     7
100
AcDb2dPolyline
 66
     1
 10
0.0
 20
0.0
 30
0.0
  0
VERTEX
  5
47B
330
160
100
AcDbEntity
  8
0
 62
     7
100
AcDbVertex
100
AcDb2dVertex
 10
-33.05340029999999
 20
101.0
 30
0.0
  0
VERTEX
  5
47C
330
160
100
AcDbEntity
  8
0
 62
     7
100
AcDbVertex
100
AcDb2dVertex
 10
-33.13511489999999
 20
101.240725
 30
0.0
  0
VERTEX
  5
47D
330
160
100
AcDbEntity
  8
0
 62
     7
100
AcDbVertex
100
AcDb2dVertex
 10
-33.20921529999999
 20
101.484379
 30
0.0
  0
VERTEX
  5
47E
330
160
100
AcDbEntity
  8
0
 62
     7
100
AcDbVertex
100
AcDb2dVertex
 10
-33.2754689
 20
101.730637
 30
0.0
  0
VERTEX
  5
47F
330
160
100
AcDbEntity
  8
0
 62
     7
100
AcDbVertex
100
AcDb2dVertex
 10
-33.3336431
 20
101.9791719999999
 30
0.0
  0
VERTEX
  5
480
330
160
100
AcDbEntity
  8
0
 62
     7
100
AcDbVertex
100
AcDb2dVertex
 10
-33.38350549999999
 20
102.2296599999999
 30
0.0
  0
VERTEX
  5
481
330
160
100
AcDbEntity
  8
0
 62
     7
100
AcDbVertex
100
AcDb2dVertex
 10
-33.4248234
 20
102.4817759999999
 30
0.0
  0
VERTEX
  5
482
330
160
100
AcDbEntity
  8
0
 62
     7
100
AcDbVertex
100
AcDb2dVertex
 10
-33.45736429999999
 20
102.735193
 30
0.0
  0
VERTEX
  5
483
330
160
100
AcDbEntity
  8
0
 62
     7
100
AcDbVertex
100
AcDb2dVertex
 10
-33.48089579999999
 20
102.989586
 30
0.0
  0
VERTEX
  5
484
330
160
100
AcDbEntity
  8
0
 62
     7
100
AcDbVertex
100
AcDb2dVertex
 10
-33.4951852
 20
103.2446299999999
 30
0.0
  0
VERTEX
  5
485
330
160
100
AcDbEntity
  8
0
 62
     7
100
AcDbVertex
100
AcDb2dVertex
 10
-33.5
 20
103.4999999999999
 30
0.0
  0
VERTEX
  5
486
330
160
100
AcDbEntity
  8
0
 62
     7
100
AcDbVertex
100
AcDb2dVertex
 10
-33.4951852
 20
103.7553699999999
 30
0.0
  0
VERTEX
  5
487
330
160
100
AcDbEntity
  8
0
 62
     7
100
AcDbVertex
100
AcDb2dVertex
 10
-33.48089579999999
 20
104.0104139999999
 30
0.0
  0
VERTEX
  5
488
330
160
100
AcDbEntity
  8
0
 62
     7
100
AcDbVertex
100
AcDb2dVertex
 10
-33.45736429999999
 20
104.2648069999999
 30
0.0
  0
VERTEX
  5
489
330
160
100
AcDbEntity
  8
0
 62
     7
100
AcDbVertex
100
AcDb2dVertex
 10
-33.4248234
 20
104.518224
 30
0.0
  0
VERTEX
  5
48A
330
160
100
AcDbEntity
  8
0
 62
     7
100
AcDbVertex
100
AcDb2dVertex
 10
-33.38350549999999
 20
104.77034
 30
0.0
  0
VERTEX
  5
48B
330
160
100
AcDbEntity
  8
0
 62
     7
100
AcDbVertex
100
AcDb2dVertex
 10
-33.3336431
 20
105.020828
 30
0.0
  0
VERTEX
  5
48C
330
160
100
AcDbEntity
  8
0
 62
     7
100
AcDbVertex
100
AcDb2dVertex
 10
-33.2754689
 20
105.2693629999999
 30
0.0
  0
VERTEX
  5
48D
330
160
100
AcDbEntity
  8
0
 62
     7
100
AcDbVertex
100
AcDb2dVertex
 10
-33.20921529999999
 20
105.515621
 30
0.0
  0
VERTEX
  5
48E
330
160
100
AcDbEntity
  8
0
 62
     7
100
AcDbVertex
100
AcDb2dVertex
 10
-33.13511489999999
 20
105.7592749999999
 30
0.0
  0
VERTEX
  5
48F
330
160
100
AcDbEntity
  8
0
 62
     7
100
AcDbVertex
100
AcDb2dVertex
 10
-33.05340029999999
 20
106.0
 30
0.0
  0
SEQEND
  5
490
330
160
100
AcDbEntity
  8
0
 62
     7
  0
POLYLINE
  5
177
330
1E
100
AcDbEntity
  8
0
 62
     7
100
AcDb2dPolyline
 66
     1
 10
0.0
 20
0.0
 30
0.0
  0
VERTEX
  5
491
330
177
100
AcDbEntity
  8
0
 62
     7
100
AcDbVertex
100
AcDb2dVertex
 10
-31.94659619999999
 20
101.0
 30
0.0
  0
VERTEX
  5
492
330
177
100
AcDbEntity
  8
0
 62
     7
100
AcDbVertex
100
AcDb2dVertex
 10
-31.8648822
 20
101.240725
 30
0.0
  0
VERTEX
  5
493
330
177
100
AcDbEntity
  8
0
 62
     7
100
AcDbVertex
100
AcDb2dVertex
 10
-31.7907823
 20
101.484379
 30
0.0
  0
VERTEX
  5
494
330
177
100
AcDbEntity
  8
0
 62
     7
100
AcDbVertex
100
AcDb2dVertex
 10
-31.7245293
 20
101.730637
 30
0.0
  0
VERTEX
  5
495
330
177
100
AcDbEntity
  8
0
 62
     7
100
AcDbVertex
100
AcDb2dVertex
 10
-31.6663555
 20
101.979173
 30
0.0
  0
VERTEX
  5
496
330
177
100
AcDbEntity
  8
0
 62
     7
100
AcDbVertex
100
AcDb2dVertex
 10
-31.6164936
 20
102.2296609999999
 30
0.0
  0
VERTEX
  5
497
330
177
100
AcDbEntity
  8
0
 62
     7
100
AcDbVertex
100
AcDb2dVertex
 10
-31.575176
 20
102.4817759999999
 30
0.0
  0
VERTEX
  5
498
330
177
100
AcDbEntity
  8
0
 62
     7
100
AcDbVertex
100
AcDb2dVertex
 10
-31.5426353
 20
102.735193
 30
0.0
  0
VERTEX
  5
499
330
177
100
AcDbEntity
  8
0
 62
     7
100
AcDbVertex
100
AcDb2dVertex
 10
-31.519104
 20
102.989586
 30
0.0
  0
VERTEX
  5
49A
330
177
100
AcDbEntity
  8
0
 62
     7
100
AcDbVertex
100
AcDb2dVertex
 10
-31.50481479999999
 20
103.2446299999999
 30
0.0
  0
VERTEX
  5
49B
330
177
100
AcDbEntity
  8
0
 62
     7
100
AcDbVertex
100
AcDb2dVertex
 10
-31.5
 20
103.4999999999999
 30
0.0
  0
VERTEX
  5
49C
330
177
100
AcDbEntity
  8
0
 62
     7
100
AcDbVertex
100
AcDb2dVertex
 10
-31.50481479999999
 20
103.7553699999999
 30
0.0
  0
VERTEX
  5
49D
330
177
100
AcDbEntity
  8
0
 62
     7
100
AcDbVertex
100
AcDb2dVertex
 10
-31.519104
 20
104.0104139999999
 30
0.0
  0
VERTEX
  5
49E
330
177
100
AcDbEntity
  8
0
 62
     7
100
AcDbVertex
100
AcDb2dVertex
 10
-31.5426353
 20
104.2648069999999
 30
0.0
  0
VERTEX
  5
49F
330
177
100
AcDbEntity
  8
0
 62
     7
100
AcDbVertex
100
AcDb2dVertex
 10
-31.575176
 20
104.518224
 30
0.0
  0
VERTEX
  5
4A0
330
177
100
AcDbEntity
  8
0
 62
     7
100
AcDbVertex
100
AcDb2dVertex
 10
-31.6164936
 20
104.770339
 30
0.0
  0
VERTEX
  5
4A1
330
177
100
AcDbEntity
  8
0
 62
     7
100
AcDbVertex
100
AcDb2dVertex
 10
-31.6663555
 20
105.0208269999999
 30
0.0
  0
VERTEX
  5
4A2
330
177
100
AcDbEntity
  8
0
 62
     7
100
AcDbVertex
100
AcDb2dVertex
 10
-31.7245293
 20
105.2693629999999
 30
0.0
  0
VERTEX
  5
4A3
330
177
100
AcDbEntity
  8
0
 62
     7
100
AcDbVertex
100
AcDb2dVertex
 10
-31.7907823
 20
105.515621
 30
0.0
  0
VERTEX
  5
4A4
330
177
100
AcDbEntity
  8
0
 62
     7
100
AcDbVertex
100
AcDb2dVertex
 10
-31.8648822
 20
105.7592749999999
 30
0.0
  0
VERTEX
  5
4A5
330
177
100
AcDbEntity
  8
0
 62
     7
100
AcDbVertex
100
AcDb2dVertex
 10
-31.94659619999999
 20
106.0
 30
0.0
  0
SEQEND
  5
4A6
330
177
100
AcDbEntity
  8
0
 62
     7
  0
POLYLINE
  5
18E
330
1E
100
AcDbEntity
  8
0
 62
     7
100
AcDb2dPolyline
 66
     1
 10
0.0
 20
0.0
 30
0.0
  0
VERTEX
  5
4A7
330
18E
100
AcDbEntity
  8
0
 62
     7
100
AcDbVertex
100
AcDb2dVertex
 10
-31.94659619999999
 20
106.0
 30
0.0
  0
VERTEX
  5
4A8
330
18E
100
AcDbEntity
  8
0
 62
     7
100
AcDbVertex
100
AcDb2dVertex
 10
-31.8648822
 20
106.2407249999999
 30
0.0
  0
VERTEX
  5
4A9
330
18E
100
AcDbEntity
  8
0
 62
     7
100
AcDbVertex
100
AcDb2dVertex
 10
-31.7907823
 20
106.484379
 30
0.0
  0
VERTEX
  5
4AA
330
18E
100
AcDbEntity
  8
0
 62
     7
100
AcDbVertex
100
AcDb2dVertex
 10
-31.7245293
 20
106.730637
 30
0.0
  0
VERTEX
  5
4AB
330
18E
100
AcDbEntity
  8
0
 62
     7
100
AcDbVertex
100
AcDb2dVertex
 10
-31.6663555
 20
106.979173
 30
0.0
  0
VERTEX
  5
4AC
330
18E
100
AcDbEntity
  8
0
 62
     7
100
AcDbVertex
100
AcDb2dVertex
 10
-31.6164936
 20
107.229661
 30
0.0
  0
VERTEX
  5
4AD
330
18E
100
AcDbEntity
  8
0
 62
     7
100
AcDbVertex
100
AcDb2dVertex
 10
-31.575176
 20
107.4817759999999
 30
0.0
  0
VERTEX
  5
4AE
330
18E
100
AcDbEntity
  8
0
 62
     7
100
AcDbVertex
100
AcDb2dVertex
 10
-31.5426353
 20
107.735193
 30
0.0
  0
VERTEX
  5
4AF
330
18E
100
AcDbEntity
  8
0
 62
     7
100
AcDbVertex
100
AcDb2dVertex
 10
-31.519104
 20
107.989586
 30
0.0
  0
VERTEX
  5
4B0
330
18E
100
AcDbEntity
  8
0
 62
     7
100
AcDbVertex
100
AcDb2dVertex
 10
-31.50481479999999
 20
108.2446299999999
 30
0.0
  0
VERTEX
  5
4B1
330
18E
100
AcDbEntity
  8
0
 62
     7
100
AcDbVertex
100
AcDb2dVertex
 10
-31.5
 20
108.4999999999999
 30
0.0
  0
VERTEX
  5
4B2
330
18E
100
AcDbEntity
  8
0
 62
     7
100
AcDbVertex
100
AcDb2dVertex
 10
-31.50481479999999
 20
108.7553699999999
 30
0.0
  0
VERTEX
  5
4B3
330
18E
100
AcDbEntity
  8
0
 62
     7
100
AcDbVertex
100
AcDb2dVertex
 10
-31.519104
 20
109.0104139999999
 30
0.0
  0
VERTEX
  5
4B4
330
18E
100
AcDbEntity
  8
0
 62
     7
100
AcDbVertex
100
AcDb2dVertex
 10
-31.5426353
 20
109.264807
 30
0.0
  0
VERTEX
  5
4B5
330
18E
100
AcDbEntity
  8
0
 62
     7
100
AcDbVertex
100
AcDb2dVertex
 10
-31.575176
 20
109.5182239999999
 30
0.0
  0
VERTEX
  5
4B6
330
18E
100
AcDbEntity
  8
0
 62
     7
100
AcDbVertex
100
AcDb2dVertex
 10
-31.6164936
 20
109.7703389999999
 30
0.0
  0
VERTEX
  5
4B7
330
18E
100
AcDbEntity
  8
0
 62
     7
100
AcDbVertex
100
AcDb2dVertex
 10
-31.6663555
 20
110.0208269999999
 30
0.0
  0
VERTEX
  5
4B8
330
18E
100
AcDbEntity
  8
0
 62
     7
100
AcDbVertex
100
AcDb2dVertex
 10
-31.7245293
 20
110.2693629999999
 30
0.0
  0
VERTEX
  5
4B9
330
18E
100
AcDbEntity
  8
0
 62
     7
100
AcDbVertex
100
AcDb2dVertex
 10
-31.7907823
 20
110.515621
 30
0.0
  0
VERTEX
  5
4BA
330
18E
100
AcDbEntity
  8
0
 62
     7
100
AcDbVertex
100
AcDb2dVertex
 10
-31.8648822
 20
110.759275
 30
0.0
  0
VERTEX
  5
4BB
330
18E
100
AcDbEntity
  8
0
 62
     7
100
AcDbVertex
100
AcDb2dVertex
 10
-31.94659619999999
 20
111.0
 30
0.0
  0
SEQEND
  5
4BC
330
18E
100
AcDbEntity
  8
0
 62
     7
  0
POLYLINE
  5
1A5
330
1E
100
AcDbEntity
  8
0
 62
     7
100
AcDb2dPolyline
 66
     1
 10
0.0
 20
0.0
 30
0.0
  0
VERTEX
  5
4BD
330
1A5
100
AcDbEntity
  8
0
 62
     7
100
AcDbVertex
100
AcDb2dVertex
 10
-33.05340029999999
 20
106.0
 30
0.0
  0
VERTEX
  5
4BE
330
1A5
100
AcDbEntity
  8
0
 62
     7
100
AcDbVertex
100
AcDb2dVertex
 10
-33.13511489999999
 20
106.2407249999999
 30
0.0
  0
VERTEX
  5
4BF
330
1A5
100
AcDbEntity
  8
0
 62
     7
100
AcDbVertex
100
AcDb2dVertex
 10
-33.20921529999999
 20
106.484379
 30
0.0
  0
VERTEX
  5
4C0
330
1A5
100
AcDbEntity
  8
0
 62
     7
100
AcDbVertex
100
AcDb2dVertex
 10
-33.2754689
 20
106.730637
 30
0.0
  0
VERTEX
  5
4C1
330
1A5
100
AcDbEntity
  8
0
 62
     7
100
AcDbVertex
100
AcDb2dVertex
 10
-33.3336431
 20
106.979172
 30
0.0
  0
VERTEX
  5
4C2
330
1A5
100
AcDbEntity
  8
0
 62
     7
100
AcDbVertex
100
AcDb2dVertex
 10
-33.38350549999999
 20
107.22966
 30
0.0
  0
VERTEX
  5
4C3
330
1A5
100
AcDbEntity
  8
0
 62
     7
100
AcDbVertex
100
AcDb2dVertex
 10
-33.4248234
 20
107.4817759999999
 30
0.0
  0
VERTEX
  5
4C4
330
1A5
100
AcDbEntity
  8
0
 62
     7
100
AcDbVertex
100
AcDb2dVertex
 10
-33.45736429999999
 20
107.735193
 30
0.0
  0
VERTEX
  5
4C5
330
1A5
100
AcDbEntity
  8
0
 62
     7
100
AcDbVertex
100
AcDb2dVertex
 10
-33.48089579999999
 20
107.989586
 30
0.0
  0
VERTEX
  5
4C6
330
1A5
100
AcDbEntity
  8
0
 62
     7
100
AcDbVertex
100
AcDb2dVertex
 10
-33.4951852
 20
108.2446299999999
 30
0.0
  0
VERTEX
  5
4C7
330
1A5
100
AcDbEntity
  8
0
 62
     7
100
AcDbVertex
100
AcDb2dVertex
 10
-33.5
 20
108.4999999999999
 30
0.0
  0
VERTEX
  5
4C8
330
1A5
100
AcDbEntity
  8
0
 62
     7
100
AcDbVertex
100
AcDb2dVertex
 10
-33.4951852
 20
108.7553699999999
 30
0.0
  0
VERTEX
  5
4C9
330
1A5
100
AcDbEntity
  8
0
 62
     7
100
AcDbVertex
100
AcDb2dVertex
 10
-33.48089579999999
 20
109.0104139999999
 30
0.0
  0
VERTEX
  5
4CA
330
1A5
100
AcDbEntity
  8
0
 62
     7
100
AcDbVertex
100
AcDb2dVertex
 10
-33.45736429999999
 20
109.264807
 30
0.0
  0
VERTEX
  5
4CB
330
1A5
100
AcDbEntity
  8
0
 62
     7
100
AcDbVertex
100
AcDb2dVertex
 10
-33.4248234
 20
109.5182239999999
 30
0.0
  0
VERTEX
  5
4CC
330
1A5
100
AcDbEntity
  8
0
 62
     7
100
AcDbVertex
100
AcDb2dVertex
 10
-33.38350549999999
 20
109.7703399999999
 30
0.0
  0
VERTEX
  5
4CD
330
1A5
100
AcDbEntity
  8
0
 62
     7
100
AcDbVertex
100
AcDb2dVertex
 10
-33.3336431
 20
110.020828
 30
0.0
  0
VERTEX
  5
4CE
330
1A5
100
AcDbEntity
  8
0
 62
     7
100
AcDbVertex
100
AcDb2dVertex
 10
-33.2754689
 20
110.2693629999999
 30
0.0
  0
VERTEX
  5
4CF
330
1A5
100
AcDbEntity
  8
0
 62
     7
100
AcDbVertex
100
AcDb2dVertex
 10
-33.20921529999999
 20
110.515621
 30
0.0
  0
VERTEX
  5
4D0
330
1A5
100
AcDbEntity
  8
0
 62
     7
100
AcDbVertex
100
AcDb2dVertex
 10
-33.13511489999999
 20
110.759275
 30
0.0
  0
VERTEX
  5
4D1
330
1A5
100
AcDbEntity
  8
0
 62
     7
100
AcDbVertex
100
AcDb2dVertex
 10
-33.05340029999999
 20
111.0
 30
0.0
  0
SEQEND
  5
4D2
330
1A5
100
AcDbEntity
  8
0
 62
     7
  0
LINE
  5
1BC
330
1E
100
AcDbEntity
  8
0
 62
     7
100
AcDbLine
 10
-73.0
 20
-134.4999999999999
 30
0.0
 11
-85.0
 21
-134.4999999999999
 31
0.0
  0
LINE
  5
1BD
330
1E
100
AcDbEntity
  8
0
 62
     7
100
AcDbLine
 10
-73.0
 20
-134.4999999999999
 30
0.0
 11
-72.8
 21
-134.3
 31
0.0
  0
LINE
  5
1BE
330
1E
100
AcDbEntity
  8
0
 62
     7
100
AcDbLine
 10
-47.2
 20
-134.3
 30
0.0
 11
-72.8
 21
-134.3
 31
0.0
  0
LINE
  5
1BF
330
1E
100
AcDbEntity
  8
0
 62
     7
100
AcDbLine
 10
-47.0
 20
-134.4999999999999
 30
0.0
 11
-47.2
 21
-134.3
 31
0.0
  0
LINE
  5
1C0
330
1E
100
AcDbEntity
  8
0
 62
     7
100
AcDbLine
 10
-84.50000000000001
 20
-98.50000000000001
 30
0.0
 11
-84.50000000000001
 21
-94.50000379999998
 31
0.0
  0
LINE
  5
1C1
330
1E
100
AcDbEntity
  8
0
 62
     7
100
AcDbLine
 10
-35.5
 20
-98.50000000000001
 30
0.0
 11
-35.5
 21
-94.50000379999998
 31
0.0
  0
LINE
  5
1C2
330
1E
100
AcDbEntity
  8
0
 62
     7
100
AcDbLine
 10
-84.50000000000001
 20
-98.50000000000001
 30
0.0
 11
-35.5
 21
-98.50000000000001
 31
0.0
  0
LINE
  5
1C3
330
1E
100
AcDbEntity
  8
0
 62
     7
100
AcDbLine
 10
-85.0
 20
-99.50000000000001
 30
0.0
 11
-33.5
 21
-99.50000000000001
 31
0.0
  0
LINE
  5
1C4
330
1E
100
AcDbEntity
  8
0
 62
     7
100
AcDbLine
 10
-85.0
 20
-134.4999999999999
 30
0.0
 11
-86.5
 21
-133.0
 31
0.0
  0
LINE
  5
1C5
330
1E
100
AcDbEntity
  8
0
 62
     7
100
AcDbLine
 10
-33.5
 20
-133.0
 30
0.0
 11
-35.0
 21
-134.4999999999999
 31
0.0
  0
LINE
  5
1C6
330
1E
100
AcDbEntity
  8
0
 62
     7
100
AcDbLine
 10
-33.5
 20
-108.0
 30
0.0
 11
-35.0
 21
-106.4999999999999
 31
0.0
  0
LINE
  5
1C7
330
1E
100
AcDbEntity
  8
0
 62
     7
100
AcDbLine
 10
-85.0
 20
-106.4999999999999
 30
0.0
 11
-86.5
 21
-108.0
 31
0.0
  0
LINE
  5
1C8
330
1E
100
AcDbEntity
  8
0
 62
     7
100
AcDbLine
 10
-85.0
 20
-106.4999999999999
 30
0.0
 11
-85.0
 21
-99.50000000000001
 31
0.0
  0
LINE
  5
1C9
330
1E
100
AcDbEntity
  8
0
 62
     7
100
AcDbLine
 10
-31.5
 20
-111.0
 30
0.0
 11
-31.5
 21
-101.0
 31
0.0
  0
LINE
  5
1CA
330
1E
100
AcDbEntity
  8
0
 62
     7
100
AcDbLine
 10
-86.5
 20
-114.0
 30
0.0
 11
-86.5
 21
-108.0
 31
0.0
  0
LINE
  5
1CB
330
1E
100
AcDbEntity
  8
0
 62
     7
100
AcDbLine
 10
-33.5
 20
-133.0
 30
0.0
 11
-33.5
 21
-99.50000000000001
 31
0.0
  0
LINE
  5
1CC
330
1E
100
AcDbEntity
  8
0
 62
     7
100
AcDbLine
 10
-86.5
 20
-133.0
 30
0.0
 11
-86.5
 21
-126.0
 31
0.0
  0
LINE
  5
1CD
330
1E
100
AcDbEntity
  8
0
 62
     7
100
AcDbLine
 10
-83.47499969999999
 20
-126.075
 30
0.0
 11
-85.0999997
 21
-126.075
 31
0.0
  0
LINE
  5
1CE
330
1E
100
AcDbEntity
  8
0
 62
     7
100
AcDbLine
 10
-85.79999970000001
 20
-122.3999999999999
 30
0.0
 11
-85.5749997
 21
-122.3999999999999
 31
0.0
  0
LINE
  5
1CF
330
1E
100
AcDbEntity
  8
0
 62
     7
100
AcDbLine
 10
-86.0999997
 20
-125.6
 30
0.0
 11
-85.5749997
 21
-125.6
 31
0.0
  0
LINE
  5
1D0
330
1E
100
AcDbEntity
  8
0
 62
     7
100
AcDbLine
 10
-83.47499969999999
 20
-121.9249999999999
 30
0.0
 11
-85.0999997
 21
-121.9249999999999
 31
0.0
  0
LINE
  5
1D1
330
1E
100
AcDbEntity
  8
0
 62
     7
100
AcDbLine
 10
-85.0999997
 20
-121.9249999999999
 30
0.0
 11
-85.5749997
 21
-122.3999999999999
 31
0.0
  0
ARC
  5
1D2
330
1E
100
AcDbEntity
  8
0
 62
     7
100
AcDbCircle
 10
-85.79999970000001
 20
-122.0999999999999
 30
0.0
 40
0.3
100
AcDbArc
 50
180.0
 51
270.0
  0
ARC
  5
1D3
330
1E
100
AcDbEntity
  8
0
 62
     7
100
AcDbCircle
 10
-83.47499969999999
 20
-124.0
 30
0.0
 40
2.075
100
AcDbArc
 50
270.0
 51
90.00000020000001
  0
LINE
  5
1D4
330
1E
100
AcDbEntity
  8
0
 62
     7
100
AcDbLine
 10
-85.0999997
 20
-126.075
 30
0.0
 11
-85.5749997
 21
-125.6
 31
0.0
  0
LINE
  5
1D5
330
1E
100
AcDbEntity
  8
0
  6
CENTER
 62
     2
100
AcDbLine
 10
-80.95298690000001
 20
-124.0
 30
0.0
 11
-88.4999997
 21
-124.0
 31
0.0
  0
LINE
  5
1D6
330
1E
100
AcDbEntity
  8
0
 62
     7
100
AcDbLine
 10
-86.0999997
 20
-125.6
 30
0.0
 11
-86.49999970000001
 21
-126.0
 31
0.0
  0
ARC
  5
1D7
330
1E
100
AcDbEntity
  8
0
 62
     7
100
AcDbCircle
 10
-85.79999970000001
 20
-117.9
 30
0.0
 40
0.3
100
AcDbArc
 50
90.00000020000001
 51
180.0
  0
LINE
  5
1D8
330
1E
100
AcDbEntity
  8
0
 62
     7
100
AcDbLine
 10
-86.0999997
 20
-117.9
 30
0.0
 11
-86.0999997
 21
-122.0999999999999
 31
0.0
  0
ARC
  5
1D9
330
1E
100
AcDbEntity
  8
0
 62
     7
100
AcDbCircle
 10
-83.47499969999999
 20
-116.0
 30
0.0
 40
2.075
100
AcDbArc
 50
270.0
 51
90.00000020000001
  0
LINE
  5
1DA
330
1E
100
AcDbEntity
  8
0
 62
     7
100
AcDbLine
 10
-85.0999997
 20
-118.0749999999999
 30
0.0
 11
-85.5749997
 21
-117.5999999999999
 31
0.0
  0
LINE
  5
1DB
330
1E
100
AcDbEntity
  8
0
 62
     7
100
AcDbLine
 10
-85.0999997
 20
-113.925
 30
0.0
 11
-85.5749997
 21
-114.4
 31
0.0
  0
LINE
  5
1DC
330
1E
100
AcDbEntity
  8
0
 62
     7
100
AcDbLine
 10
-83.47499969999999
 20
-113.925
 30
0.0
 11
-85.0999997
 21
-113.925
 31
0.0
  0
LINE
  5
1DD
330
1E
100
AcDbEntity
  8
0
 62
     7
100
AcDbLine
 10
-83.47499969999999
 20
-118.0749999999999
 30
0.0
 11
-85.0999997
 21
-118.0749999999999
 31
0.0
  0
LINE
  5
1DE
330
1E
100
AcDbEntity
  8
0
  6
CENTER
 62
     2
100
AcDbLine
 10
-80.95298690000001
 20
-116.0
 30
0.0
 11
-88.4999997
 21
-116.0
 31
0.0
  0
LINE
  5
1DF
330
1E
100
AcDbEntity
  8
0
 62
     7
100
AcDbLine
 10
-86.0999997
 20
-114.4
 30
0.0
 11
-86.49999970000001
 21
-114.0
 31
0.0
  0
LINE
  5
1E0
330
1E
100
AcDbEntity
  8
0
 62
     7
100
AcDbLine
 10
-86.0999997
 20
-114.4
 30
0.0
 11
-85.5749997
 21
-114.4
 31
0.0
  0
LINE
  5
1E1
330
1E
100
AcDbEntity
  8
0
 62
     7
100
AcDbLine
 10
-85.79999970000001
 20
-117.5999999999999
 30
0.0
 11
-85.5749997
 21
-117.5999999999999
 31
0.0
  0
LINE
  5
1E2
330
1E
100
AcDbEntity
  8
0
 62
     7
100
AcDbLine
 10
-35.0
 20
-134.4999999999999
 30
0.0
 11
-47.0
 21
-134.4999999999999
 31
0.0
  0
LINE
  5
1E3
330
1E
100
AcDbEntity
  8
0
 62
     7
100
AcDbLine
 10
-84.50000000000001
 20
-94.50000000000001
 30
0.0
 11
-35.5
 21
-94.50000000000001
 31
0.0
  0
LINE
  5
1E4
330
1E
100
AcDbEntity
  8
0
 62
     7
100
AcDbLine
 10
-35.0
 20
-106.4999999999999
 30
0.0
 11
-85.0
 21
-106.4999999999999
 31
0.0
  0
LINE
  5
1E5
330
1E
100
AcDbEntity
  8
0
  6
CENTER
 62
     2
100
AcDbLine
 10
-60.0
 20
-138.5
 30
0.0
 11
-60.0
 21
-90.5
 31
0.0
  0
LINE
  5
1E6
330
1E
100
AcDbEntity
  8
0
  6
CENTER
 62
     2
100
AcDbLine
 10
-72.0
 20
-130.4999999999999
 30
0.0
 11
-72.0
 21
-109.4999999999999
 31
0.0
  0
LINE
  5
1E7
330
1E
100
AcDbEntity
  8
0
  6
CENTER
 62
     2
100
AcDbLine
 10
-37.5000305
 20
-120.0
 30
0.0
 11
-82.5
 21
-120.0
 31
0.0
  0
LINE
  5
1E8
330
1E
100
AcDbEntity
  8
0
  6
CENTER
 62
     2
100
AcDbLine
 10
-48.0
 20
-130.4999999999999
 30
0.0
 11
-48.0
 21
-109.4999999999999
 31
0.0
  0
LINE
  5
1E9
330
1E
100
AcDbEntity
  8
0
 62
     7
100
AcDbLine
 10
-82.5
 20
-99.50000000000001
 30
0.0
 11
-82.5
 21
-98.50000000000001
 31
0.0
  0
LINE
  5
1EA
330
1E
100
AcDbEntity
  8
0
 62
     7
100
AcDbLine
 10
-37.5
 20
-99.50000000000001
 30
0.0
 11
-37.5
 21
-98.50000000000001
 31
0.0
  0
LINE
  5
1EB
330
1E
100
AcDbEntity
  8
0
 62
     7
100
AcDbLine
 10
-33.5
 20
-101.0
 30
0.0
 11
-31.5
 21
-101.0
 31
0.0
  0
LINE
  5
1EC
330
1E
100
AcDbEntity
  8
0
 62
     7
100
AcDbLine
 10
-33.4999776
 20
-111.0
 30
0.0
 11
-31.5
 21
-111.0
 31
0.0
  0
LINE
  5
1ED
330
1E
100
AcDbEntity
  8
0
 62
     7
100
AcDbLine
 10
-33.05340029999999
 20
-106.0
 30
0.0
 11
-31.94659619999999
 21
-106.0
 31
0.0
  0
ARC
  5
1EE
330
1E
100
AcDbEntity
  8
0
 62
     7
100
AcDbCircle
 10
-74.0733185
 20
-127.7377399999999
 30
0.0
 40
1.0
100
AcDbArc
 50
318.7793849999999
 51
160.278981
  0
ARC
  5
1EF
330
1E
100
AcDbEntity
  8
0
 62
     7
100
AcDbCircle
 10
-69.9266815
 20
-127.7377399999999
 30
0.0
 40
1.0
100
AcDbArc
 50
19.7210511
 51
221.220702
  0
CIRCLE
  5
1F0
330
1E
100
AcDbEntity
  8
0
 62
     7
100
AcDbCircle
 10
-72.0
 20
-120.0
 30
0.0
 40
8.5
  0
ARC
  5
1F1
330
1E
100
AcDbEntity
  8
0
 62
     7
100
AcDbCircle
 10
-72.0
 20
-120.4722209999999
 30
0.0
 40
7.555555339999999
100
AcDbArc
 50
293.09357
 51
246.9065029999999
  0
CIRCLE
  5
1F2
330
1E
100
AcDbEntity
  8
0
 62
     7
100
AcDbCircle
 10
-69.9266815
 20
-127.7377399999999
 30
0.0
 40
0.472222209
  0
CIRCLE
  5
1F3
330
1E
100
AcDbEntity
  8
0
 62
     7
100
AcDbCircle
 10
-74.0733185
 20
-127.7377399999999
 30
0.0
 40
0.472222209
  0
ARC
  5
1F4
330
1E
100
AcDbEntity
  8
0
 62
     7
100
AcDbCircle
 10
-45.926712
 20
-127.7377399999999
 30
0.0
 40
1.0
100
AcDbArc
 50
19.7209828
 51
221.220579
  0
ARC
  5
1F5
330
1E
100
AcDbEntity
  8
0
 62
     7
100
AcDbCircle
 10
-50.073349
 20
-127.7377399999999
 30
0.0
 40
1.0
100
AcDbArc
 50
318.779262
 51
160.2789129999999
  0
CIRCLE
  5
1F6
330
1E
100
AcDbEntity
  8
0
 62
     7
100
AcDbCircle
 10
-48.0000305
 20
-120.0
 30
0.0
 40
8.5
  0
ARC
  5
1F7
330
1E
100
AcDbEntity
  8
0
 62
     7
100
AcDbCircle
 10
-48.0000305
 20
-120.4722209999999
 30
0.0
 40
7.555555339999999
100
AcDbArc
 50
293.093462
 51
246.906393
  0
CIRCLE
  5
1F8
330
1E
100
AcDbEntity
  8
0
 62
     7
100
AcDbCircle
 10
-50.073349
 20
-127.7377399999999
 30
0.0
 40
0.472222209
  0
CIRCLE
  5
1F9
330
1E
100
AcDbEntity
  8
0
 62
     7
100
AcDbCircle
 10
-45.926712
 20
-127.7377399999999
 30
0.0
 40
0.472222209
  0
LINE
  5
1FA
330
1E
100
AcDbEntity
  8
0
  6
CENTER
 62
     2
100
AcDbLine
 10
-33.5000005
 20
-106.0
 30
0.0
 11
-13.5000005
 21
-106.0
 31
0.0
  0
LINE
  5
1FB
330
1E
100
AcDbEntity
  8
0
 62
     7
100
AcDbLine
 10
-31.5000005
 20
-102.0
 30
0.0
 11
-24.0000005
 21
-102.0
 31
0.0
  0
LINE
  5
1FC
330
1E
100
AcDbEntity
  8
0
 62
     7
100
AcDbLine
 10
-31.5000005
 20
-110.0
 30
0.0
 11
-24.0000005
 21
-110.0
 31
0.0
  0
LINE
  5
1FD
330
1E
100
AcDbEntity
  8
0
 62
     2
100
AcDbLine
 10
-23.62500049999999
 20
-102.3749999999999
 30
0.0
 11
-31.5000005
 21
-102.3749999999999
 31
0.0
  0
LINE
  5
1FE
330
1E
100
AcDbEntity
  8
0
 62
     2
100
AcDbLine
 10
-31.5000005
 20
-109.6249999999999
 30
0.0
 11
-23.62500049999999
 21
-109.6249999999999
 31
0.0
  0
LINE
  5
1FF
330
1E
100
AcDbEntity
  8
0
 62
     7
100
AcDbLine
 10
-16.0000005
 20
-102.6
 30
0.0
 11
-16.0000005
 21
-109.4
 31
0.0
  0
LINE
  5
200
330
1E
100
AcDbEntity
  8
0
 62
     7
100
AcDbLine
 10
-15.5000005
 20
-108.9
 30
0.0
 11
-16.0000005
 21
-109.4
 31
0.0
  0
LINE
  5
201
330
1E
100
AcDbEntity
  8
0
 62
     7
100
AcDbLine
 10
-16.0000005
 20
-102.6
 30
0.0
 11
-15.5000005
 21
-103.0999999999999
 31
0.0
  0
LINE
  5
202
330
1E
100
AcDbEntity
  8
0
 62
     7
100
AcDbLine
 10
-20.50000049999999
 20
-109.4
 30
0.0
 11
-16.0000005
 21
-109.4
 31
0.0
  0
LINE
  5
203
330
1E
100
AcDbEntity
  8
0
 62
     7
100
AcDbLine
 10
-20.50000049999999
 20
-102.6
 30
0.0
 11
-16.0000005
 21
-102.6
 31
0.0
  0
LINE
  5
204
330
1E
100
AcDbEntity
  8
0
 62
     7
100
AcDbLine
 10
-15.5000005
 20
-103.0999999999999
 30
0.0
 11
-15.5000005
 21
-108.9
 31
0.0
  0
LINE
  5
205
330
1E
100
AcDbEntity
  8
0
 62
     7
100
AcDbLine
 10
-20.50000049999999
 20
-102.4999999999999
 30
0.0
 11
-20.50000049999999
 21
-109.4999999999999
 31
0.0
  0
LINE
  5
206
330
1E
100
AcDbEntity
  8
0
 62
     7
100
AcDbLine
 10
-21.00000049999999
 20
-102.4999999999999
 30
0.0
 11
-21.00000049999999
 21
-109.4999999999999
 31
0.0
  0
LINE
  5
207
330
1E
100
AcDbEntity
  8
0
 62
     7
100
AcDbLine
 10
-23.50000049999999
 20
-102.4999999999999
 30
0.0
 11
-20.50000049999999
 21
-102.4999999999999
 31
0.0
  0
LINE
  5
208
330
1E
100
AcDbEntity
  8
0
 62
     7
100
AcDbLine
 10
-23.50000049999999
 20
-109.4999999999999
 30
0.0
 11
-20.50000049999999
 21
-109.4999999999999
 31
0.0
  0
LINE
  5
209
330
1E
100
AcDbEntity
  8
0
 62
     7
100
AcDbLine
 10
-23.50000049999999
 20
-102.4999999999999
 30
0.0
 11
-24.0000005
 21
-102.0
 31
0.0
  0
LINE
  5
20A
330
1E
100
AcDbEntity
  8
0
 62
     7
100
AcDbLine
 10
-23.50000049999999
 20
-109.4999999999999
 30
0.0
 11
-24.0000005
 21
-110.0
 31
0.0
  0
LINE
  5
20B
330
1E
100
AcDbEntity
  8
0
 62
     7
100
AcDbLine
 10
-25.5
 20
-109.999979
 30
0.0
 11
-25.5
 21
-101.999979
 31
0.0
  0
LINE
  5
20C
330
1E
100
AcDbEntity
  8
0
 62
     7
100
AcDbLine
 10
-25.0
 20
-109.499979
 30
0.0
 11
-25.0
 21
-102.499979
 31
0.0
  0
LINE
  5
20D
330
1E
100
AcDbEntity
  8
0
 62
     7
100
AcDbLine
 10
-25.5
 20
-109.999979
 30
0.0
 11
-25.0
 21
-109.499979
 31
0.0
  0
LINE
  5
20E
330
1E
100
AcDbEntity
  8
0
 62
     7
100
AcDbLine
 10
-25.5
 20
-101.999979
 30
0.0
 11
-25.0
 21
-102.499979
 31
0.0
  0
POLYLINE
  5
20F
330
1E
100
AcDbEntity
  8
0
 62
     7
100
AcDb2dPolyline
 66
     1
 10
0.0
 20
0.0
 30
0.0
  0
VERTEX
  5
4D3
330
20F
100
AcDbEntity
  8
0
 62
     7
100
AcDbVertex
100
AcDb2dVertex
 10
-33.05340029999999
 20
-106.0
 30
0.0
  0
VERTEX
  5
4D4
330
20F
100
AcDbEntity
  8
0
 62
     7
100
AcDbVertex
100
AcDb2dVertex
 10
-33.13511489999999
 20
-106.2407249999999
 30
0.0
  0
VERTEX
  5
4D5
330
20F
100
AcDbEntity
  8
0
 62
     7
100
AcDbVertex
100
AcDb2dVertex
 10
-33.20921529999999
 20
-106.484379
 30
0.0
  0
VERTEX
  5
4D6
330
20F
100
AcDbEntity
  8
0
 62
     7
100
AcDbVertex
100
AcDb2dVertex
 10
-33.2754689
 20
-106.730637
 30
0.0
  0
VERTEX
  5
4D7
330
20F
100
AcDbEntity
  8
0
 62
     7
100
AcDbVertex
100
AcDb2dVertex
 10
-33.3336431
 20
-106.979172
 30
0.0
  0
VERTEX
  5
4D8
330
20F
100
AcDbEntity
  8
0
 62
     7
100
AcDbVertex
100
AcDb2dVertex
 10
-33.38350549999999
 20
-107.22966
 30
0.0
  0
VERTEX
  5
4D9
330
20F
100
AcDbEntity
  8
0
 62
     7
100
AcDbVertex
100
AcDb2dVertex
 10
-33.4248234
 20
-107.4817759999999
 30
0.0
  0
VERTEX
  5
4DA
330
20F
100
AcDbEntity
  8
0
 62
     7
100
AcDbVertex
100
AcDb2dVertex
 10
-33.45736429999999
 20
-107.735193
 30
0.0
  0
VERTEX
  5
4DB
330
20F
100
AcDbEntity
  8
0
 62
     7
100
AcDbVertex
100
AcDb2dVertex
 10
-33.48089579999999
 20
-107.989586
 30
0.0
  0
VERTEX
  5
4DC
330
20F
100
AcDbEntity
  8
0
 62
     7
100
AcDbVertex
100
AcDb2dVertex
 10
-33.4951852
 20
-108.2446299999999
 30
0.0
  0
VERTEX
  5
4DD
330
20F
100
AcDbEntity
  8
0
 62
     7
100
AcDbVertex
100
AcDb2dVertex
 10
-33.5
 20
-108.4999999999999
 30
0.0
  0
VERTEX
  5
4DE
330
20F
100
AcDbEntity
  8
0
 62
     7
100
AcDbVertex
100
AcDb2dVertex
 10
-33.4951852
 20
-108.7553699999999
 30
0.0
  0
VERTEX
  5
4DF
330
20F
100
AcDbEntity
  8
0
 62
     7
100
AcDbVertex
100
AcDb2dVertex
 10
-33.48089579999999
 20
-109.0104139999999
 30
0.0
  0
VERTEX
  5
4E0
330
20F
100
AcDbEntity
  8
0
 62
     7
100
AcDbVertex
100
AcDb2dVertex
 10
-33.45736429999999
 20
-109.264807
 30
0.0
  0
VERTEX
  5
4E1
330
20F
100
AcDbEntity
  8
0
 62
     7
100
AcDbVertex
100
AcDb2dVertex
 10
-33.4248234
 20
-109.5182239999999
 30
0.0
  0
VERTEX
  5
4E2
330
20F
100
AcDbEntity
  8
0
 62
     7
100
AcDbVertex
100
AcDb2dVertex
 10
-33.38350549999999
 20
-109.7703399999999
 30
0.0
  0
VERTEX
  5
4E3
330
20F
100
AcDbEntity
  8
0
 62
     7
100
AcDbVertex
100
AcDb2dVertex
 10
-33.3336431
 20
-110.020828
 30
0.0
  0
VERTEX
  5
4E4
330
20F
100
AcDbEntity
  8
0
 62
     7
100
AcDbVertex
100
AcDb2dVertex
 10
-33.2754689
 20
-110.2693629999999
 30
0.0
  0
VERTEX
  5
4E5
330
20F
100
AcDbEntity
  8
0
 62
     7
100
AcDbVertex
100
AcDb2dVertex
 10
-33.20921529999999
 20
-110.515621
 30
0.0
  0
VERTEX
  5
4E6
330
20F
100
AcDbEntity
  8
0
 62
     7
100
AcDbVertex
100
AcDb2dVertex
 10
-33.13511489999999
 20
-110.759275
 30
0.0
  0
VERTEX
  5
4E7
330
20F
100
AcDbEntity
  8
0
 62
     7
100
AcDbVertex
100
AcDb2dVertex
 10
-33.05340029999999
 20
-111.0
 30
0.0
  0
SEQEND
  5
4E8
330
20F
100
AcDbEntity
  8
0
 62
     7
  0
POLYLINE
  5
226
330
1E
100
AcDbEntity
  8
0
 62
     7
100
AcDb2dPolyline
 66
     1
 10
0.0
 20
0.0
 30
0.0
  0
VERTEX
  5
4E9
330
226
100
AcDbEntity
  8
0
 62
     7
100
AcDbVertex
100
AcDb2dVertex
 10
-31.94659619999999
 20
-106.0
 30
0.0
  0
VERTEX
  5
4EA
330
226
100
AcDbEntity
  8
0
 62
     7
100
AcDbVertex
100
AcDb2dVertex
 10
-31.8648822
 20
-106.2407249999999
 30
0.0
  0
VERTEX
  5
4EB
330
226
100
AcDbEntity
  8
0
 62
     7
100
AcDbVertex
100
AcDb2dVertex
 10
-31.7907823
 20
-106.484379
 30
0.0
  0
VERTEX
  5
4EC
330
226
100
AcDbEntity
  8
0
 62
     7
100
AcDbVertex
100
AcDb2dVertex
 10
-31.7245293
 20
-106.730637
 30
0.0
  0
VERTEX
  5
4ED
330
226
100
AcDbEntity
  8
0
 62
     7
100
AcDbVertex
100
AcDb2dVertex
 10
-31.6663555
 20
-106.979173
 30
0.0
  0
VERTEX
  5
4EE
330
226
100
AcDbEntity
  8
0
 62
     7
100
AcDbVertex
100
AcDb2dVertex
 10
-31.6164936
 20
-107.229661
 30
0.0
  0
VERTEX
  5
4EF
330
226
100
AcDbEntity
  8
0
 62
     7
100
AcDbVertex
100
AcDb2dVertex
 10
-31.575176
 20
-107.4817759999999
 30
0.0
  0
VERTEX
  5
4F0
330
226
100
AcDbEntity
  8
0
 62
     7
100
AcDbVertex
100
AcDb2dVertex
 10
-31.5426353
 20
-107.735193
 30
0.0
  0
VERTEX
  5
4F1
330
226
100
AcDbEntity
  8
0
 62
     7
100
AcDbVertex
100
AcDb2dVertex
 10
-31.519104
 20
-107.989586
 30
0.0
  0
VERTEX
  5
4F2
330
226
100
AcDbEntity
  8
0
 62
     7
100
AcDbVertex
100
AcDb2dVertex
 10
-31.50481479999999
 20
-108.2446299999999
 30
0.0
  0
VERTEX
  5
4F3
330
226
100
AcDbEntity
  8
0
 62
     7
100
AcDbVertex
100
AcDb2dVertex
 10
-31.5
 20
-108.4999999999999
 30
0.0
  0
VERTEX
  5
4F4
330
226
100
AcDbEntity
  8
0
 62
     7
100
AcDbVertex
100
AcDb2dVertex
 10
-31.50481479999999
 20
-108.7553699999999
 30
0.0
  0
VERTEX
  5
4F5
330
226
100
AcDbEntity
  8
0
 62
     7
100
AcDbVertex
100
AcDb2dVertex
 10
-31.519104
 20
-109.0104139999999
 30
0.0
  0
VERTEX
  5
4F6
330
226
100
AcDbEntity
  8
0
 62
     7
100
AcDbVertex
100
AcDb2dVertex
 10
-31.5426353
 20
-109.264807
 30
0.0
  0
VERTEX
  5
4F7
330
226
100
AcDbEntity
  8
0
 62
     7
100
AcDbVertex
100
AcDb2dVertex
 10
-31.575176
 20
-109.5182239999999
 30
0.0
  0
VERTEX
  5
4F8
330
226
100
AcDbEntity
  8
0
 62
     7
100
AcDbVertex
100
AcDb2dVertex
 10
-31.6164936
 20
-109.7703389999999
 30
0.0
  0
VERTEX
  5
4F9
330
226
100
AcDbEntity
  8
0
 62
     7
100
AcDbVertex
100
AcDb2dVertex
 10
-31.6663555
 20
-110.0208269999999
 30
0.0
  0
VERTEX
  5
4FA
330
226
100
AcDbEntity
  8
0
 62
     7
100
AcDbVertex
100
AcDb2dVertex
 10
-31.7245293
 20
-110.2693629999999
 30
0.0
  0
VERTEX
  5
4FB
330
226
100
AcDbEntity
  8
0
 62
     7
100
AcDbVertex
100
AcDb2dVertex
 10
-31.7907823
 20
-110.515621
 30
0.0
  0
VERTEX
  5
4FC
330
226
100
AcDbEntity
  8
0
 62
     7
100
AcDbVertex
100
AcDb2dVertex
 10
-31.8648822
 20
-110.759275
 30
0.0
  0
VERTEX
  5
4FD
330
226
100
AcDbEntity
  8
0
 62
     7
100
AcDbVertex
100
AcDb2dVertex
 10
-31.94659619999999
 20
-111.0
 30
0.0
  0
SEQEND
  5
4FE
330
226
100
AcDbEntity
  8
0
 62
     7
  0
POLYLINE
  5
23D
330
1E
100
AcDbEntity
  8
0
 62
     7
100
AcDb2dPolyline
 66
     1
 10
0.0
 20
0.0
 30
0.0
  0
VERTEX
  5
4FF
330
23D
100
AcDbEntity
  8
0
 62
     7
100
AcDbVertex
100
AcDb2dVertex
 10
-31.94659619999999
 20
-101.0
 30
0.0
  0
VERTEX
  5
500
330
23D
100
AcDbEntity
  8
0
 62
     7
100
AcDbVertex
100
AcDb2dVertex
 10
-31.8648822
 20
-101.240725
 30
0.0
  0
VERTEX
  5
501
330
23D
100
AcDbEntity
  8
0
 62
     7
100
AcDbVertex
100
AcDb2dVertex
 10
-31.7907823
 20
-101.484379
 30
0.0
  0
VERTEX
  5
502
330
23D
100
AcDbEntity
  8
0
 62
     7
100
AcDbVertex
100
AcDb2dVertex
 10
-31.7245293
 20
-101.730637
 30
0.0
  0
VERTEX
  5
503
330
23D
100
AcDbEntity
  8
0
 62
     7
100
AcDbVertex
100
AcDb2dVertex
 10
-31.6663555
 20
-101.979173
 30
0.0
  0
VERTEX
  5
504
330
23D
100
AcDbEntity
  8
0
 62
     7
100
AcDbVertex
100
AcDb2dVertex
 10
-31.6164936
 20
-102.2296609999999
 30
0.0
  0
VERTEX
  5
505
330
23D
100
AcDbEntity
  8
0
 62
     7
100
AcDbVertex
100
AcDb2dVertex
 10
-31.575176
 20
-102.4817759999999
 30
0.0
  0
VERTEX
  5
506
330
23D
100
AcDbEntity
  8
0
 62
     7
100
AcDbVertex
100
AcDb2dVertex
 10
-31.5426353
 20
-102.735193
 30
0.0
  0
VERTEX
  5
507
330
23D
100
AcDbEntity
  8
0
 62
     7
100
AcDbVertex
100
AcDb2dVertex
 10
-31.519104
 20
-102.989586
 30
0.0
  0
VERTEX
  5
508
330
23D
100
AcDbEntity
  8
0
 62
     7
100
AcDbVertex
100
AcDb2dVertex
 10
-31.50481479999999
 20
-103.2446299999999
 30
0.0
  0
VERTEX
  5
509
330
23D
100
AcDbEntity
  8
0
 62
     7
100
AcDbVertex
100
AcDb2dVertex
 10
-31.5
 20
-103.4999999999999
 30
0.0
  0
VERTEX
  5
50A
330
23D
100
AcDbEntity
  8
0
 62
     7
100
AcDbVertex
100
AcDb2dVertex
 10
-31.50481479999999
 20
-103.7553699999999
 30
0.0
  0
VERTEX
  5
50B
330
23D
100
AcDbEntity
  8
0
 62
     7
100
AcDbVertex
100
AcDb2dVertex
 10
-31.519104
 20
-104.0104139999999
 30
0.0
  0
VERTEX
  5
50C
330
23D
100
AcDbEntity
  8
0
 62
     7
100
AcDbVertex
100
AcDb2dVertex
 10
-31.5426353
 20
-104.2648069999999
 30
0.0
  0
VERTEX
  5
50D
330
23D
100
AcDbEntity
  8
0
 62
     7
100
AcDbVertex
100
AcDb2dVertex
 10
-31.575176
 20
-104.518224
 30
0.0
  0
VERTEX
  5
50E
330
23D
100
AcDbEntity
  8
0
 62
     7
100
AcDbVertex
100
AcDb2dVertex
 10
-31.6164936
 20
-104.770339
 30
0.0
  0
VERTEX
  5
50F
330
23D
100
AcDbEntity
  8
0
 62
     7
100
AcDbVertex
100
AcDb2dVertex
 10
-31.6663555
 20
-105.0208269999999
 30
0.0
  0
VERTEX
  5
510
330
23D
100
AcDbEntity
  8
0
 62
     7
100
AcDbVertex
100
AcDb2dVertex
 10
-31.7245293
 20
-105.2693629999999
 30
0.0
  0
VERTEX
  5
511
330
23D
100
AcDbEntity
  8
0
 62
     7
100
AcDbVertex
100
AcDb2dVertex
 10
-31.7907823
 20
-105.515621
 30
0.0
  0
VERTEX
  5
512
330
23D
100
AcDbEntity
  8
0
 62
     7
100
AcDbVertex
100
AcDb2dVertex
 10
-31.8648822
 20
-105.7592749999999
 30
0.0
  0
VERTEX
  5
513
330
23D
100
AcDbEntity
  8
0
 62
     7
100
AcDbVertex
100
AcDb2dVertex
 10
-31.94659619999999
 20
-106.0
 30
0.0
  0
SEQEND
  5
514
330
23D
100
AcDbEntity
  8
0
 62
     7
  0
POLYLINE
  5
254
330
1E
100
AcDbEntity
  8
0
 62
     7
100
AcDb2dPolyline
 66
     1
 10
0.0
 20
0.0
 30
0.0
  0
VERTEX
  5
515
330
254
100
AcDbEntity
  8
0
 62
     7
100
AcDbVertex
100
AcDb2dVertex
 10
-33.05340029999999
 20
-101.0
 30
0.0
  0
VERTEX
  5
516
330
254
100
AcDbEntity
  8
0
 62
     7
100
AcDbVertex
100
AcDb2dVertex
 10
-33.13511489999999
 20
-101.240725
 30
0.0
  0
VERTEX
  5
517
330
254
100
AcDbEntity
  8
0
 62
     7
100
AcDbVertex
100
AcDb2dVertex
 10
-33.20921529999999
 20
-101.484379
 30
0.0
  0
VERTEX
  5
518
330
254
100
AcDbEntity
  8
0
 62
     7
100
AcDbVertex
100
AcDb2dVertex
 10
-33.2754689
 20
-101.730637
 30
0.0
  0
VERTEX
  5
519
330
254
100
AcDbEntity
  8
0
 62
     7
100
AcDbVertex
100
AcDb2dVertex
 10
-33.3336431
 20
-101.9791719999999
 30
0.0
  0
VERTEX
  5
51A
330
254
100
AcDbEntity
  8
0
 62
     7
100
AcDbVertex
100
AcDb2dVertex
 10
-33.38350549999999
 20
-102.2296599999999
 30
0.0
  0
VERTEX
  5
51B
330
254
100
AcDbEntity
  8
0
 62
     7
100
AcDbVertex
100
AcDb2dVertex
 10
-33.4248234
 20
-102.4817759999999
 30
0.0
  0
VERTEX
  5
51C
330
254
100
AcDbEntity
  8
0
 62
     7
100
AcDbVertex
100
AcDb2dVertex
 10
-33.45736429999999
 20
-102.735193
 30
0.0
  0
VERTEX
  5
51D
330
254
100
AcDbEntity
  8
0
 62
     7
100
AcDbVertex
100
AcDb2dVertex
 10
-33.48089579999999
 20
-102.989586
 30
0.0
  0
VERTEX
  5
51E
330
254
100
AcDbEntity
  8
0
 62
     7
100
AcDbVertex
100
AcDb2dVertex
 10
-33.4951852
 20
-103.2446299999999
 30
0.0
  0
VERTEX
  5
51F
330
254
100
AcDbEntity
  8
0
 62
     7
100
AcDbVertex
100
AcDb2dVertex
 10
-33.5
 20
-103.4999999999999
 30
0.0
  0
VERTEX
  5
520
330
254
100
AcDbEntity
  8
0
 62
     7
100
AcDbVertex
100
AcDb2dVertex
 10
-33.4951852
 20
-103.7553699999999
 30
0.0
  0
VERTEX
  5
521
330
254
100
AcDbEntity
  8
0
 62
     7
100
AcDbVertex
100
AcDb2dVertex
 10
-33.48089579999999
 20
-104.0104139999999
 30
0.0
  0
VERTEX
  5
522
330
254
100
AcDbEntity
  8
0
 62
     7
100
AcDbVertex
100
AcDb2dVertex
 10
-33.45736429999999
 20
-104.2648069999999
 30
0.0
  0
VERTEX
  5
523
330
254
100
AcDbEntity
  8
0
 62
     7
100
AcDbVertex
100
AcDb2dVertex
 10
-33.4248234
 20
-104.518224
 30
0.0
  0
VERTEX
  5
524
330
254
100
AcDbEntity
  8
0
 62
     7
100
AcDbVertex
100
AcDb2dVertex
 10
-33.38350549999999
 20
-104.77034
 30
0.0
  0
VERTEX
  5
525
330
254
100
AcDbEntity
  8
0
 62
     7
100
AcDbVertex
100
AcDb2dVertex
 10
-33.3336431
 20
-105.020828
 30
0.0
  0
VERTEX
  5
526
330
254
100
AcDbEntity
  8
0
 62
     7
100
AcDbVertex
100
AcDb2dVertex
 10
-33.2754689
 20
-105.2693629999999
 30
0.0
  0
VERTEX
  5
527
330
254
100
AcDbEntity
  8
0
 62
     7
100
AcDbVertex
100
AcDb2dVertex
 10
-33.20921529999999
 20
-105.515621
 30
0.0
  0
VERTEX
  5
528
330
254
100
AcDbEntity
  8
0
 62
     7
100
AcDbVertex
100
AcDb2dVertex
 10
-33.13511489999999
 20
-105.7592749999999
 30
0.0
  0
VERTEX
  5
529
330
254
100
AcDbEntity
  8
0
 62
     7
100
AcDbVertex
100
AcDb2dVertex
 10
-33.05340029999999
 20
-106.0
 30
0.0
  0
SEQEND
  5
52A
330
254
100
AcDbEntity
  8
0
 62
     7
  0
LINE
  5
26B
330
1E
100
AcDbEntity
  8
0
  6
CENTER
 62
     2
100
AcDbLine
 10
204.0
 20
20.0
 30
0.0
 11
196.0
 21
20.0
 31
0.0
  0
LINE
  5
26C
330
1E
100
AcDbEntity
  8
0
  6
CENTER
 62
     2
100
AcDbLine
 10
202.05
 20
-4.0
 30
0.0
 11
197.9499999999999
 21
-4.0
 31
0.0
  0
CIRCLE
  5
26D
330
1E
100
AcDbEntity
  8
0
 62
     7
100
AcDbCircle
 10
200.0
 20
-4.0
 30
0.0
 40
1.05
  0
CIRCLE
  5
26E
330
1E
100
AcDbEntity
  8
0
 62
     7
100
AcDbCircle
 10
200.0
 20
4.0
 30
0.0
 40
1.05
  0
LINE
  5
26F
330
1E
100
AcDbEntity
  8
0
  6
CENTER
 62
     2
100
AcDbLine
 10
202.05
 20
4.0
 30
0.0
 11
197.9499999999999
 21
4.0
 31
0.0
  0
CIRCLE
  5
270
330
1E
100
AcDbEntity
  8
0
 62
     7
100
AcDbCircle
 10
200.0
 20
0.0
 30
0.0
 40
5.4
  0
CIRCLE
  5
271
330
1E
100
AcDbEntity
  8
0
 62
     7
100
AcDbCircle
 10
200.0
 20
0.0
 30
0.0
 40
9.75
  0
CIRCLE
  5
272
330
1E
100
AcDbEntity
  8
0
 62
     7
100
AcDbCircle
 10
200.0
 20
0.0
 30
0.0
 40
9.5
  0
LINE
  5
273
330
1E
100
AcDbEntity
  8
0
 62
     7
100
AcDbLine
 10
171.5
 20
-22.4999886
 30
0.0
 11
171.5
 21
-12.5000496
 31
0.0
  0
LINE
  5
274
330
1E
100
AcDbEntity
  8
0
 62
     7
100
AcDbLine
 10
173.053391
 20
-23.27346799999999
 30
0.0
 11
171.9465639999999
 21
-23.27346799999999
 31
0.0
  0
LINE
  5
275
330
1E
100
AcDbEntity
  8
0
 62
     7
100
AcDbLine
 10
173.053406
 20
-20.38670349999999
 30
0.0
 11
171.9465639999999
 21
-20.38670349999999
 31
0.0
  0
LINE
  5
276
330
1E
100
AcDbEntity
  8
0
 62
     7
100
AcDbLine
 10
173.053391
 20
-14.613205
 30
0.0
 11
171.9465639999999
 21
-14.613205
 31
0.0
  0
LINE
  5
277
330
1E
100
AcDbEntity
  8
0
 62
     7
100
AcDbLine
 10
173.053345
 20
-11.7264557
 30
0.0
 11
171.9465639999999
 21
-11.7264557
 31
0.0
  0
LINE
  5
278
330
1E
100
AcDbEntity
  8
0
 62
     7
100
AcDbLine
 10
171.9465529999999
 20
-23.2734778
 30
0.0
 11
171.499967
 21
-22.4999671
 31
0.0
  0
LINE
  5
279
330
1E
100
AcDbEntity
  8
0
 62
     7
100
AcDbLine
 10
171.9465419999999
 20
-11.7265095
 30
0.0
 11
171.4999549999999
 21
-12.5000201
 31
0.0
  0
LINE
  5
27A
330
1E
100
AcDbEntity
  8
0
 62
     7
100
AcDbLine
 10
173.0533829999999
 20
-23.27346879999999
 30
0.0
 11
173.4999699999999
 21
-22.4999581
 31
0.0
  0
LINE
  5
27B
330
1E
100
AcDbEntity
  8
0
 62
     7
100
AcDbLine
 10
173.053378
 20
-11.7265348
 30
0.0
 11
173.4999489999999
 21
-12.50001909999999
 31
0.0
  0
ARC
  5
27C
330
1E
100
AcDbEntity
  8
0
 62
     7
100
AcDbCircle
 10
174.0558169999999
 20
-21.83009719999999
 30
0.0
 40
2.555816169999999
100
AcDbArc
 50
145.615626
 51
214.384347
  0
ARC
  5
27D
330
1E
100
AcDbEntity
  8
0
 62
     7
100
AcDbCircle
 10
181.053391
 20
-17.4999733
 30
0.0
 40
9.55339146
100
AcDbArc
 50
162.4119889999999
 51
197.5880099999999
  0
ARC
  5
27E
330
1E
100
AcDbEntity
  8
0
 62
     7
100
AcDbCircle
 10
174.0558009999999
 20
-13.16989519999999
 30
0.0
 40
2.555816169999999
100
AcDbArc
 50
145.615598
 51
214.38432
  0
ARC
  5
27F
330
1E
100
AcDbEntity
  8
0
 62
     7
100
AcDbCircle
 10
163.946594
 20
-17.4999733
 30
0.0
 40
9.55339146
100
AcDbArc
 50
342.4119539999999
 51
17.5879743
  0
ARC
  5
280
330
1E
100
AcDbEntity
  8
0
 62
     7
100
AcDbCircle
 10
170.9441679999999
 20
-21.83009719999999
 30
0.0
 40
2.555816169999999
100
AcDbArc
 50
325.615617
 51
34.3843384
  0
ARC
  5
281
330
1E
100
AcDbEntity
  8
0
 62
     7
100
AcDbCircle
 10
170.9441679999999
 20
-13.16989519999999
 30
0.0
 40
2.555816169999999
100
AcDbArc
 50
325.6156439999999
 51
34.3843657
  0
ARC
  5
282
330
1E
100
AcDbEntity
  8
0
 62
     7
100
AcDbCircle
 10
170.9441679999999
 20
13.16989519999999
 30
0.0
 40
2.555816169999999
100
AcDbArc
 50
325.6156339999999
 51
34.3843557
  0
ARC
  5
283
330
1E
100
AcDbEntity
  8
0
 62
     7
100
AcDbCircle
 10
170.9441679999999
 20
21.83009719999999
 30
0.0
 40
2.555816169999999
100
AcDbArc
 50
325.615662
 51
34.384383
  0
ARC
  5
284
330
1E
100
AcDbEntity
  8
0
 62
     7
100
AcDbCircle
 10
163.946594
 20
17.4999733
 30
0.0
 40
9.55339146
100
AcDbArc
 50
342.4120259999999
 51
17.5880463
  0
ARC
  5
285
330
1E
100
AcDbEntity
  8
0
 62
     7
100
AcDbCircle
 10
174.0558009999999
 20
13.16989519999999
 30
0.0
 40
2.555816169999999
100
AcDbArc
 50
145.61568
 51
214.3844009999999
  0
ARC
  5
286
330
1E
100
AcDbEntity
  8
0
 62
     7
100
AcDbCircle
 10
181.053391
 20
17.4999733
 30
0.0
 40
9.55339146
100
AcDbArc
 50
162.4119889999999
 51
197.5880099999999
  0
ARC
  5
287
330
1E
100
AcDbEntity
  8
0
 62
     7
100
AcDbCircle
 10
174.0558169999999
 20
21.83009719999999
 30
0.0
 40
2.555816169999999
100
AcDbArc
 50
145.615653
 51
214.384375
  0
LINE
  5
288
330
1E
100
AcDbEntity
  8
0
 62
     7
100
AcDbLine
 10
173.053378
 20
11.7265348
 30
0.0
 11
173.4999489999999
 21
12.50001909999999
 31
0.0
  0
LINE
  5
289
330
1E
100
AcDbEntity
  8
0
 62
     7
100
AcDbLine
 10
173.0533829999999
 20
23.27346879999999
 30
0.0
 11
173.4999699999999
 21
22.4999581
 31
0.0
  0
LINE
  5
28A
330
1E
100
AcDbEntity
  8
0
 62
     7
100
AcDbLine
 10
171.9465419999999
 20
11.7265095
 30
0.0
 11
171.4999549999999
 21
12.5000201
 31
0.0
  0
LINE
  5
28B
330
1E
100
AcDbEntity
  8
0
 62
     7
100
AcDbLine
 10
171.9465529999999
 20
23.2734778
 30
0.0
 11
171.499967
 21
22.4999671
 31
0.0
  0
LINE
  5
28C
330
1E
100
AcDbEntity
  8
0
 62
     7
100
AcDbLine
 10
173.053345
 20
11.7264557
 30
0.0
 11
171.9465639999999
 21
11.7264557
 31
0.0
  0
LINE
  5
28D
330
1E
100
AcDbEntity
  8
0
 62
     7
100
AcDbLine
 10
173.053391
 20
14.613205
 30
0.0
 11
171.9465639999999
 21
14.613205
 31
0.0
  0
LINE
  5
28E
330
1E
100
AcDbEntity
  8
0
 62
     7
100
AcDbLine
 10
173.053406
 20
20.38670349999999
 30
0.0
 11
171.9465639999999
 21
20.38670349999999
 31
0.0
  0
LINE
  5
28F
330
1E
100
AcDbEntity
  8
0
 62
     7
100
AcDbLine
 10
173.053391
 20
23.27346799999999
 30
0.0
 11
171.9465639999999
 21
23.27346799999999
 31
0.0
  0
LINE
  5
290
330
1E
100
AcDbEntity
  8
0
 62
     7
100
AcDbLine
 10
171.5
 20
22.4999886
 30
0.0
 11
171.5
 21
12.5000496
 31
0.0
  0
LINE
  5
291
330
1E
100
AcDbEntity
  8
0
 62
     7
100
AcDbLine
 10
173.5
 20
-48.0000076
 30
0.0
 11
173.5
 21
48.0
 31
0.0
  0
LINE
  5
292
330
1E
100
AcDbEntity
  8
0
  6
CENTER
 62
     2
100
AcDbLine
 10
204.7499999999999
 20
32.0
 30
0.0
 11
195.25
 21
32.0
 31
0.0
  0
LINE
  5
293
330
1E
100
AcDbEntity
  8
0
  6
CENTER
 62
     2
100
AcDbLine
 10
200.0
 20
51.9999924
 30
0.0
 11
200.0
 21
-52.0
 31
0.0
  0
LINE
  5
294
330
1E
100
AcDbEntity
  8
0
 62
     7
100
AcDbLine
 10
226.5
 20
48.0
 30
0.0
 11
173.5
 21
48.0
 31
0.0
  0
LINE
  5
295
330
1E
100
AcDbEntity
  8
0
 62
     7
100
AcDbLine
 10
226.5
 20
-48.0
 30
0.0
 11
173.5
 21
-48.0
 31
0.0
  0
LINE
  5
296
330
1E
100
AcDbEntity
  8
0
  6
CENTER
 62
     2
100
AcDbLine
 10
204.7499999999999
 20
-32.0
 30
0.0
 11
195.25
 21
-32.0
 31
0.0
  0
LINE
  5
297
330
1E
100
AcDbEntity
  8
0
 62
     7
100
AcDbLine
 10
226.5
 20
48.0000076
 30
0.0
 11
226.5
 21
-48.0
 31
0.0
  0
LINE
  5
298
330
1E
100
AcDbEntity
  8
0
 62
     7
100
AcDbLine
 10
225.0
 20
48.0000076
 30
0.0
 11
225.0
 21
-48.0
 31
0.0
  0
LINE
  5
299
330
1E
100
AcDbEntity
  8
0
 62
     7
100
AcDbLine
 10
175.0
 20
-48.0000076
 30
0.0
 11
175.0
 21
48.0
 31
0.0
  0
CIRCLE
  5
29A
330
1E
100
AcDbEntity
  8
0
 62
     7
100
AcDbCircle
 10
200.0
 20
-32.0
 30
0.0
 40
2.6
  0
CIRCLE
  5
29B
330
1E
100
AcDbEntity
  8
0
 62
     7
100
AcDbCircle
 10
200.0
 20
32.0
 30
0.0
 40
2.6
  0
CIRCLE
  5
29C
330
1E
100
AcDbEntity
  8
0
 62
     2
100
AcDbCircle
 10
200.0
 20
-32.0
 30
0.0
 40
3.0
  0
CIRCLE
  5
29D
330
1E
100
AcDbEntity
  8
0
 62
     2
100
AcDbCircle
 10
200.0
 20
32.0
 30
0.0
 40
3.0
  0
CIRCLE
  5
29E
330
1E
100
AcDbEntity
  8
0
 62
     7
100
AcDbCircle
 10
200.0
 20
-20.0
 30
0.0
 40
2.0
  0
LINE
  5
29F
330
1E
100
AcDbEntity
  8
0
  6
CENTER
 62
     2
100
AcDbLine
 10
204.0
 20
-20.0
 30
0.0
 11
196.0
 21
-20.0
 31
0.0
  0
ARC
  5
2A0
330
1E
100
AcDbEntity
  8
0
 62
     7
100
AcDbCircle
 10
200.0
 20
19.0
 30
0.0
 40
2.0
100
AcDbArc
 50
180.0
 51
0.0
  0
LINE
  5
2A1
330
1E
100
AcDbEntity
  8
0
  6
CENTER
 62
     2
100
AcDbLine
 10
204.0
 20
19.0
 30
0.0
 11
196.0
 21
19.0
 31
0.0
  0
LINE
  5
2A2
330
1E
100
AcDbEntity
  8
0
 62
     7
100
AcDbLine
 10
202.0
 20
19.0
 30
0.0
 11
202.0
 21
21.0
 31
0.0
  0
LINE
  5
2A3
330
1E
100
AcDbEntity
  8
0
  6
CENTER
 62
     2
100
AcDbLine
 10
204.0
 20
21.0
 30
0.0
 11
196.0
 21
21.0
 31
0.0
  0
ARC
  5
2A4
330
1E
100
AcDbEntity
  8
0
 62
     7
100
AcDbCircle
 10
200.0
 20
21.0
 30
0.0
 40
2.0
100
AcDbArc
 50
0.0
 51
180.0
  0
LINE
  5
2A5
330
1E
100
AcDbEntity
  8
0
 62
     7
100
AcDbLine
 10
198.0
 20
19.0
 30
0.0
 11
198.0
 21
21.0
 31
0.0
  0
LINE
  5
2A6
330
1E
100
AcDbEntity
  8
0
 62
     7
100
AcDbLine
 10
187.0
 20
-48.0
 30
0.0
 11
187.0
 21
48.0
 31
0.0
  0
LINE
  5
2A7
330
1E
100
AcDbEntity
  8
0
 62
     7
100
AcDbLine
 10
187.1999999999999
 20
-48.0
 30
0.0
 11
187.1999999999999
 21
48.0
 31
0.0
  0
LINE
  5
2A8
330
1E
100
AcDbEntity
  8
0
 62
     7
100
AcDbLine
 10
212.8
 20
-48.0
 30
0.0
 11
212.8
 21
48.0
 31
0.0
  0
LINE
  5
2A9
330
1E
100
AcDbEntity
  8
0
 62
     7
100
AcDbLine
 10
213.0
 20
-48.0
 30
0.0
 11
213.0
 21
48.0
 31
0.0
  0
LINE
  5
2AA
330
1E
100
AcDbEntity
  8
0
  6
CENTER
 62
     2
100
AcDbLine
 10
230.5
 20
0.0
 30
0.0
 11
169.0
 21
0.0
 31
0.0
  0
LINE
  5
2AB
330
1E
100
AcDbEntity
  8
0
 62
     7
100
AcDbLine
 10
171.5
 20
-21.49999999999999
 30
0.0
 11
165.5
 21
-21.49999999999999
 31
0.0
  0
LINE
  5
2AC
330
1E
100
AcDbEntity
  8
0
 62
     7
100
AcDbLine
 10
171.5
 20
-13.5
 30
0.0
 11
165.5
 21
-13.5
 31
0.0
  0
LINE
  5
2AD
330
1E
100
AcDbEntity
  8
0
 62
     2
100
AcDbLine
 10
165.125
 20
-21.125
 30
0.0
 11
171.5
 21
-21.125
 31
0.0
  0
LINE
  5
2AE
330
1E
100
AcDbEntity
  8
0
 62
     2
100
AcDbLine
 10
171.5
 20
-13.875
 30
0.0
 11
165.125
 21
-13.875
 31
0.0
  0
LINE
  5
2AF
330
1E
100
AcDbEntity
  8
0
  6
CENTER
 62
     2
100
AcDbLine
 10
173.5
 20
-17.5
 30
0.0
 11
163.0
 21
-17.5
 31
0.0
  0
LINE
  5
2B0
330
1E
100
AcDbEntity
  8
0
 62
     7
100
AcDbLine
 10
165.0
 20
-14.0
 30
0.0
 11
165.0
 21
-16.89999999999999
 31
0.0
  0
LINE
  5
2B1
330
1E
100
AcDbEntity
  8
0
 62
     7
100
AcDbLine
 10
165.5
 20
-21.49999999999999
 30
0.0
 11
165.0
 21
-21.0
 31
0.0
  0
LINE
  5
2B2
330
1E
100
AcDbEntity
  8
0
 62
     7
100
AcDbLine
 10
165.5
 20
-13.5
 30
0.0
 11
165.0
 21
-14.0
 31
0.0
  0
LINE
  5
2B3
330
1E
100
AcDbEntity
  8
0
 62
     7
100
AcDbLine
 10
165.5
 20
-21.49999999999999
 30
0.0
 11
165.5
 21
-18.1
 31
0.0
  0
LINE
  5
2B4
330
1E
100
AcDbEntity
  8
0
 62
     7
100
AcDbLine
 10
167.0
 20
-18.1
 30
0.0
 11
165.0
 21
-18.1
 31
0.0
  0
LINE
  5
2B5
330
1E
100
AcDbEntity
  8
0
 62
     7
100
AcDbLine
 10
167.0
 20
-16.89999999999999
 30
0.0
 11
165.0
 21
-16.89999999999999
 31
0.0
  0
LINE
  5
2B6
330
1E
100
AcDbEntity
  8
0
 62
     7
100
AcDbLine
 10
167.0
 20
-18.1
 30
0.0
 11
167.0
 21
-16.89999999999999
 31
0.0
  0
LINE
  5
2B7
330
1E
100
AcDbEntity
  8
0
 62
     7
100
AcDbLine
 10
165.0
 20
-18.1
 30
0.0
 11
165.0
 21
-21.0
 31
0.0
  0
LINE
  5
2B8
330
1E
100
AcDbEntity
  8
0
 62
     7
100
AcDbLine
 10
165.5
 20
-16.89999999999999
 30
0.0
 11
165.5
 21
-13.5
 31
0.0
  0
LINE
  5
2B9
330
1E
100
AcDbEntity
  8
0
  6
CENTER
 62
     2
100
AcDbLine
 10
173.5
 20
17.5
 30
0.0
 11
153.5
 21
17.5
 31
0.0
  0
LINE
  5
2BA
330
1E
100
AcDbEntity
  8
0
 62
     7
100
AcDbLine
 10
171.5
 20
21.49999999999999
 30
0.0
 11
161.0
 21
21.49999999999999
 31
0.0
  0
LINE
  5
2BB
330
1E
100
AcDbEntity
  8
0
 62
     7
100
AcDbLine
 10
171.5
 20
13.5
 30
0.0
 11
161.0
 21
13.5
 31
0.0
  0
LINE
  5
2BC
330
1E
100
AcDbEntity
  8
0
 62
     2
100
AcDbLine
 10
160.625
 20
21.125
 30
0.0
 11
171.5
 21
21.125
 31
0.0
  0
LINE
  5
2BD
330
1E
100
AcDbEntity
  8
0
 62
     2
100
AcDbLine
 10
171.5
 20
13.875
 30
0.0
 11
160.625
 21
13.875
 31
0.0
  0
LINE
  5
2BE
330
1E
100
AcDbEntity
  8
0
 62
     2
100
AcDbLine
 10
163.4999999999999
 20
19.43649169999999
 30
0.0
 11
161.0
 21
15.5635083
 31
0.0
  0
LINE
  5
2BF
330
1E
100
AcDbEntity
  8
0
 62
     2
100
AcDbLine
 10
161.0
 20
19.43649169999999
 30
0.0
 11
163.4999999999999
 21
15.5635083
 31
0.0
  0
LINE
  5
2C0
330
1E
100
AcDbEntity
  8
0
 62
     7
100
AcDbLine
 10
161.0
 20
15.5635083
 30
0.0
 11
161.0
 21
13.5
 31
0.0
  0
LINE
  5
2C1
330
1E
100
AcDbEntity
  8
0
 62
     7
100
AcDbLine
 10
163.4999999999999
 20
15.5635083
 30
0.0
 11
161.0
 21
15.5635083
 31
0.0
  0
LINE
  5
2C2
330
1E
100
AcDbEntity
  8
0
 62
     7
100
AcDbLine
 10
161.0
 20
19.43649169999999
 30
0.0
 11
163.4999999999999
 21
19.43649169999999
 31
0.0
  0
LINE
  5
2C3
330
1E
100
AcDbEntity
  8
0
 62
     7
100
AcDbLine
 10
163.4999999999999
 20
19.43649169999999
 30
0.0
 11
163.4999999999999
 21
15.5635083
 31
0.0
  0
LINE
  5
2C4
330
1E
100
AcDbEntity
  8
0
 62
     7
100
AcDbLine
 10
156.0
 20
20.89999999999999
 30
0.0
 11
156.0
 21
14.1
 31
0.0
  0
LINE
  5
2C5
330
1E
100
AcDbEntity
  8
0
 62
     7
100
AcDbLine
 10
155.4999999999999
 20
14.59999999999999
 30
0.0
 11
156.0
 21
14.1
 31
0.0
  0
LINE
  5
2C6
330
1E
100
AcDbEntity
  8
0
 62
     7
100
AcDbLine
 10
156.0
 20
20.89999999999999
 30
0.0
 11
155.4999999999999
 21
20.4
 31
0.0
  0
LINE
  5
2C7
330
1E
100
AcDbEntity
  8
0
 62
     7
100
AcDbLine
 10
160.4999999999999
 20
14.1
 30
0.0
 11
156.0
 21
14.1
 31
0.0
  0
LINE
  5
2C8
330
1E
100
AcDbEntity
  8
0
 62
     7
100
AcDbLine
 10
160.4999999999999
 20
20.89999999999999
 30
0.0
 11
156.0
 21
20.89999999999999
 31
0.0
  0
LINE
  5
2C9
330
1E
100
AcDbEntity
  8
0
 62
     7
100
AcDbLine
 10
155.4999999999999
 20
20.4
 30
0.0
 11
155.4999999999999
 21
14.59999999999999
 31
0.0
  0
LINE
  5
2CA
330
1E
100
AcDbEntity
  8
0
 62
     7
100
AcDbLine
 10
160.4999999999999
 20
21.0
 30
0.0
 11
160.4999999999999
 21
14.0
 31
0.0
  0
LINE
  5
2CB
330
1E
100
AcDbEntity
  8
0
 62
     7
100
AcDbLine
 10
160.4999999999999
 20
21.0
 30
0.0
 11
161.0
 21
21.49999999999999
 31
0.0
  0
LINE
  5
2CC
330
1E
100
AcDbEntity
  8
0
 62
     7
100
AcDbLine
 10
160.4999999999999
 20
14.0
 30
0.0
 11
161.0
 21
13.5
 31
0.0
  0
LINE
  5
2CD
330
1E
100
AcDbEntity
  8
0
 62
     7
100
AcDbLine
 10
161.0
 20
21.49999999999999
 30
0.0
 11
161.0
 21
19.43649169999999
 31
0.0
  0
POLYLINE
  5
2CE
330
1E
100
AcDbEntity
  8
0
 62
     7
100
AcDb2dPolyline
 66
     1
 10
0.0
 20
0.0
 30
0.0
  0
VERTEX
  5
52B
330
2CE
100
AcDbEntity
  8
0
 62
     7
100
AcDbVertex
100
AcDb2dVertex
 10
163.4999999999999
 20
19.43649169999999
 30
0.0
  0
VERTEX
  5
52C
330
2CE
100
AcDbEntity
  8
0
 62
     7
100
AcDbVertex
100
AcDb2dVertex
 10
163.588331
 20
19.2564751
 30
0.0
  0
VERTEX
  5
52D
330
2CE
100
AcDbEntity
  8
0
 62
     7
100
AcDbVertex
100
AcDb2dVertex
 10
163.669461
 20
19.07215339999999
 30
0.0
  0
VERTEX
  5
52E
330
2CE
100
AcDbEntity
  8
0
 62
     7
100
AcDbVertex
100
AcDb2dVertex
 10
163.742896
 20
18.8840051
 30
0.0
  0
VERTEX
  5
52F
330
2CE
100
AcDbEntity
  8
0
 62
     7
100
AcDbVertex
100
AcDb2dVertex
 10
163.8081429999999
 20
18.6925085
 30
0.0
  0
VERTEX
  5
530
330
2CE
100
AcDbEntity
  8
0
 62
     7
100
AcDbVertex
100
AcDb2dVertex
 10
163.864708
 20
18.4981418
 30
0.0
  0
VERTEX
  5
531
330
2CE
100
AcDbEntity
  8
0
 62
     7
100
AcDbVertex
100
AcDb2dVertex
 10
163.9120959999999
 20
18.30138339999999
 30
0.0
  0
VERTEX
  5
532
330
2CE
100
AcDbEntity
  8
0
 62
     7
100
AcDbVertex
100
AcDb2dVertex
 10
163.9498129999999
 20
18.1027117
 30
0.0
  0
VERTEX
  5
533
330
2CE
100
AcDbEntity
  8
0
 62
     7
100
AcDbVertex
100
AcDb2dVertex
 10
163.9773649999999
 20
17.9026051
 30
0.0
  0
VERTEX
  5
534
330
2CE
100
AcDbEntity
  8
0
 62
     7
100
AcDbVertex
100
AcDb2dVertex
 10
163.9942589999999
 20
17.7015417
 30
0.0
  0
VERTEX
  5
535
330
2CE
100
AcDbEntity
  8
0
 62
     7
100
AcDbVertex
100
AcDb2dVertex
 10
164.0
 20
17.5
 30
0.0
  0
VERTEX
  5
536
330
2CE
100
AcDbEntity
  8
0
 62
     7
100
AcDbVertex
100
AcDb2dVertex
 10
163.9942589999999
 20
17.2984583
 30
0.0
  0
VERTEX
  5
537
330
2CE
100
AcDbEntity
  8
0
 62
     7
100
AcDbVertex
100
AcDb2dVertex
 10
163.9773649999999
 20
17.09739489999999
 30
0.0
  0
VERTEX
  5
538
330
2CE
100
AcDbEntity
  8
0
 62
     7
100
AcDbVertex
100
AcDb2dVertex
 10
163.9498129999999
 20
16.89728829999999
 30
0.0
  0
VERTEX
  5
539
330
2CE
100
AcDbEntity
  8
0
 62
     7
100
AcDbVertex
100
AcDb2dVertex
 10
163.9120959999999
 20
16.6986166
 30
0.0
  0
VERTEX
  5
53A
330
2CE
100
AcDbEntity
  8
0
 62
     7
100
AcDbVertex
100
AcDb2dVertex
 10
163.864708
 20
16.5018582
 30
0.0
  0
VERTEX
  5
53B
330
2CE
100
AcDbEntity
  8
0
 62
     7
100
AcDbVertex
100
AcDb2dVertex
 10
163.8081429999999
 20
16.3074915
 30
0.0
  0
VERTEX
  5
53C
330
2CE
100
AcDbEntity
  8
0
 62
     7
100
AcDbVertex
100
AcDb2dVertex
 10
163.742896
 20
16.1159949
 30
0.0
  0
VERTEX
  5
53D
330
2CE
100
AcDbEntity
  8
0
 62
     7
100
AcDbVertex
100
AcDb2dVertex
 10
163.669461
 20
15.92784659999999
 30
0.0
  0
VERTEX
  5
53E
330
2CE
100
AcDbEntity
  8
0
 62
     7
100
AcDbVertex
100
AcDb2dVertex
 10
163.588331
 20
15.7435249
 30
0.0
  0
VERTEX
  5
53F
330
2CE
100
AcDbEntity
  8
0
 62
     7
100
AcDbVertex
100
AcDb2dVertex
 10
163.4999999999999
 20
15.5635083
 30
0.0
  0
SEQEND
  5
540
330
2CE
100
AcDbEntity
  8
0
 62
     7
  0
POLYLINE
  5
2E5
330
1E
100
AcDbEntity
  8
0
 62
     7
100
AcDb2dPolyline
 66
     1
 10
0.0
 20
0.0
 30
0.0
  0
VERTEX
  5
541
330
2E5
100
AcDbEntity
  8
0
 62
     7
100
AcDbVertex
100
AcDb2dVertex
 10
161.0
 20
19.43649169999999
 30
0.0
  0
VERTEX
  5
542
330
2E5
100
AcDbEntity
  8
0
 62
     7
100
AcDbVertex
100
AcDb2dVertex
 10
160.911669
 20
19.2564751
 30
0.0
  0
VERTEX
  5
543
330
2E5
100
AcDbEntity
  8
0
 62
     7
100
AcDbVertex
100
AcDb2dVertex
 10
160.8305389999999
 20
19.07215339999999
 30
0.0
  0
VERTEX
  5
544
330
2E5
100
AcDbEntity
  8
0
 62
     7
100
AcDbVertex
100
AcDb2dVertex
 10
160.757104
 20
18.8840051
 30
0.0
  0
VERTEX
  5
545
330
2E5
100
AcDbEntity
  8
0
 62
     7
100
AcDbVertex
100
AcDb2dVertex
 10
160.6918569999999
 20
18.6925085
 30
0.0
  0
VERTEX
  5
546
330
2E5
100
AcDbEntity
  8
0
 62
     7
100
AcDbVertex
100
AcDb2dVertex
 10
160.6352919999999
 20
18.4981418
 30
0.0
  0
VERTEX
  5
547
330
2E5
100
AcDbEntity
  8
0
 62
     7
100
AcDbVertex
100
AcDb2dVertex
 10
160.587904
 20
18.30138339999999
 30
0.0
  0
VERTEX
  5
548
330
2E5
100
AcDbEntity
  8
0
 62
     7
100
AcDbVertex
100
AcDb2dVertex
 10
160.550187
 20
18.1027117
 30
0.0
  0
VERTEX
  5
549
330
2E5
100
AcDbEntity
  8
0
 62
     7
100
AcDbVertex
100
AcDb2dVertex
 10
160.522635
 20
17.9026051
 30
0.0
  0
VERTEX
  5
54A
330
2E5
100
AcDbEntity
  8
0
 62
     7
100
AcDbVertex
100
AcDb2dVertex
 10
160.505741
 20
17.7015417
 30
0.0
  0
VERTEX
  5
54B
330
2E5
100
AcDbEntity
  8
0
 62
     7
100
AcDbVertex
100
AcDb2dVertex
 10
160.4999999999999
 20
17.5
 30
0.0
  0
VERTEX
  5
54C
330
2E5
100
AcDbEntity
  8
0
 62
     7
100
AcDbVertex
100
AcDb2dVertex
 10
160.505741
 20
17.2984583
 30
0.0
  0
VERTEX
  5
54D
330
2E5
100
AcDbEntity
  8
0
 62
     7
100
AcDbVertex
100
AcDb2dVertex
 10
160.522635
 20
17.09739489999999
 30
0.0
  0
VERTEX
  5
54E
330
2E5
100
AcDbEntity
  8
0
 62
     7
100
AcDbVertex
100
AcDb2dVertex
 10
160.550187
 20
16.89728829999999
 30
0.0
  0
VERTEX
  5
54F
330
2E5
100
AcDbEntity
  8
0
 62
     7
100
AcDbVertex
100
AcDb2dVertex
 10
160.587904
 20
16.6986166
 30
0.0
  0
VERTEX
  5
550
330
2E5
100
AcDbEntity
  8
0
 62
     7
100
AcDbVertex
100
AcDb2dVertex
 10
160.6352919999999
 20
16.5018582
 30
0.0
  0
VERTEX
  5
551
330
2E5
100
AcDbEntity
  8
0
 62
     7
100
AcDbVertex
100
AcDb2dVertex
 10
160.6918569999999
 20
16.3074915
 30
0.0
  0
VERTEX
  5
552
330
2E5
100
AcDbEntity
  8
0
 62
     7
100
AcDbVertex
100
AcDb2dVertex
 10
160.757104
 20
16.1159949
 30
0.0
  0
VERTEX
  5
553
330
2E5
100
AcDbEntity
  8
0
 62
     7
100
AcDbVertex
100
AcDb2dVertex
 10
160.8305389999999
 20
15.92784659999999
 30
0.0
  0
VERTEX
  5
554
330
2E5
100
AcDbEntity
  8
0
 62
     7
100
AcDbVertex
100
AcDb2dVertex
 10
160.911669
 20
15.7435249
 30
0.0
  0
VERTEX
  5
555
330
2E5
100
AcDbEntity
  8
0
 62
     7
100
AcDbVertex
100
AcDb2dVertex
 10
161.0
 20
15.5635083
 30
0.0
  0
SEQEND
  5
556
330
2E5
100
AcDbEntity
  8
0
 62
     7
  0
TEXT
  5
2FC
330
1E
100
AcDbEntity
  8
0
 62
     7
100
AcDbText
 10
-229.800283
 20
178.35
 30
0.0
 40
6.30000019
  1
RAT
 41
1.000000149999999
  7
MONOTXT
100
AcDbText
  0
TEXT
  5
2FD
330
1E
100
AcDbEntity
  8
0
 62
     7
100
AcDbText
 10
-267.6002899999999
 20
186.3499999999999
 30
0.0
 40
6.30000019
  1
ROTARY ACTUATOR
 41
1.04166682
  7
MONOTXT
100
AcDbText
  0
LINE
  5
2FE
330
1E
100
AcDbEntity
  8
0
 62
     7
100
AcDbLine
 10
282.099854
 20
195.5
 30
0.0
 11
282.099854
 21
-195.0
 31
0.0
  0
LINE
  5
2FF
330
1E
100
AcDbEntity
  8
0
 62
     7
100
AcDbLine
 10
-281.25
 20
195.5
 30
0.0
 11
282.099854
 21
195.5
 31
0.0
  0
LINE
  5
300
330
1E
100
AcDbEntity
  8
0
 62
     7
100
AcDbLine
 10
-281.25
 20
195.5
 30
0.0
 11
-281.25
 21
-195.0
 31
0.0
  0
LINE
  5
301
330
1E
100
AcDbEntity
  8
0
 62
     7
100
AcDbLine
 10
-281.25
 20
-195.0
 30
0.0
 11
282.099854
 21
-195.0
 31
0.0
  0
LINE
  5
302
330
1E
100
AcDbEntity
  8
0
 62
     7
100
AcDbLine
 10
162.099976
 20
-175.0
 30
0.0
 11
162.099976
 21
-195.0
 31
0.0
  0
LINE
  5
303
330
1E
100
AcDbEntity
  8
0
 62
     7
100
AcDbLine
 10
162.099976
 20
-175.0
 30
0.0
 11
282.099854
 21
-175.0
 31
0.0
  0
LINE
  5
304
330
1E
100
AcDbEntity
  8
0
 62
     7
100
AcDbLine
 10
162.099976
 20
175.5
 30
0.0
 11
282.099854
 21
175.5
 31
0.0
  0
LINE
  5
305
330
1E
100
AcDbEntity
  8
0
 62
     7
100
AcDbLine
 10
-281.25
 20
175.5
 30
0.0
 11
-161.25
 21
175.5
 31
0.0
  0
LINE
  5
306
330
1E
100
AcDbEntity
  8
0
 62
     7
100
AcDbLine
 10
162.099976
 20
195.5
 30
0.0
 11
162.099976
 21
175.5
 31
0.0
  0
LINE
  5
307
330
1E
100
AcDbEntity
  8
0
 62
     7
100
AcDbLine
 10
-161.25
 20
195.5
 30
0.0
 11
-161.25
 21
175.5
 31
0.0
  0
TEXT
  5
308
330
1E
100
AcDbEntity
  8
0
 62
     7
100
AcDbText
 10
197.7996899999999
 20
182.3499999999999
 30
0.0
 40
6.30000019
  1
Ver. 1.0
 41
1.08108124
  7
MONOTXT
100
AcDbText
  0
TEXT
  5
309
330
1E
100
AcDbEntity
  8
0
 62
     7
100
AcDbText
 10
169.885276
 20
-189.4999999999999
 30
0.0
 40
9.0
  1
KOGANEI CORP.
 41
1.04838732
  7
MONOTXT
100
AcDbText
  0
TEXT
  5
30A
330
1E
100
AcDbEntity
  8
0
 62
     7
100
AcDbText
 10
-267.600562
 20
157.3499999999999
 30
0.0
 40
6.30000019
  1
MODEL:RAT5-180-SSR
 41
1.000000149999999
  7
MONOTXT
100
AcDbText
  0
ENDSEC
  0
SECTION
  2
OBJECTS
  0
DICTIONARY
  5
C
330
0
100
AcDbDictionary
  3
ACAD_GROUP
350
D
  3
ACAD_MLINESTYLE
350
16
  3
ACAD_PLOTSETTINGS
350
18
  3
ACAD_LAYOUT
350
19
1001
ACAD
1000
TREAT_AS_HARD
1070
     0
  0
DICTIONARY
  5
44D
330
1E
100
AcDbDictionary
  3
ACAD_LAYOUTSELFREF
350
44E
  0
DICTIONARY
  5
44B
330
1A
100
AcDbDictionary
  3
ACAD_LAYOUTSELFREF
350
44C
  0
DICTIONARY
  5
D
102
{ACAD_REACTORS
330
C
102
}
330
C
100
AcDbDictionary
1001
ACAD
1000
TREAT_AS_HARD
1070
     0
  0
DICTIONARY
  5
16
102
{ACAD_REACTORS
330
C
102
}
330
C
100
AcDbDictionary
  3
STANDARD
350
17
1001
ACAD
1000
TREAT_AS_HARD
1070
     0
  0
DICTIONARY
  5
18
102
{ACAD_REACTORS
330
C
102
}
330
C
100
AcDbDictionary
1001
ACAD
1000
TREAT_AS_HARD
1070
     0
  0
DICTIONARY
  5
19
102
{ACAD_REACTORS
330
C
102
}
330
C
100
AcDbDictionary
1001
ACAD
1000
TREAT_AS_HARD
1070
     0
  0
XRECORD
  5
44E
102
{ACAD_REACTORS
330
44D
102
}
330
44D
100
AcDbXrecord
340
1E
  0
XRECORD
  5
44C
102
{ACAD_REACTORS
330
44B
102
}
330
44B
100
AcDbXrecord
340
1A
  0
MLINESTYLE
  5
17
102
{ACAD_REACTORS
330
16
102
}
330
16
100
AcDbMlineStyle
  2
STANDARD
 70
     0
  3

 62
   256
 51
90.0
 52
90.0
 71
     2
 49
0.5
 62
   256
  6
BYLAYER
 49
-0.5
 62
   256
  6
BYLAYER
  0
ENDSEC
  0
EOF
