  0
SECTION
  2
HEADER
  9
$ACADVER
  1
AC1012
  9
$DWGCODEPAGE
  3
dos932
  9
$INSBASE
 10
0.0
 20
0.0
 30
0.0
  9
$EXTMIN
 10
-281.2681908225806
 20
-195.0129162660985
 30
-0.0015258207003583
  9
$EXTMAX
 10
283.1495755000714
 20
195.5129180845152
 30
0.0000000349246037
  9
$LIMMIN
 10
-281.2509999999999
 20
-195.0009999999999
  9
$LIMMAX
 10
282.100854
 20
195.501
  9
$ORTHOMODE
 70
     0
  9
$REGENMODE
 70
     1
  9
$FILLMODE
 70
     1
  9
$QTEXTMODE
 70
     0
  9
$MIRRTEXT
 70
     1
  9
$DRAGMODE
 70
     2
  9
$LTSCALE
 40
9.38916423
  9
$OSMODE
 70
    37
  9
$ATTMODE
 70
     1
  9
$TEXTSIZE
 40
0.2
  9
$TRACEWID
 40
0.05
  9
$TEXTSTYLE
  7
STANDARD
  9
$CLAYER
  8
0
  9
$CELTYPE
  6
CONTINUOUS
  9
$CECOLOR
 62
   256
  9
$CELTSCALE
 40
1.0
  9
$DELOBJ
 70
     1
  9
$DISPSILH
 70
     0
  9
$DIMSCALE
 40
1.0
  9
$DIMASZ
 40
0.18
  9
$DIMEXO
 40
0.0625
  9
$DIMDLI
 40
0.38
  9
$DIMRND
 40
0.0
  9
$DIMDLE
 40
0.0
  9
$DIMEXE
 40
0.18
  9
$DIMTP
 40
0.0
  9
$DIMTM
 40
0.0
  9
$DIMTXT
 40
0.18
  9
$DIMCEN
 40
0.09
  9
$DIMTSZ
 40
0.0
  9
$DIMTOL
 70
     0
  9
$DIMLIM
 70
     0
  9
$DIMTIH
 70
     1
  9
$DIMTOH
 70
     1
  9
$DIMSE1
 70
     0
  9
$DIMSE2
 70
     0
  9
$DIMTAD
 70
     0
  9
$DIMZIN
 70
     0
  9
$DIMBLK
  1

  9
$DIMASO
 70
     1
  9
$DIMSHO
 70
     1
  9
$DIMPOST
  1

  9
$DIMAPOST
  1

  9
$DIMALT
 70
     0
  9
$DIMALTD
 70
     2
  9
$DIMALTF
 40
25.4
  9
$DIMLFAC
 40
1.0
  9
$DIMTOFL
 70
     0
  9
$DIMTVP
 40
0.0
  9
$DIMTIX
 70
     0
  9
$DIMSOXD
 70
     0
  9
$DIMSAH
 70
     0
  9
$DIMBLK1
  1

  9
$DIMBLK2
  1

  9
$DIMSTYLE
  2
STANDARD
  9
$DIMCLRD
 70
     0
  9
$DIMCLRE
 70
     0
  9
$DIMCLRT
 70
     0
  9
$DIMTFAC
 40
1.0
  9
$DIMGAP
 40
0.09
  9
$DIMJUST
 70
     0
  9
$DIMSD1
 70
     0
  9
$DIMSD2
 70
     0
  9
$DIMTOLJ
 70
     1
  9
$DIMTZIN
 70
     0
  9
$DIMALTZ
 70
     0
  9
$DIMALTTZ
 70
     0
  9
$DIMFIT
 70
     3
  9
$DIMUPT
 70
     0
  9
$DIMUNIT
 70
     2
  9
$DIMDEC
 70
     4
  9
$DIMTDEC
 70
     4
  9
$DIMALTU
 70
     2
  9
$DIMALTTD
 70
     2
  9
$DIMTXSTY
  7
STANDARD
  9
$DIMAUNIT
 70
     0
  9
$LUNITS
 70
     2
  9
$LUPREC
 70
     4
  9
$SKETCHINC
 40
0.1
  9
$FILLETRAD
 40
0.0
  9
$AUNITS
 70
     0
  9
$AUPREC
 70
     0
  9
$MENU
  1
.
  9
$ELEVATION
 40
0.0
  9
$PELEVATION
 40
0.0
  9
$THICKNESS
 40
0.0
  9
$LIMCHECK
 70
     0
  9
$BLIPMODE
 70
     0
  9
$CHAMFERA
 40
0.0
  9
$CHAMFERB
 40
0.0
  9
$CHAMFERC
 40
0.0
  9
$CHAMFERD
 40
0.0
  9
$SKPOLY
 70
     0
  9
$TDCREATE
 40
2451905.685766030
  9
$TDUPDATE
 40
2451905.685773090
  9
$TDINDWG
 40
0.0000077662
  9
$TDUSRTIMER
 40
0.0000077662
  9
$USRTIMER
 70
     1
  9
$ANGBASE
 50
0.0
  9
$ANGDIR
 70
     0
  9
$PDMODE
 70
     0
  9
$PDSIZE
 40
0.0
  9
$PLINEWID
 40
0.0
  9
$COORDS
 70
     0
  9
$SPLFRAME
 70
     0
  9
$SPLINETYPE
 70
     6
  9
$SPLINESEGS
 70
     8
  9
$ATTDIA
 70
     0
  9
$ATTREQ
 70
     1
  9
$HANDLING
 70
 10241
  9
$HANDSEED
  5
E2A
  9
$SURFTAB1
 70
     6
  9
$SURFTAB2
 70
     6
  9
$SURFTYPE
 70
     6
  9
$SURFU
 70
     6
  9
$SURFV
 70
     6
  9
$UCSNAME
  2

  9
$UCSORG
 10
0.0
 20
0.0
 30
0.0
  9
$UCSXDIR
 10
1.0
 20
0.0
 30
0.0
  9
$UCSYDIR
 10
0.0
 20
1.0
 30
0.0
  9
$PUCSNAME
  2

  9
$PUCSORG
 10
0.0
 20
0.0
 30
0.0
  9
$PUCSXDIR
 10
1.0
 20
0.0
 30
0.0
  9
$PUCSYDIR
 10
0.0
 20
1.0
 30
0.0
  9
$USERI1
 70
     0
  9
$USERI2
 70
     0
  9
$USERI3
 70
     0
  9
$USERI4
 70
     0
  9
$USERI5
 70
     0
  9
$USERR1
 40
0.0
  9
$USERR2
 40
0.0
  9
$USERR3
 40
0.0
  9
$USERR4
 40
0.0
  9
$USERR5
 40
0.0
  9
$WORLDVIEW
 70
     1
  9
$SHADEDGE
 70
     3
  9
$SHADEDIF
 70
    70
  9
$TILEMODE
 70
     1
  9
$MAXACTVP
 70
    64
  9
$PINSBASE
 10
0.0
 20
0.0
 30
0.0
  9
$PLIMCHECK
 70
     0
  9
$PEXTMIN
 10
1.000000000000000E+20
 20
1.000000000000000E+20
 30
1.000000000000000E+20
  9
$PEXTMAX
 10
-1.000000000000000E+20
 20
-1.000000000000000E+20
 30
-1.000000000000000E+20
  9
$PLIMMIN
 10
0.0
 20
0.0
  9
$PLIMMAX
 10
12.0
 20
9.0
  9
$UNITMODE
 70
     0
  9
$VISRETAIN
 70
     1
  9
$PLINEGEN
 70
     0
  9
$PSLTSCALE
 70
     1
  9
$TREEDEPTH
 70
  3020
  9
$PICKSTYLE
 70
     1
  9
$CMLSTYLE
  2
STANDARD
  9
$CMLJUST
 70
     0
  9
$CMLSCALE
 40
1.0
  9
$SAVEIMAGES
 70
     1
  0
ENDSEC
  0
SECTION
  2
CLASSES
  0
CLASS
  1
ACDBDICTIONARYWDFLT
  2
AcDbDictionaryWithDefault
  3
AutoCAD 2000
 90
    32768
280
     0
281
     0
  0
CLASS
  1
ACDBPLACEHOLDER
  2
AcDbPlaceHolder
  3
AutoCAD 2000
 90
    32768
280
     0
281
     0
  0
CLASS
  1
LAYOUT
  2
AcDbLayout
  3
AutoCAD 2000
 90
    32768
280
     0
281
     0
  0
CLASS
  1
LONG_TRANSACTION
  2
AcDbLongTransaction
  3
AutoCAD 2000
 90
    32768
280
     0
281
     0
  0
CLASS
  1
LWPOLYLINE
  2
AcDbPolyline
  3
AutoCAD 2000
 90
    32768
280
     0
281
     1
  0
CLASS
  1
HATCH
  2
AcDbHatch
  3
AutoCAD 2000
 90
    32768
280
     0
281
     1
  0
CLASS
  1
XRECORD
  2
AcDbXrecord
  3
AutoCAD 2000
 90
    32768
280
     0
281
     0
  0
ENDSEC
  0
SECTION
  2
TABLES
  0
TABLE
  2
VPORT
  5
8
330
0
100
AcDbSymbolTable
 70
     3
  0
VPORT
  5
AB5
330
8
100
AcDbSymbolTableRecord
100
AcDbViewportTableRecord
  2
*ACTIVE
 70
     0
 10
0.0
 20
0.0
 11
1.0
 21
1.0
 12
0.9406923387454497
 22
0.2500009092083815
 13
0.0
 23
0.0
 14
1.0
 24
1.0
 15
0.0
 25
0.0
 16
0.0
 26
0.0
 36
1.0
 17
0.0
 27
0.0
 37
0.0
 40
394.8410369401233
 41
1.750922509225092
 42
50.0
 43
0.0
 44
0.0
 50
0.0
 51
0.0
 71
     0
 72
   100
 73
     1
 74
     1
 75
     0
 76
     0
 77
     0
 78
     0
  0
ENDTAB
  0
TABLE
  2
LTYPE
  5
5
330
0
100
AcDbSymbolTable
 70
     5
  0
LTYPE
  5
13
330
5
100
AcDbSymbolTableRecord
100
AcDbLinetypeTableRecord
  2
BYBLOCK
 70
     0
  3

 72
    65
 73
     0
 40
0.0
  0
LTYPE
  5
14
330
5
100
AcDbSymbolTableRecord
100
AcDbLinetypeTableRecord
  2
BYLAYER
 70
     0
  3

 72
    65
 73
     0
 40
0.0
  0
LTYPE
  5
15
330
5
100
AcDbSymbolTableRecord
100
AcDbLinetypeTableRecord
  2
CONTINUOUS
 70
     0
  3
Solid-Line
 72
    65
 73
     0
 40
0.0
  0
LTYPE
  5
22
330
5
100
AcDbSymbolTableRecord
100
AcDbLinetypeTableRecord
  2
DASHED
 70
     0
  3
DASHED
 72
    65
 73
     2
 40
0.75
 49
0.5
 74
     0
 49
-0.25
 74
     0
  0
LTYPE
  5
23
330
5
100
AcDbSymbolTableRecord
100
AcDbLinetypeTableRecord
  2
HIDDEN
 70
     0
  3
HIDDEN
 72
    65
 73
     2
 40
0.375
 49
0.25
 74
     0
 49
-0.125
 74
     0
  0
LTYPE
  5
24
330
5
100
AcDbSymbolTableRecord
100
AcDbLinetypeTableRecord
  2
CENTER
 70
     0
  3
CENTER
 72
    65
 73
     4
 40
2.0
 49
1.25
 74
     0
 49
-0.25
 74
     0
 49
0.25
 74
     0
 49
-0.25
 74
     0
  0
LTYPE
  5
25
330
5
100
AcDbSymbolTableRecord
100
AcDbLinetypeTableRecord
  2
PHANTOM
 70
     0
  3
PHANTOM
 72
    65
 73
     6
 40
2.5
 49
1.25
 74
     0
 49
-0.25
 74
     0
 49
0.25
 74
     0
 49
-0.25
 74
     0
 49
0.25
 74
     0
 49
-0.25
 74
     0
  0
ENDTAB
  0
TABLE
  2
LAYER
  5
2
330
0
100
AcDbSymbolTable
 70
     1
  0
LAYER
  5
10
330
2
100
AcDbSymbolTableRecord
100
AcDbLayerTableRecord
  2
0
 70
     0
 62
     7
  6
CONTINUOUS
  0
ENDTAB
  0
TABLE
  2
STYLE
  5
3
330
0
100
AcDbSymbolTable
 70
     3
  0
STYLE
  5
11
330
3
100
AcDbSymbolTableRecord
100
AcDbTextStyleTableRecord
  2
STANDARD
 70
     0
 40
0.0
 41
1.0
 50
0.0
 71
     0
 42
0.2
  3
txt
  4

  0
STYLE
  5
26
330
3
100
AcDbSymbolTableRecord
100
AcDbTextStyleTableRecord
  2
MONOTXT
 70
     0
 40
0.0
 41
1.0
 50
0.0
 71
     0
 42
0.2
  3
monotxt
  4

  0
STYLE
  5
27
330
3
100
AcDbSymbolTableRecord
100
AcDbTextStyleTableRecord
  2
BIGFONT
 70
     0
 40
0.0
 41
1.0
 50
0.0
 71
     0
 42
0.2
  3
txt
  4
bigfont
  0
ENDTAB
  0
TABLE
  2
VIEW
  5
6
330
0
100
AcDbSymbolTable
 70
     0
  0
ENDTAB
  0
TABLE
  2
UCS
  5
7
330
0
100
AcDbSymbolTable
 70
     0
  0
ENDTAB
  0
TABLE
  2
APPID
  5
9
330
0
100
AcDbSymbolTable
 70
     1
  0
APPID
  5
12
330
9
100
AcDbSymbolTableRecord
100
AcDbRegAppTableRecord
  2
ACAD
 70
     0
  0
ENDTAB
  0
TABLE
  2
DIMSTYLE
  5
A
330
0
100
AcDbSymbolTable
 70
     1
  0
DIMSTYLE
105
70E
330
A
100
AcDbSymbolTableRecord
100
AcDbDimStyleTableRecord
  2
STANDARD
 70
     0
  3

  4

  5

  6

  7

 40
1.0
 41
0.18
 42
0.0625
 43
0.38
 44
0.18
 45
0.0
 46
0.0
 47
0.0
 48
0.0
140
0.18
141
0.09
142
0.0
143
25.4
144
1.0
145
0.0
146
1.0
147
0.09
 71
     0
 72
     0
 73
     1
 74
     1
 75
     0
 76
     0
 77
     0
 78
     0
170
     0
171
     2
172
     0
173
     0
174
     0
175
     0
176
     0
177
     0
178
     0
270
     2
271
     4
272
     4
273
     2
274
     2
340
11
275
     0
280
     0
281
     0
282
     0
283
     1
284
     0
285
     0
286
     0
287
     3
288
     0
  0
ENDTAB
  0
TABLE
  2
BLOCK_RECORD
  5
1
330
0
100
AcDbSymbolTable
 70
     0
  0
BLOCK_RECORD
  5
1E
102
{ACAD_XDICTIONARY
360
AB8
102
}
330
1
100
AcDbSymbolTableRecord
100
AcDbBlockTableRecord
  2
*MODEL_SPACE
  0
BLOCK_RECORD
  5
1A
102
{ACAD_XDICTIONARY
360
AB6
102
}
330
1
100
AcDbSymbolTableRecord
100
AcDbBlockTableRecord
  2
*PAPER_SPACE
  0
ENDTAB
  0
ENDSEC
  0
SECTION
  2
BLOCKS
  0
BLOCK
  5
1F
330
1E
100
AcDbEntity
  8
0
100
AcDbBlockBegin
  2
*MODEL_SPACE
 70
     0
 10
0.0
 20
0.0
 30
0.0
  3
*MODEL_SPACE
  1

  0
ENDBLK
  5
20
330
1E
100
AcDbEntity
  8
0
100
AcDbBlockEnd
  0
BLOCK
  5
1B
330
1A
100
AcDbEntity
 67
     1
  8
0
100
AcDbBlockBegin
  2
*PAPER_SPACE
 70
     0
 10
0.0
 20
0.0
 30
0.0
  3
*PAPER_SPACE
  1

  0
ENDBLK
  5
1C
330
1A
100
AcDbEntity
 67
     1
  8
0
100
AcDbBlockEnd
  0
ENDSEC
  0
SECTION
  2
ENTITIES
  0
LINE
  5
2C
330
1E
100
AcDbEntity
  8
0
  6
CENTER
 62
     2
100
AcDbLine
 10
-70.0
 20
-71.5
 30
0.0
 11
-70.0
 21
72.0
 31
0.0
  0
LINE
  5
2D
330
1E
100
AcDbEntity
  8
0
 62
     7
100
AcDbLine
 10
-18.5
 20
17.75
 30
0.0
 11
-14.0
 21
17.75
 31
0.0
  0
LINE
  5
2E
330
1E
100
AcDbEntity
  8
0
 62
     7
100
AcDbLine
 10
-18.5
 20
26.25
 30
0.0
 11
-14.0
 21
26.25
 31
0.0
  0
LINE
  5
2F
330
1E
100
AcDbEntity
  8
0
  6
CENTER
 62
     2
100
AcDbLine
 10
-38.5
 20
22.0
 30
0.0
 11
-11.5
 21
22.0
 31
0.0
  0
LINE
  5
30
330
1E
100
AcDbEntity
  8
0
  6
CENTER
 62
     2
100
AcDbLine
 10
-74.0
 20
-23.0
 30
0.0
 11
-66.0
 21
-23.0
 31
0.0
  0
LINE
  5
31
330
1E
100
AcDbEntity
  8
0
 62
     7
100
AcDbLine
 10
-68.0
 20
-21.0
 30
0.0
 11
-68.0
 21
-23.0
 31
0.0
  0
LINE
  5
32
330
1E
100
AcDbEntity
  8
0
 62
     7
100
AcDbLine
 10
-72.0
 20
-21.0
 30
0.0
 11
-72.0
 21
-23.0
 31
0.0
  0
ARC
  5
33
330
1E
100
AcDbEntity
  8
0
 62
     7
100
AcDbCircle
 10
-70.0
 20
-23.0
 30
0.0
 40
2.0
100
AcDbArc
 50
180.0
 51
0.0
  0
ARC
  5
34
330
1E
100
AcDbEntity
  8
0
 62
     7
100
AcDbCircle
 10
-70.0
 20
-21.0
 30
0.0
 40
2.0
100
AcDbArc
 50
0.0
 51
180.0
  0
LINE
  5
35
330
1E
100
AcDbEntity
  8
0
  6
CENTER
 62
     2
100
AcDbLine
 10
-74.0
 20
-21.0
 30
0.0
 11
-66.0
 21
-21.0
 31
0.0
  0
LINE
  5
36
330
1E
100
AcDbEntity
  8
0
 62
     7
100
AcDbLine
 10
-70.0
 20
-30.0
 30
0.0
 11
-38.5
 21
-30.0
 31
0.0
  0
LINE
  5
37
330
1E
100
AcDbEntity
  8
0
 62
     7
100
AcDbLine
 10
-70.0
 20
30.0
 30
0.0
 11
-38.5
 21
30.0
 31
0.0
  0
ARC
  5
38
330
1E
100
AcDbEntity
  8
0
 62
     7
100
AcDbCircle
 10
-70.0
 20
0.0
 30
0.0
 40
30.0
100
AcDbArc
 50
90.00000020000001
 51
270.0
  0
CIRCLE
  5
39
330
1E
100
AcDbEntity
  8
0
 62
     7
100
AcDbCircle
 10
-70.0
 20
0.0
 30
0.0
 40
29.5
  0
LINE
  5
3A
330
1E
100
AcDbEntity
  8
0
 62
     7
100
AcDbLine
 10
-41.0
 20
-67.8
 30
0.0
 11
-49.0
 21
-67.8
 31
0.0
  0
LINE
  5
3B
330
1E
100
AcDbEntity
  8
0
 62
     7
100
AcDbLine
 10
-44.5
 20
-68.09999999999999
 30
0.0
 11
-45.49999999999999
 21
-68.09999999999999
 31
0.0
  0
LINE
  5
3C
330
1E
100
AcDbEntity
  8
0
 62
     7
100
AcDbLine
 10
-49.0
 20
-68.7
 30
0.0
 11
-45.49999999999999
 21
-68.7
 31
0.0
  0
LINE
  5
3D
330
1E
100
AcDbEntity
  8
0
 62
     7
100
AcDbLine
 10
-45.49999999999999
 20
-68.9
 30
0.0
 11
-48.79999999999999
 21
-68.9
 31
0.0
  0
LINE
  5
3E
330
1E
100
AcDbEntity
  8
0
 62
     7
100
AcDbLine
 10
-45.49999999999999
 20
-68.09999999999999
 30
0.0
 11
-45.49999999999999
 21
-68.9
 31
0.0
  0
LINE
  5
3F
330
1E
100
AcDbEntity
  8
0
 62
     7
100
AcDbLine
 10
-48.79999999999999
 20
-68.9
 30
0.0
 11
-49.0
 21
-68.7
 31
0.0
  0
LINE
  5
40
330
1E
100
AcDbEntity
  8
0
 62
     7
100
AcDbLine
 10
-49.0
 20
-67.8
 30
0.0
 11
-49.0
 21
-68.7
 31
0.0
  0
LINE
  5
41
330
1E
100
AcDbEntity
  8
0
 62
     7
100
AcDbLine
 10
-41.0
 20
-68.7
 30
0.0
 11
-44.5
 21
-68.7
 31
0.0
  0
LINE
  5
42
330
1E
100
AcDbEntity
  8
0
 62
     7
100
AcDbLine
 10
-44.5
 20
-68.09999999999999
 30
0.0
 11
-44.5
 21
-68.9
 31
0.0
  0
LINE
  5
43
330
1E
100
AcDbEntity
  8
0
 62
     7
100
AcDbLine
 10
-41.2
 20
-68.9
 30
0.0
 11
-41.0
 21
-68.7
 31
0.0
  0
LINE
  5
44
330
1E
100
AcDbEntity
  8
0
 62
     7
100
AcDbLine
 10
-41.2
 20
-68.9
 30
0.0
 11
-44.5
 21
-68.9
 31
0.0
  0
LINE
  5
45
330
1E
100
AcDbEntity
  8
0
 62
     7
100
AcDbLine
 10
-41.0
 20
-67.8
 30
0.0
 11
-41.0
 21
-68.7
 31
0.0
  0
LINE
  5
46
330
1E
100
AcDbEntity
  8
0
 62
     7
100
AcDbLine
 10
-41.1
 20
-67.5
 30
0.0
 11
-41.1
 21
-67.8
 31
0.0
  0
LINE
  5
47
330
1E
100
AcDbEntity
  8
0
 62
     7
100
AcDbLine
 10
-48.9
 20
-67.5
 30
0.0
 11
-48.9
 21
-67.8
 31
0.0
  0
LINE
  5
48
330
1E
100
AcDbEntity
  8
0
 62
     7
100
AcDbLine
 10
-91.0
 20
-67.8
 30
0.0
 11
-99.0
 21
-67.8
 31
0.0
  0
LINE
  5
49
330
1E
100
AcDbEntity
  8
0
 62
     7
100
AcDbLine
 10
-94.50000000000001
 20
-68.09999999999999
 30
0.0
 11
-95.5
 21
-68.09999999999999
 31
0.0
  0
LINE
  5
4A
330
1E
100
AcDbEntity
  8
0
 62
     7
100
AcDbLine
 10
-99.0
 20
-68.7
 30
0.0
 11
-95.5
 21
-68.7
 31
0.0
  0
LINE
  5
4B
330
1E
100
AcDbEntity
  8
0
 62
     7
100
AcDbLine
 10
-95.5
 20
-68.9
 30
0.0
 11
-98.8
 21
-68.9
 31
0.0
  0
LINE
  5
4C
330
1E
100
AcDbEntity
  8
0
 62
     7
100
AcDbLine
 10
-95.5
 20
-68.09999999999999
 30
0.0
 11
-95.5
 21
-68.9
 31
0.0
  0
LINE
  5
4D
330
1E
100
AcDbEntity
  8
0
 62
     7
100
AcDbLine
 10
-98.8
 20
-68.9
 30
0.0
 11
-99.0
 21
-68.7
 31
0.0
  0
LINE
  5
4E
330
1E
100
AcDbEntity
  8
0
 62
     7
100
AcDbLine
 10
-99.0
 20
-67.8
 30
0.0
 11
-99.0
 21
-68.7
 31
0.0
  0
LINE
  5
4F
330
1E
100
AcDbEntity
  8
0
 62
     7
100
AcDbLine
 10
-91.0
 20
-68.7
 30
0.0
 11
-94.50000000000001
 21
-68.7
 31
0.0
  0
LINE
  5
50
330
1E
100
AcDbEntity
  8
0
 62
     7
100
AcDbLine
 10
-94.50000000000001
 20
-68.09999999999999
 30
0.0
 11
-94.50000000000001
 21
-68.9
 31
0.0
  0
LINE
  5
51
330
1E
100
AcDbEntity
  8
0
 62
     7
100
AcDbLine
 10
-91.2
 20
-68.9
 30
0.0
 11
-91.0
 21
-68.7
 31
0.0
  0
LINE
  5
52
330
1E
100
AcDbEntity
  8
0
 62
     7
100
AcDbLine
 10
-91.2
 20
-68.9
 30
0.0
 11
-94.50000000000001
 21
-68.9
 31
0.0
  0
LINE
  5
53
330
1E
100
AcDbEntity
  8
0
 62
     7
100
AcDbLine
 10
-91.0
 20
-67.8
 30
0.0
 11
-91.0
 21
-68.7
 31
0.0
  0
LINE
  5
54
330
1E
100
AcDbEntity
  8
0
 62
     7
100
AcDbLine
 10
-91.09999999999999
 20
-67.5
 30
0.0
 11
-91.09999999999999
 21
-67.8
 31
0.0
  0
LINE
  5
55
330
1E
100
AcDbEntity
  8
0
 62
     7
100
AcDbLine
 10
-98.9
 20
-67.5
 30
0.0
 11
-98.9
 21
-67.8
 31
0.0
  0
LINE
  5
56
330
1E
100
AcDbEntity
  8
0
 62
     7
100
AcDbLine
 10
-41.0
 20
67.8
 30
0.0
 11
-41.0
 21
68.7
 31
0.0
  0
LINE
  5
57
330
1E
100
AcDbEntity
  8
0
 62
     7
100
AcDbLine
 10
-41.2
 20
68.9
 30
0.0
 11
-44.5
 21
68.9
 31
0.0
  0
LINE
  5
58
330
1E
100
AcDbEntity
  8
0
 62
     7
100
AcDbLine
 10
-41.2
 20
68.9
 30
0.0
 11
-41.0
 21
68.7
 31
0.0
  0
LINE
  5
59
330
1E
100
AcDbEntity
  8
0
 62
     7
100
AcDbLine
 10
-44.5
 20
68.09999999999999
 30
0.0
 11
-44.5
 21
68.9
 31
0.0
  0
LINE
  5
5A
330
1E
100
AcDbEntity
  8
0
 62
     7
100
AcDbLine
 10
-41.0
 20
68.7
 30
0.0
 11
-44.5
 21
68.7
 31
0.0
  0
LINE
  5
5B
330
1E
100
AcDbEntity
  8
0
 62
     7
100
AcDbLine
 10
-49.0
 20
67.8
 30
0.0
 11
-49.0
 21
68.7
 31
0.0
  0
LINE
  5
5C
330
1E
100
AcDbEntity
  8
0
 62
     7
100
AcDbLine
 10
-48.79999999999999
 20
68.9
 30
0.0
 11
-49.0
 21
68.7
 31
0.0
  0
LINE
  5
5D
330
1E
100
AcDbEntity
  8
0
 62
     7
100
AcDbLine
 10
-45.49999999999999
 20
68.09999999999999
 30
0.0
 11
-45.49999999999999
 21
68.9
 31
0.0
  0
LINE
  5
5E
330
1E
100
AcDbEntity
  8
0
 62
     7
100
AcDbLine
 10
-45.49999999999999
 20
68.9
 30
0.0
 11
-48.79999999999999
 21
68.9
 31
0.0
  0
LINE
  5
5F
330
1E
100
AcDbEntity
  8
0
 62
     7
100
AcDbLine
 10
-49.0
 20
68.7
 30
0.0
 11
-45.49999999999999
 21
68.7
 31
0.0
  0
LINE
  5
60
330
1E
100
AcDbEntity
  8
0
 62
     7
100
AcDbLine
 10
-44.5
 20
68.09999999999999
 30
0.0
 11
-45.49999999999999
 21
68.09999999999999
 31
0.0
  0
LINE
  5
61
330
1E
100
AcDbEntity
  8
0
 62
     7
100
AcDbLine
 10
-41.0
 20
67.8
 30
0.0
 11
-49.0
 21
67.8
 31
0.0
  0
LINE
  5
62
330
1E
100
AcDbEntity
  8
0
 62
     7
100
AcDbLine
 10
-48.9
 20
67.5
 30
0.0
 11
-48.9
 21
67.8
 31
0.0
  0
LINE
  5
63
330
1E
100
AcDbEntity
  8
0
 62
     7
100
AcDbLine
 10
-41.1
 20
67.5
 30
0.0
 11
-41.1
 21
67.8
 31
0.0
  0
LINE
  5
64
330
1E
100
AcDbEntity
  8
0
  6
CENTER
 62
     2
100
AcDbLine
 10
-45.0
 20
70.9
 30
0.0
 11
-45.0
 21
67.5
 31
0.0
  0
LINE
  5
65
330
1E
100
AcDbEntity
  8
0
 62
     7
100
AcDbLine
 10
-91.0
 20
67.8
 30
0.0
 11
-91.0
 21
68.7
 31
0.0
  0
LINE
  5
66
330
1E
100
AcDbEntity
  8
0
 62
     7
100
AcDbLine
 10
-91.2
 20
68.9
 30
0.0
 11
-94.50000000000001
 21
68.9
 31
0.0
  0
LINE
  5
67
330
1E
100
AcDbEntity
  8
0
 62
     7
100
AcDbLine
 10
-91.2
 20
68.9
 30
0.0
 11
-91.0
 21
68.7
 31
0.0
  0
LINE
  5
68
330
1E
100
AcDbEntity
  8
0
 62
     7
100
AcDbLine
 10
-94.50000000000001
 20
68.09999999999999
 30
0.0
 11
-94.50000000000001
 21
68.9
 31
0.0
  0
LINE
  5
69
330
1E
100
AcDbEntity
  8
0
 62
     7
100
AcDbLine
 10
-91.0
 20
68.7
 30
0.0
 11
-94.50000000000001
 21
68.7
 31
0.0
  0
LINE
  5
6A
330
1E
100
AcDbEntity
  8
0
 62
     7
100
AcDbLine
 10
-99.0
 20
67.8
 30
0.0
 11
-99.0
 21
68.7
 31
0.0
  0
LINE
  5
6B
330
1E
100
AcDbEntity
  8
0
 62
     7
100
AcDbLine
 10
-98.8
 20
68.9
 30
0.0
 11
-99.0
 21
68.7
 31
0.0
  0
LINE
  5
6C
330
1E
100
AcDbEntity
  8
0
 62
     7
100
AcDbLine
 10
-95.5
 20
68.09999999999999
 30
0.0
 11
-95.5
 21
68.9
 31
0.0
  0
LINE
  5
6D
330
1E
100
AcDbEntity
  8
0
 62
     7
100
AcDbLine
 10
-95.5
 20
68.9
 30
0.0
 11
-98.8
 21
68.9
 31
0.0
  0
LINE
  5
6E
330
1E
100
AcDbEntity
  8
0
 62
     7
100
AcDbLine
 10
-99.0
 20
68.7
 30
0.0
 11
-95.5
 21
68.7
 31
0.0
  0
LINE
  5
6F
330
1E
100
AcDbEntity
  8
0
 62
     7
100
AcDbLine
 10
-94.50000000000001
 20
68.09999999999999
 30
0.0
 11
-95.5
 21
68.09999999999999
 31
0.0
  0
LINE
  5
70
330
1E
100
AcDbEntity
  8
0
 62
     7
100
AcDbLine
 10
-91.0
 20
67.8
 30
0.0
 11
-99.0
 21
67.8
 31
0.0
  0
LINE
  5
71
330
1E
100
AcDbEntity
  8
0
 62
     7
100
AcDbLine
 10
-98.9
 20
67.5
 30
0.0
 11
-98.9
 21
67.8
 31
0.0
  0
LINE
  5
72
330
1E
100
AcDbEntity
  8
0
 62
     7
100
AcDbLine
 10
-91.09999999999999
 20
67.5
 30
0.0
 11
-91.09999999999999
 21
67.8
 31
0.0
  0
LINE
  5
73
330
1E
100
AcDbEntity
  8
0
  6
CENTER
 62
     2
100
AcDbLine
 10
-95.0
 20
70.9
 30
0.0
 11
-95.0
 21
67.5
 31
0.0
  0
LINE
  5
74
330
1E
100
AcDbEntity
  8
0
 62
     7
100
AcDbLine
 10
-102.0999999999999
 20
-62.5
 30
0.0
 11
-102.0999999999999
 21
-54.5
 31
0.0
  0
LINE
  5
75
330
1E
100
AcDbEntity
  8
0
 62
     7
100
AcDbLine
 10
-102.4
 20
-59.0
 30
0.0
 11
-102.4
 21
-58.0
 31
0.0
  0
LINE
  5
76
330
1E
100
AcDbEntity
  8
0
 62
     7
100
AcDbLine
 10
-102.0999999999999
 20
-62.5
 30
0.0
 11
-103.0
 21
-62.5
 31
0.0
  0
LINE
  5
77
330
1E
100
AcDbEntity
  8
0
 62
     7
100
AcDbLine
 10
-103.2
 20
-62.3
 30
0.0
 11
-103.2
 21
-59.0
 31
0.0
  0
LINE
  5
78
330
1E
100
AcDbEntity
  8
0
 62
     7
100
AcDbLine
 10
-103.2
 20
-62.3
 30
0.0
 11
-103.0
 21
-62.5
 31
0.0
  0
LINE
  5
79
330
1E
100
AcDbEntity
  8
0
 62
     7
100
AcDbLine
 10
-102.4
 20
-59.0
 30
0.0
 11
-103.2
 21
-59.0
 31
0.0
  0
LINE
  5
7A
330
1E
100
AcDbEntity
  8
0
 62
     7
100
AcDbLine
 10
-103.0
 20
-62.5
 30
0.0
 11
-103.0
 21
-59.0
 31
0.0
  0
LINE
  5
7B
330
1E
100
AcDbEntity
  8
0
 62
     7
100
AcDbLine
 10
-102.0999999999999
 20
-54.5
 30
0.0
 11
-103.0
 21
-54.5
 31
0.0
  0
LINE
  5
7C
330
1E
100
AcDbEntity
  8
0
 62
     7
100
AcDbLine
 10
-103.2
 20
-54.7
 30
0.0
 11
-103.0
 21
-54.5
 31
0.0
  0
LINE
  5
7D
330
1E
100
AcDbEntity
  8
0
 62
     7
100
AcDbLine
 10
-102.4
 20
-58.0
 30
0.0
 11
-103.2
 21
-58.0
 31
0.0
  0
LINE
  5
7E
330
1E
100
AcDbEntity
  8
0
 62
     7
100
AcDbLine
 10
-103.2
 20
-58.0
 30
0.0
 11
-103.2
 21
-54.7
 31
0.0
  0
LINE
  5
7F
330
1E
100
AcDbEntity
  8
0
 62
     7
100
AcDbLine
 10
-103.0
 20
-54.5
 30
0.0
 11
-103.0
 21
-58.0
 31
0.0
  0
LINE
  5
80
330
1E
100
AcDbEntity
  8
0
 62
     7
100
AcDbLine
 10
-102.0999999999999
 20
-54.6
 30
0.0
 11
-101.5
 21
-54.6
 31
0.0
  0
LINE
  5
81
330
1E
100
AcDbEntity
  8
0
 62
     7
100
AcDbLine
 10
-102.0999999999999
 20
-62.4
 30
0.0
 11
-101.5
 21
-62.4
 31
0.0
  0
LINE
  5
82
330
1E
100
AcDbEntity
  8
0
  6
CENTER
 62
     2
100
AcDbLine
 10
-101.5
 20
-58.5
 30
0.0
 11
-105.2
 21
-58.5
 31
0.0
  0
LINE
  5
83
330
1E
100
AcDbEntity
  8
0
 62
     7
100
AcDbLine
 10
-102.0999999999999
 20
54.5
 30
0.0
 11
-102.0999999999999
 21
62.5
 31
0.0
  0
LINE
  5
84
330
1E
100
AcDbEntity
  8
0
 62
     7
100
AcDbLine
 10
-102.4
 20
58.0
 30
0.0
 11
-102.4
 21
59.0
 31
0.0
  0
LINE
  5
85
330
1E
100
AcDbEntity
  8
0
 62
     7
100
AcDbLine
 10
-102.0999999999999
 20
54.5
 30
0.0
 11
-103.0
 21
54.5
 31
0.0
  0
LINE
  5
86
330
1E
100
AcDbEntity
  8
0
 62
     7
100
AcDbLine
 10
-103.2
 20
54.7
 30
0.0
 11
-103.2
 21
58.0
 31
0.0
  0
LINE
  5
87
330
1E
100
AcDbEntity
  8
0
 62
     7
100
AcDbLine
 10
-103.2
 20
54.7
 30
0.0
 11
-103.0
 21
54.5
 31
0.0
  0
LINE
  5
88
330
1E
100
AcDbEntity
  8
0
 62
     7
100
AcDbLine
 10
-102.4
 20
58.0
 30
0.0
 11
-103.2
 21
58.0
 31
0.0
  0
LINE
  5
89
330
1E
100
AcDbEntity
  8
0
 62
     7
100
AcDbLine
 10
-103.0
 20
54.5
 30
0.0
 11
-103.0
 21
58.0
 31
0.0
  0
LINE
  5
8A
330
1E
100
AcDbEntity
  8
0
 62
     7
100
AcDbLine
 10
-102.0999999999999
 20
62.5
 30
0.0
 11
-103.0
 21
62.5
 31
0.0
  0
LINE
  5
8B
330
1E
100
AcDbEntity
  8
0
 62
     7
100
AcDbLine
 10
-103.2
 20
62.3
 30
0.0
 11
-103.0
 21
62.5
 31
0.0
  0
LINE
  5
8C
330
1E
100
AcDbEntity
  8
0
 62
     7
100
AcDbLine
 10
-102.4
 20
59.0
 30
0.0
 11
-103.2
 21
59.0
 31
0.0
  0
LINE
  5
8D
330
1E
100
AcDbEntity
  8
0
 62
     7
100
AcDbLine
 10
-103.2
 20
59.0
 30
0.0
 11
-103.2
 21
62.3
 31
0.0
  0
LINE
  5
8E
330
1E
100
AcDbEntity
  8
0
 62
     7
100
AcDbLine
 10
-103.0
 20
62.5
 30
0.0
 11
-103.0
 21
59.0
 31
0.0
  0
LINE
  5
8F
330
1E
100
AcDbEntity
  8
0
 62
     7
100
AcDbLine
 10
-102.0999999999999
 20
62.4
 30
0.0
 11
-101.5
 21
62.4
 31
0.0
  0
LINE
  5
90
330
1E
100
AcDbEntity
  8
0
 62
     7
100
AcDbLine
 10
-102.0999999999999
 20
54.6
 30
0.0
 11
-101.5
 21
54.6
 31
0.0
  0
LINE
  5
91
330
1E
100
AcDbEntity
  8
0
  6
CENTER
 62
     2
100
AcDbLine
 10
-101.5
 20
58.5
 30
0.0
 11
-105.2
 21
58.5
 31
0.0
  0
CIRCLE
  5
92
330
1E
100
AcDbEntity
  8
0
  6
CENTER
 62
     2
100
AcDbCircle
 10
-70.0
 20
0.0
 30
0.0
 40
22.0
  0
CIRCLE
  5
93
330
1E
100
AcDbEntity
  8
0
 62
     7
100
AcDbCircle
 10
-70.0
 20
-36.0
 30
0.0
 40
3.299999999999999
  0
LINE
  5
94
330
1E
100
AcDbEntity
  8
0
  6
CENTER
 62
     2
100
AcDbLine
 10
-64.7
 20
-36.0
 30
0.0
 11
-75.3
 21
-36.0
 31
0.0
  0
CIRCLE
  5
95
330
1E
100
AcDbEntity
  8
0
 62
     7
100
AcDbCircle
 10
-70.0
 20
36.0
 30
0.0
 40
3.299999999999999
  0
LINE
  5
96
330
1E
100
AcDbEntity
  8
0
  6
CENTER
 62
     2
100
AcDbLine
 10
-64.7
 20
36.0
 30
0.0
 11
-75.3
 21
36.0
 31
0.0
  0
LINE
  5
97
330
1E
100
AcDbEntity
  8
0
  6
CENTER
 62
     2
100
AcDbLine
 10
-92.0
 20
-60.75
 30
0.0
 11
-92.0
 21
-54.25
 31
0.0
  0
CIRCLE
  5
98
330
1E
100
AcDbEntity
  8
0
 62
     7
100
AcDbCircle
 10
-70.0
 20
0.0
 30
0.0
 40
3.35
  0
CIRCLE
  5
99
330
1E
100
AcDbEntity
  8
0
 62
     7
100
AcDbCircle
 10
-70.0
 20
0.0
 30
0.0
 40
6.5
  0
CIRCLE
  5
9A
330
1E
100
AcDbEntity
  8
0
 62
     7
100
AcDbCircle
 10
-70.0
 20
0.0
 30
0.0
 40
9.0
  0
LINE
  5
9B
330
1E
100
AcDbEntity
  8
0
  6
CENTER
 62
     2
100
AcDbLine
 10
-105.4999999999999
 20
0.0
 30
0.0
 11
-34.5
 21
0.0
 31
0.0
  0
CIRCLE
  5
9C
330
1E
100
AcDbEntity
  8
0
 62
     7
100
AcDbCircle
 10
-92.0
 20
-57.5
 30
0.0
 40
1.25
  0
LINE
  5
9D
330
1E
100
AcDbEntity
  8
0
  6
CENTER
 62
     2
100
AcDbLine
 10
-88.75
 20
-57.5
 30
0.0
 11
-95.25
 21
-57.5
 31
0.0
  0
CIRCLE
  5
9E
330
1E
100
AcDbEntity
  8
0
 62
     7
100
AcDbCircle
 10
-48.0
 20
57.5
 30
0.0
 40
1.25
  0
LINE
  5
9F
330
1E
100
AcDbEntity
  8
0
  6
CENTER
 62
     2
100
AcDbLine
 10
-48.0
 20
60.75
 30
0.0
 11
-48.0
 21
54.25
 31
0.0
  0
LINE
  5
A0
330
1E
100
AcDbEntity
  8
0
  6
CENTER
 62
     2
100
AcDbLine
 10
-51.25
 20
57.5
 30
0.0
 11
-44.75
 21
57.5
 31
0.0
  0
LINE
  5
A1
330
1E
100
AcDbEntity
  8
0
 62
     7
100
AcDbLine
 10
-37.9641016
 20
-28.9282032
 30
0.0
 11
-36.0358984
 21
-28.9282032
 31
0.0
  0
LINE
  5
A2
330
1E
100
AcDbEntity
  8
0
 62
     7
100
AcDbLine
 10
-37.9641016
 20
-15.0717968
 30
0.0
 11
-36.0358984
 21
-15.0717968
 31
0.0
  0
LINE
  5
A3
330
1E
100
AcDbEntity
  8
0
 62
     7
100
AcDbLine
 10
-36.0358984
 20
-18.5358984
 30
0.0
 11
-37.9641016
 21
-18.5358984
 31
0.0
  0
LINE
  5
A4
330
1E
100
AcDbEntity
  8
0
 62
     7
100
AcDbLine
 10
-36.0358984
 20
-25.4641016
 30
0.0
 11
-37.9641016
 21
-25.4641016
 31
0.0
  0
LINE
  5
A5
330
1E
100
AcDbEntity
  8
0
 62
     7
100
AcDbLine
 10
-35.5
 20
-28.0
 30
0.0
 11
-35.5
 21
-16.0
 31
0.0
  0
LINE
  5
A6
330
1E
100
AcDbEntity
  8
0
 62
     7
100
AcDbLine
 10
-35.5
 20
-28.0
 30
0.0
 11
-36.0358984
 21
-28.9282032
 31
0.0
  0
LINE
  5
A7
330
1E
100
AcDbEntity
  8
0
 62
     7
100
AcDbLine
 10
-35.5
 20
-16.0
 30
0.0
 11
-36.0358984
 21
-15.0717968
 31
0.0
  0
LINE
  5
A8
330
1E
100
AcDbEntity
  8
0
 62
     7
100
AcDbLine
 10
-38.5
 20
-16.0
 30
0.0
 11
-37.9641016
 21
-15.0717968
 31
0.0
  0
LINE
  5
A9
330
1E
100
AcDbEntity
  8
0
 62
     7
100
AcDbLine
 10
-38.5
 20
-28.0
 30
0.0
 11
-37.9641016
 21
-28.9282032
 31
0.0
  0
CIRCLE
  5
AA
330
1E
100
AcDbEntity
  8
0
 62
     7
100
AcDbCircle
 10
-92.0
 20
0.0
 30
0.0
 40
2.1
  0
CIRCLE
  5
AB
330
1E
100
AcDbEntity
  8
0
 62
     2
100
AcDbCircle
 10
-92.0
 20
0.0
 30
0.0
 40
2.5
  0
CIRCLE
  5
AC
330
1E
100
AcDbEntity
  8
0
 62
     7
100
AcDbCircle
 10
-70.0
 20
22.0
 30
0.0
 40
2.1
  0
CIRCLE
  5
AD
330
1E
100
AcDbEntity
  8
0
 62
     2
100
AcDbCircle
 10
-70.0
 20
22.0
 30
0.0
 40
2.5
  0
LINE
  5
AE
330
1E
100
AcDbEntity
  8
0
 62
     7
100
AcDbLine
 10
-38.5
 20
16.0
 30
0.0
 11
-37.9641016
 21
15.0717968
 31
0.0
  0
LINE
  5
AF
330
1E
100
AcDbEntity
  8
0
 62
     7
100
AcDbLine
 10
-38.5
 20
28.0
 30
0.0
 11
-37.9641016
 21
28.9282032
 31
0.0
  0
LINE
  5
B0
330
1E
100
AcDbEntity
  8
0
 62
     7
100
AcDbLine
 10
-35.5
 20
16.0
 30
0.0
 11
-36.0358984
 21
15.0717968
 31
0.0
  0
LINE
  5
B1
330
1E
100
AcDbEntity
  8
0
 62
     7
100
AcDbLine
 10
-35.5
 20
28.0
 30
0.0
 11
-36.0358984
 21
28.9282032
 31
0.0
  0
LINE
  5
B2
330
1E
100
AcDbEntity
  8
0
 62
     7
100
AcDbLine
 10
-35.5
 20
28.0
 30
0.0
 11
-35.5
 21
16.0
 31
0.0
  0
LINE
  5
B3
330
1E
100
AcDbEntity
  8
0
 62
     7
100
AcDbLine
 10
-36.0358984
 20
25.4641016
 30
0.0
 11
-37.9641016
 21
25.4641016
 31
0.0
  0
LINE
  5
B4
330
1E
100
AcDbEntity
  8
0
 62
     7
100
AcDbLine
 10
-36.0358984
 20
18.5358984
 30
0.0
 11
-37.9641016
 21
18.5358984
 31
0.0
  0
LINE
  5
B5
330
1E
100
AcDbEntity
  8
0
 62
     7
100
AcDbLine
 10
-37.9641016
 20
15.0717968
 30
0.0
 11
-36.0358984
 21
15.0717968
 31
0.0
  0
LINE
  5
B6
330
1E
100
AcDbEntity
  8
0
 62
     7
100
AcDbLine
 10
-37.9641016
 20
28.9282032
 30
0.0
 11
-36.0358984
 21
28.9282032
 31
0.0
  0
CIRCLE
  5
B7
330
1E
100
AcDbEntity
  8
0
 62
     7
100
AcDbCircle
 10
-54.44365079999999
 20
-15.5563492
 30
0.0
 40
2.5
  0
CIRCLE
  5
B8
330
1E
100
AcDbEntity
  8
0
 62
     2
100
AcDbCircle
 10
-54.44365079999999
 20
-15.5563492
 30
0.0
 40
3.0
  0
LINE
  5
B9
330
1E
100
AcDbEntity
  8
0
  6
CENTER
 62
     2
100
AcDbLine
 10
-57.9791847
 20
-12.0208153
 30
0.0
 11
-50.90811689999999
 21
-19.0918831
 31
0.0
  0
CIRCLE
  5
BA
330
1E
100
AcDbEntity
  8
0
 62
     7
100
AcDbCircle
 10
-85.55634920000001
 20
-15.5563492
 30
0.0
 40
2.5
  0
CIRCLE
  5
BB
330
1E
100
AcDbEntity
  8
0
 62
     2
100
AcDbCircle
 10
-85.55634920000001
 20
-15.5563492
 30
0.0
 40
3.0
  0
LINE
  5
BC
330
1E
100
AcDbEntity
  8
0
  6
CENTER
 62
     2
100
AcDbLine
 10
-82.02081529999999
 20
-12.0208153
 30
0.0
 11
-89.09188309999999
 21
-19.0918831
 31
0.0
  0
CIRCLE
  5
BD
330
1E
100
AcDbEntity
  8
0
 62
     7
100
AcDbCircle
 10
-85.55634920000001
 20
15.5563492
 30
0.0
 40
2.5
  0
CIRCLE
  5
BE
330
1E
100
AcDbEntity
  8
0
 62
     2
100
AcDbCircle
 10
-85.55634920000001
 20
15.5563492
 30
0.0
 40
3.0
  0
LINE
  5
BF
330
1E
100
AcDbEntity
  8
0
  6
CENTER
 62
     2
100
AcDbLine
 10
-82.02081529999999
 20
12.0208153
 30
0.0
 11
-89.09188309999999
 21
19.0918831
 31
0.0
  0
CIRCLE
  5
C0
330
1E
100
AcDbEntity
  8
0
 62
     7
100
AcDbCircle
 10
-54.44365079999999
 20
15.5563492
 30
0.0
 40
2.5
  0
CIRCLE
  5
C1
330
1E
100
AcDbEntity
  8
0
 62
     2
100
AcDbCircle
 10
-54.44365079999999
 20
15.5563492
 30
0.0
 40
3.0
  0
LINE
  5
C2
330
1E
100
AcDbEntity
  8
0
  6
CENTER
 62
     2
100
AcDbLine
 10
-57.9791847
 20
12.0208153
 30
0.0
 11
-50.90811689999999
 21
19.0918831
 31
0.0
  0
LINE
  5
C3
330
1E
100
AcDbEntity
  8
0
 62
     7
100
AcDbLine
 10
-101.5
 20
67.5
 30
0.0
 11
-38.5
 21
67.5
 31
0.0
  0
LINE
  5
C4
330
1E
100
AcDbEntity
  8
0
 62
     7
100
AcDbLine
 10
-101.5
 20
67.5
 30
0.0
 11
-101.5
 21
-67.5
 31
0.0
  0
LINE
  5
C5
330
1E
100
AcDbEntity
  8
0
 62
     7
100
AcDbLine
 10
-101.5
 20
-67.5
 30
0.0
 11
-38.5
 21
-67.5
 31
0.0
  0
LINE
  5
C6
330
1E
100
AcDbEntity
  8
0
 62
     7
100
AcDbLine
 10
-38.5
 20
67.5
 30
0.0
 11
-38.5
 21
-67.5
 31
0.0
  0
LINE
  5
C7
330
1E
100
AcDbEntity
  8
0
 62
     7
100
AcDbLine
 10
-40.0
 20
-30.0
 30
0.0
 11
-40.0
 21
-67.5
 31
0.0
  0
LINE
  5
C8
330
1E
100
AcDbEntity
  8
0
 62
     7
100
AcDbLine
 10
-40.0
 20
30.0
 30
0.0
 11
-40.0
 21
67.5
 31
0.0
  0
LINE
  5
C9
330
1E
100
AcDbEntity
  8
0
 62
     7
100
AcDbLine
 10
-100.0
 20
67.5
 30
0.0
 11
-100.0
 21
-67.5
 31
0.0
  0
LINE
  5
CA
330
1E
100
AcDbEntity
  8
0
 62
     2
100
AcDbLine
 10
-35.5
 20
26.5
 30
0.0
 11
-18.75
 21
26.5
 31
0.0
  0
LINE
  5
CB
330
1E
100
AcDbEntity
  8
0
 62
     7
100
AcDbLine
 10
-35.5
 20
27.0
 30
0.0
 11
-19.25
 21
27.0
 31
0.0
  0
LINE
  5
CC
330
1E
100
AcDbEntity
  8
0
 62
     2
100
AcDbLine
 10
-35.5
 20
17.5
 30
0.0
 11
-18.75
 21
17.5
 31
0.0
  0
LINE
  5
CD
330
1E
100
AcDbEntity
  8
0
 62
     7
100
AcDbLine
 10
-35.5
 20
17.0
 30
0.0
 11
-19.25
 21
17.0
 31
0.0
  0
LINE
  5
CE
330
1E
100
AcDbEntity
  8
0
 62
     7
100
AcDbLine
 10
-19.25
 20
27.0
 30
0.0
 11
-19.25
 21
24.1794495
 31
0.0
  0
LINE
  5
CF
330
1E
100
AcDbEntity
  8
0
 62
     7
100
AcDbLine
 10
-18.5
 20
17.75
 30
0.0
 11
-19.25
 21
17.0
 31
0.0
  0
LINE
  5
D0
330
1E
100
AcDbEntity
  8
0
 62
     7
100
AcDbLine
 10
-18.5
 20
26.25
 30
0.0
 11
-19.25
 21
27.0
 31
0.0
  0
LINE
  5
D1
330
1E
100
AcDbEntity
  8
0
 62
     7
100
AcDbLine
 10
-18.5
 20
17.75
 30
0.0
 11
-18.5
 21
26.25
 31
0.0
  0
LINE
  5
D2
330
1E
100
AcDbEntity
  8
0
 62
     7
100
AcDbLine
 10
-22.5
 20
19.82055049999999
 30
0.0
 11
-22.5
 21
24.1794495
 31
0.0
  0
LINE
  5
D3
330
1E
100
AcDbEntity
  8
0
 62
     7
100
AcDbLine
 10
-22.5
 20
24.1794495
 30
0.0
 11
-19.25
 21
24.1794495
 31
0.0
  0
LINE
  5
D4
330
1E
100
AcDbEntity
  8
0
 62
     7
100
AcDbLine
 10
-22.5
 20
19.82055049999999
 30
0.0
 11
-19.25
 21
19.82055049999999
 31
0.0
  0
LINE
  5
D5
330
1E
100
AcDbEntity
  8
0
 62
     2
100
AcDbLine
 10
-19.25
 20
24.1794495
 30
0.0
 11
-22.5
 21
19.82055049999999
 31
0.0
  0
LINE
  5
D6
330
1E
100
AcDbEntity
  8
0
 62
     2
100
AcDbLine
 10
-22.5
 20
24.1794495
 30
0.0
 11
-19.25
 21
19.82055049999999
 31
0.0
  0
LINE
  5
D7
330
1E
100
AcDbEntity
  8
0
 62
     7
100
AcDbLine
 10
-19.25
 20
19.82055049999999
 30
0.0
 11
-19.25
 21
17.0
 31
0.0
  0
LINE
  5
D8
330
1E
100
AcDbEntity
  8
0
  6
CENTER
 62
     2
100
AcDbLine
 10
-95.0
 20
-67.5
 30
0.0
 11
-95.0
 21
-70.9
 31
0.0
  0
LINE
  5
D9
330
1E
100
AcDbEntity
  8
0
  6
CENTER
 62
     2
100
AcDbLine
 10
-45.0
 20
-67.5
 30
0.0
 11
-45.0
 21
-70.9
 31
0.0
  0
LINE
  5
DA
330
1E
100
AcDbEntity
  8
0
 62
     7
100
AcDbLine
 10
-13.5
 20
18.25
 30
0.0
 11
-13.5
 21
25.75
 31
0.0
  0
LINE
  5
DB
330
1E
100
AcDbEntity
  8
0
 62
     7
100
AcDbLine
 10
-14.0
 20
26.25
 30
0.0
 11
-13.5
 21
25.75
 31
0.0
  0
LINE
  5
DC
330
1E
100
AcDbEntity
  8
0
 62
     7
100
AcDbLine
 10
-14.0
 20
17.75
 30
0.0
 11
-13.5
 21
18.25
 31
0.0
  0
LINE
  5
DD
330
1E
100
AcDbEntity
  8
0
 62
     7
100
AcDbLine
 10
-14.0
 20
26.25
 30
0.0
 11
-14.0
 21
17.75
 31
0.0
  0
LINE
  5
DE
330
1E
100
AcDbEntity
  8
0
  6
CENTER
 62
     2
100
AcDbLine
 10
-38.5
 20
-22.0
 30
0.0
 11
-11.5
 21
-22.0
 31
0.0
  0
LINE
  5
DF
330
1E
100
AcDbEntity
  8
0
 62
     2
100
AcDbLine
 10
-35.5
 20
-26.5
 30
0.0
 11
-18.75
 21
-26.5
 31
0.0
  0
LINE
  5
E0
330
1E
100
AcDbEntity
  8
0
 62
     7
100
AcDbLine
 10
-35.5
 20
-27.0
 30
0.0
 11
-19.25
 21
-27.0
 31
0.0
  0
LINE
  5
E1
330
1E
100
AcDbEntity
  8
0
 62
     2
100
AcDbLine
 10
-35.5
 20
-17.5
 30
0.0
 11
-18.75
 21
-17.5
 31
0.0
  0
LINE
  5
E2
330
1E
100
AcDbEntity
  8
0
 62
     7
100
AcDbLine
 10
-35.5
 20
-17.0
 30
0.0
 11
-19.25
 21
-17.0
 31
0.0
  0
LINE
  5
E3
330
1E
100
AcDbEntity
  8
0
 62
     7
100
AcDbLine
 10
-14.0
 20
-26.25
 30
0.0
 11
-14.0
 21
-17.75
 31
0.0
  0
LINE
  5
E4
330
1E
100
AcDbEntity
  8
0
 62
     7
100
AcDbLine
 10
-14.0
 20
-17.75
 30
0.0
 11
-13.5
 21
-18.25
 31
0.0
  0
LINE
  5
E5
330
1E
100
AcDbEntity
  8
0
 62
     7
100
AcDbLine
 10
-14.0
 20
-26.25
 30
0.0
 11
-13.5
 21
-25.75
 31
0.0
  0
LINE
  5
E6
330
1E
100
AcDbEntity
  8
0
 62
     7
100
AcDbLine
 10
-13.5
 20
-18.25
 30
0.0
 11
-13.5
 21
-25.75
 31
0.0
  0
LINE
  5
E7
330
1E
100
AcDbEntity
  8
0
 62
     7
100
AcDbLine
 10
-19.25
 20
-19.82055049999999
 30
0.0
 11
-19.25
 21
-17.0
 31
0.0
  0
LINE
  5
E8
330
1E
100
AcDbEntity
  8
0
 62
     2
100
AcDbLine
 10
-22.5
 20
-24.1794495
 30
0.0
 11
-19.25
 21
-19.82055049999999
 31
0.0
  0
LINE
  5
E9
330
1E
100
AcDbEntity
  8
0
 62
     2
100
AcDbLine
 10
-19.25
 20
-24.1794495
 30
0.0
 11
-22.5
 21
-19.82055049999999
 31
0.0
  0
LINE
  5
EA
330
1E
100
AcDbEntity
  8
0
 62
     7
100
AcDbLine
 10
-22.5
 20
-19.82055049999999
 30
0.0
 11
-19.25
 21
-19.82055049999999
 31
0.0
  0
LINE
  5
EB
330
1E
100
AcDbEntity
  8
0
 62
     7
100
AcDbLine
 10
-22.5
 20
-24.1794495
 30
0.0
 11
-19.25
 21
-24.1794495
 31
0.0
  0
LINE
  5
EC
330
1E
100
AcDbEntity
  8
0
 62
     7
100
AcDbLine
 10
-22.5
 20
-19.82055049999999
 30
0.0
 11
-22.5
 21
-24.1794495
 31
0.0
  0
LINE
  5
ED
330
1E
100
AcDbEntity
  8
0
 62
     7
100
AcDbLine
 10
-18.5
 20
-17.75
 30
0.0
 11
-18.5
 21
-26.25
 31
0.0
  0
LINE
  5
EE
330
1E
100
AcDbEntity
  8
0
 62
     7
100
AcDbLine
 10
-18.5
 20
-26.25
 30
0.0
 11
-19.25
 21
-27.0
 31
0.0
  0
LINE
  5
EF
330
1E
100
AcDbEntity
  8
0
 62
     7
100
AcDbLine
 10
-18.5
 20
-17.75
 30
0.0
 11
-19.25
 21
-17.0
 31
0.0
  0
LINE
  5
F0
330
1E
100
AcDbEntity
  8
0
 62
     7
100
AcDbLine
 10
-19.25
 20
-27.0
 30
0.0
 11
-19.25
 21
-24.1794495
 31
0.0
  0
LINE
  5
F1
330
1E
100
AcDbEntity
  8
0
 62
     7
100
AcDbLine
 10
-18.5
 20
-26.25
 30
0.0
 11
-14.0
 21
-26.25
 31
0.0
  0
LINE
  5
F2
330
1E
100
AcDbEntity
  8
0
 62
     7
100
AcDbLine
 10
-18.5
 20
-17.75
 30
0.0
 11
-14.0
 21
-17.75
 31
0.0
  0
POLYLINE
  5
F3
330
1E
100
AcDbEntity
  8
0
 62
     7
100
AcDb2dPolyline
 66
     1
 10
0.0
 20
0.0
 30
0.0
  0
VERTEX
  5
ABA
330
F3
100
AcDbEntity
  8
0
 62
     7
100
AcDbVertex
100
AcDb2dVertex
 10
-36.0358984
 20
-28.9282032
 30
0.0
  0
VERTEX
  5
ABB
330
F3
100
AcDbEntity
  8
0
 62
     7
100
AcDbVertex
100
AcDb2dVertex
 10
-35.94361609999999
 20
-28.7712688
 30
0.0
  0
VERTEX
  5
ABC
330
F3
100
AcDbEntity
  8
0
 62
     7
100
AcDbVertex
100
AcDb2dVertex
 10
-35.858048
 20
-28.6091962
 30
0.0
  0
VERTEX
  5
ABD
330
F3
100
AcDbEntity
  8
0
 62
     7
100
AcDbVertex
100
AcDb2dVertex
 10
-35.77990059999999
 20
-28.4425565
 30
0.0
  0
VERTEX
  5
ABE
330
F3
100
AcDbEntity
  8
0
 62
     7
100
AcDbVertex
100
AcDb2dVertex
 10
-35.70988049999999
 20
-28.27192039999999
 30
0.0
  0
VERTEX
  5
ABF
330
F3
100
AcDbEntity
  8
0
 62
     7
100
AcDbVertex
100
AcDb2dVertex
 10
-35.64869429999999
 20
-28.097859
 30
0.0
  0
VERTEX
  5
AC0
330
F3
100
AcDbEntity
  8
0
 62
     7
100
AcDbVertex
100
AcDb2dVertex
 10
-35.5970485
 20
-27.9209431
 30
0.0
  0
VERTEX
  5
AC1
330
F3
100
AcDbEntity
  8
0
 62
     7
100
AcDbVertex
100
AcDb2dVertex
 10
-35.5556496
 20
-27.74174359999999
 30
0.0
  0
VERTEX
  5
AC2
330
F3
100
AcDbEntity
  8
0
 62
     7
100
AcDbVertex
100
AcDb2dVertex
 10
-35.5252042
 20
-27.5608313
 30
0.0
  0
VERTEX
  5
AC3
330
F3
100
AcDbEntity
  8
0
 62
     7
100
AcDbVertex
100
AcDb2dVertex
 10
-35.5064188
 20
-27.3787773
 30
0.0
  0
VERTEX
  5
AC4
330
F3
100
AcDbEntity
  8
0
 62
     7
100
AcDbVertex
100
AcDb2dVertex
 10
-35.5
 20
-27.19615239999999
 30
0.0
  0
VERTEX
  5
AC5
330
F3
100
AcDbEntity
  8
0
 62
     7
100
AcDbVertex
100
AcDb2dVertex
 10
-35.5064188
 20
-27.0135275
 30
0.0
  0
VERTEX
  5
AC6
330
F3
100
AcDbEntity
  8
0
 62
     7
100
AcDbVertex
100
AcDb2dVertex
 10
-35.5252042
 20
-26.8314735
 30
0.0
  0
VERTEX
  5
AC7
330
F3
100
AcDbEntity
  8
0
 62
     7
100
AcDbVertex
100
AcDb2dVertex
 10
-35.5556496
 20
-26.65056129999999
 30
0.0
  0
VERTEX
  5
AC8
330
F3
100
AcDbEntity
  8
0
 62
     7
100
AcDbVertex
100
AcDb2dVertex
 10
-35.5970485
 20
-26.4713618
 30
0.0
  0
VERTEX
  5
AC9
330
F3
100
AcDbEntity
  8
0
 62
     7
100
AcDbVertex
100
AcDb2dVertex
 10
-35.64869429999999
 20
-26.29444579999999
 30
0.0
  0
VERTEX
  5
ACA
330
F3
100
AcDbEntity
  8
0
 62
     7
100
AcDbVertex
100
AcDb2dVertex
 10
-35.70988049999999
 20
-26.1203844
 30
0.0
  0
VERTEX
  5
ACB
330
F3
100
AcDbEntity
  8
0
 62
     7
100
AcDbVertex
100
AcDb2dVertex
 10
-35.77990059999999
 20
-25.9497484
 30
0.0
  0
VERTEX
  5
ACC
330
F3
100
AcDbEntity
  8
0
 62
     7
100
AcDbVertex
100
AcDb2dVertex
 10
-35.858048
 20
-25.7831086
 30
0.0
  0
VERTEX
  5
ACD
330
F3
100
AcDbEntity
  8
0
 62
     7
100
AcDbVertex
100
AcDb2dVertex
 10
-35.94361609999999
 20
-25.6210361
 30
0.0
  0
VERTEX
  5
ACE
330
F3
100
AcDbEntity
  8
0
 62
     7
100
AcDbVertex
100
AcDb2dVertex
 10
-36.0358984
 20
-25.4641016
 30
0.0
  0
SEQEND
  5
ACF
330
F3
100
AcDbEntity
  8
0
 62
     7
  0
POLYLINE
  5
10A
330
1E
100
AcDbEntity
  8
0
 62
     7
100
AcDb2dPolyline
 66
     1
 10
0.0
 20
0.0
 30
0.0
  0
VERTEX
  5
AD0
330
10A
100
AcDbEntity
  8
0
 62
     7
100
AcDbVertex
100
AcDb2dVertex
 10
-36.0358984
 20
-25.4641016
 30
0.0
  0
VERTEX
  5
AD1
330
10A
100
AcDbEntity
  8
0
 62
     7
100
AcDbVertex
100
AcDb2dVertex
 10
-35.9369701
 20
-25.12755929999999
 30
0.0
  0
VERTEX
  5
AD2
330
10A
100
AcDbEntity
  8
0
 62
     7
100
AcDbVertex
100
AcDb2dVertex
 10
-35.8475457
 20
-24.7879009
 30
0.0
  0
VERTEX
  5
AD3
330
10A
100
AcDbEntity
  8
0
 62
     7
100
AcDbVertex
100
AcDb2dVertex
 10
-35.7678395
 20
-24.4454725
 30
0.0
  0
VERTEX
  5
AD4
330
10A
100
AcDbEntity
  8
0
 62
     7
100
AcDbVertex
100
AcDb2dVertex
 10
-35.6980655
 20
-24.1006204
 30
0.0
  0
VERTEX
  5
AD5
330
10A
100
AcDbEntity
  8
0
 62
     7
100
AcDbVertex
100
AcDb2dVertex
 10
-35.6384382
 20
-23.75369089999999
 30
0.0
  0
VERTEX
  5
AD6
330
10A
100
AcDbEntity
  8
0
 62
     7
100
AcDbVertex
100
AcDb2dVertex
 10
-35.5891718
 20
-23.40503019999999
 30
0.0
  0
VERTEX
  5
AD7
330
10A
100
AcDbEntity
  8
0
 62
     7
100
AcDbVertex
100
AcDb2dVertex
 10
-35.55048049999999
 20
-23.05498449999999
 30
0.0
  0
VERTEX
  5
AD8
330
10A
100
AcDbEntity
  8
0
 62
     7
100
AcDbVertex
100
AcDb2dVertex
 10
-35.5225786
 20
-22.7039001
 30
0.0
  0
VERTEX
  5
AD9
330
10A
100
AcDbEntity
  8
0
 62
     7
100
AcDbVertex
100
AcDb2dVertex
 10
-35.5056804
 20
-22.3521231
 30
0.0
  0
VERTEX
  5
ADA
330
10A
100
AcDbEntity
  8
0
 62
     7
100
AcDbVertex
100
AcDb2dVertex
 10
-35.5
 20
-22.0
 30
0.0
  0
VERTEX
  5
ADB
330
10A
100
AcDbEntity
  8
0
 62
     7
100
AcDbVertex
100
AcDb2dVertex
 10
-35.5056804
 20
-21.64787689999999
 30
0.0
  0
VERTEX
  5
ADC
330
10A
100
AcDbEntity
  8
0
 62
     7
100
AcDbVertex
100
AcDb2dVertex
 10
-35.5225786
 20
-21.2960999
 30
0.0
  0
VERTEX
  5
ADD
330
10A
100
AcDbEntity
  8
0
 62
     7
100
AcDbVertex
100
AcDb2dVertex
 10
-35.55048049999999
 20
-20.94501549999999
 30
0.0
  0
VERTEX
  5
ADE
330
10A
100
AcDbEntity
  8
0
 62
     7
100
AcDbVertex
100
AcDb2dVertex
 10
-35.5891718
 20
-20.5949698
 30
0.0
  0
VERTEX
  5
ADF
330
10A
100
AcDbEntity
  8
0
 62
     7
100
AcDbVertex
100
AcDb2dVertex
 10
-35.6384382
 20
-20.2463091
 30
0.0
  0
VERTEX
  5
AE0
330
10A
100
AcDbEntity
  8
0
 62
     7
100
AcDbVertex
100
AcDb2dVertex
 10
-35.6980655
 20
-19.89937959999999
 30
0.0
  0
VERTEX
  5
AE1
330
10A
100
AcDbEntity
  8
0
 62
     7
100
AcDbVertex
100
AcDb2dVertex
 10
-35.7678395
 20
-19.5545275
 30
0.0
  0
VERTEX
  5
AE2
330
10A
100
AcDbEntity
  8
0
 62
     7
100
AcDbVertex
100
AcDb2dVertex
 10
-35.8475457
 20
-19.21209909999999
 30
0.0
  0
VERTEX
  5
AE3
330
10A
100
AcDbEntity
  8
0
 62
     7
100
AcDbVertex
100
AcDb2dVertex
 10
-35.9369701
 20
-18.8724407
 30
0.0
  0
VERTEX
  5
AE4
330
10A
100
AcDbEntity
  8
0
 62
     7
100
AcDbVertex
100
AcDb2dVertex
 10
-36.0358984
 20
-18.5358984
 30
0.0
  0
SEQEND
  5
AE5
330
10A
100
AcDbEntity
  8
0
 62
     7
  0
POLYLINE
  5
121
330
1E
100
AcDbEntity
  8
0
 62
     7
100
AcDb2dPolyline
 66
     1
 10
0.0
 20
0.0
 30
0.0
  0
VERTEX
  5
AE6
330
121
100
AcDbEntity
  8
0
 62
     7
100
AcDbVertex
100
AcDb2dVertex
 10
-36.0358984
 20
-18.5358984
 30
0.0
  0
VERTEX
  5
AE7
330
121
100
AcDbEntity
  8
0
 62
     7
100
AcDbVertex
100
AcDb2dVertex
 10
-35.94361609999999
 20
-18.3789639
 30
0.0
  0
VERTEX
  5
AE8
330
121
100
AcDbEntity
  8
0
 62
     7
100
AcDbVertex
100
AcDb2dVertex
 10
-35.858048
 20
-18.21689139999999
 30
0.0
  0
VERTEX
  5
AE9
330
121
100
AcDbEntity
  8
0
 62
     7
100
AcDbVertex
100
AcDb2dVertex
 10
-35.77990059999999
 20
-18.05025159999999
 30
0.0
  0
VERTEX
  5
AEA
330
121
100
AcDbEntity
  8
0
 62
     7
100
AcDbVertex
100
AcDb2dVertex
 10
-35.70988049999999
 20
-17.8796156
 30
0.0
  0
VERTEX
  5
AEB
330
121
100
AcDbEntity
  8
0
 62
     7
100
AcDbVertex
100
AcDb2dVertex
 10
-35.64869429999999
 20
-17.70555419999999
 30
0.0
  0
VERTEX
  5
AEC
330
121
100
AcDbEntity
  8
0
 62
     7
100
AcDbVertex
100
AcDb2dVertex
 10
-35.5970485
 20
-17.52863819999999
 30
0.0
  0
VERTEX
  5
AED
330
121
100
AcDbEntity
  8
0
 62
     7
100
AcDbVertex
100
AcDb2dVertex
 10
-35.5556496
 20
-17.3494387
 30
0.0
  0
VERTEX
  5
AEE
330
121
100
AcDbEntity
  8
0
 62
     7
100
AcDbVertex
100
AcDb2dVertex
 10
-35.5252042
 20
-17.1685265
 30
0.0
  0
VERTEX
  5
AEF
330
121
100
AcDbEntity
  8
0
 62
     7
100
AcDbVertex
100
AcDb2dVertex
 10
-35.5064188
 20
-16.9864725
 30
0.0
  0
VERTEX
  5
AF0
330
121
100
AcDbEntity
  8
0
 62
     7
100
AcDbVertex
100
AcDb2dVertex
 10
-35.5
 20
-16.8038476
 30
0.0
  0
VERTEX
  5
AF1
330
121
100
AcDbEntity
  8
0
 62
     7
100
AcDbVertex
100
AcDb2dVertex
 10
-35.5064188
 20
-16.62122269999999
 30
0.0
  0
VERTEX
  5
AF2
330
121
100
AcDbEntity
  8
0
 62
     7
100
AcDbVertex
100
AcDb2dVertex
 10
-35.5252042
 20
-16.43916869999999
 30
0.0
  0
VERTEX
  5
AF3
330
121
100
AcDbEntity
  8
0
 62
     7
100
AcDbVertex
100
AcDb2dVertex
 10
-35.5556496
 20
-16.2582564
 30
0.0
  0
VERTEX
  5
AF4
330
121
100
AcDbEntity
  8
0
 62
     7
100
AcDbVertex
100
AcDb2dVertex
 10
-35.5970485
 20
-16.0790569
 30
0.0
  0
VERTEX
  5
AF5
330
121
100
AcDbEntity
  8
0
 62
     7
100
AcDbVertex
100
AcDb2dVertex
 10
-35.64869429999999
 20
-15.902141
 30
0.0
  0
VERTEX
  5
AF6
330
121
100
AcDbEntity
  8
0
 62
     7
100
AcDbVertex
100
AcDb2dVertex
 10
-35.70988049999999
 20
-15.7280796
 30
0.0
  0
VERTEX
  5
AF7
330
121
100
AcDbEntity
  8
0
 62
     7
100
AcDbVertex
100
AcDb2dVertex
 10
-35.77990059999999
 20
-15.5574435
 30
0.0
  0
VERTEX
  5
AF8
330
121
100
AcDbEntity
  8
0
 62
     7
100
AcDbVertex
100
AcDb2dVertex
 10
-35.858048
 20
-15.3908038
 30
0.0
  0
VERTEX
  5
AF9
330
121
100
AcDbEntity
  8
0
 62
     7
100
AcDbVertex
100
AcDb2dVertex
 10
-35.94361609999999
 20
-15.2287312
 30
0.0
  0
VERTEX
  5
AFA
330
121
100
AcDbEntity
  8
0
 62
     7
100
AcDbVertex
100
AcDb2dVertex
 10
-36.0358984
 20
-15.0717968
 30
0.0
  0
SEQEND
  5
AFB
330
121
100
AcDbEntity
  8
0
 62
     7
  0
POLYLINE
  5
138
330
1E
100
AcDbEntity
  8
0
 62
     7
100
AcDb2dPolyline
 66
     1
 10
0.0
 20
0.0
 30
0.0
  0
VERTEX
  5
AFC
330
138
100
AcDbEntity
  8
0
 62
     7
100
AcDbVertex
100
AcDb2dVertex
 10
-37.9641016
 20
-18.5358984
 30
0.0
  0
VERTEX
  5
AFD
330
138
100
AcDbEntity
  8
0
 62
     7
100
AcDbVertex
100
AcDb2dVertex
 10
-38.0563839
 20
-18.3789639
 30
0.0
  0
VERTEX
  5
AFE
330
138
100
AcDbEntity
  8
0
 62
     7
100
AcDbVertex
100
AcDb2dVertex
 10
-38.141952
 20
-18.21689139999999
 30
0.0
  0
VERTEX
  5
AFF
330
138
100
AcDbEntity
  8
0
 62
     7
100
AcDbVertex
100
AcDb2dVertex
 10
-38.2200994
 20
-18.05025159999999
 30
0.0
  0
VERTEX
  5
B00
330
138
100
AcDbEntity
  8
0
 62
     7
100
AcDbVertex
100
AcDb2dVertex
 10
-38.2901195
 20
-17.8796156
 30
0.0
  0
VERTEX
  5
B01
330
138
100
AcDbEntity
  8
0
 62
     7
100
AcDbVertex
100
AcDb2dVertex
 10
-38.3513057
 20
-17.70555419999999
 30
0.0
  0
VERTEX
  5
B02
330
138
100
AcDbEntity
  8
0
 62
     7
100
AcDbVertex
100
AcDb2dVertex
 10
-38.4029515
 20
-17.52863819999999
 30
0.0
  0
VERTEX
  5
B03
330
138
100
AcDbEntity
  8
0
 62
     7
100
AcDbVertex
100
AcDb2dVertex
 10
-38.4443504
 20
-17.3494387
 30
0.0
  0
VERTEX
  5
B04
330
138
100
AcDbEntity
  8
0
 62
     7
100
AcDbVertex
100
AcDb2dVertex
 10
-38.47479579999999
 20
-17.1685265
 30
0.0
  0
VERTEX
  5
B05
330
138
100
AcDbEntity
  8
0
 62
     7
100
AcDbVertex
100
AcDb2dVertex
 10
-38.4935812
 20
-16.9864725
 30
0.0
  0
VERTEX
  5
B06
330
138
100
AcDbEntity
  8
0
 62
     7
100
AcDbVertex
100
AcDb2dVertex
 10
-38.5
 20
-16.8038476
 30
0.0
  0
VERTEX
  5
B07
330
138
100
AcDbEntity
  8
0
 62
     7
100
AcDbVertex
100
AcDb2dVertex
 10
-38.4935812
 20
-16.62122269999999
 30
0.0
  0
VERTEX
  5
B08
330
138
100
AcDbEntity
  8
0
 62
     7
100
AcDbVertex
100
AcDb2dVertex
 10
-38.47479579999999
 20
-16.43916869999999
 30
0.0
  0
VERTEX
  5
B09
330
138
100
AcDbEntity
  8
0
 62
     7
100
AcDbVertex
100
AcDb2dVertex
 10
-38.4443504
 20
-16.2582564
 30
0.0
  0
VERTEX
  5
B0A
330
138
100
AcDbEntity
  8
0
 62
     7
100
AcDbVertex
100
AcDb2dVertex
 10
-38.4029515
 20
-16.0790569
 30
0.0
  0
VERTEX
  5
B0B
330
138
100
AcDbEntity
  8
0
 62
     7
100
AcDbVertex
100
AcDb2dVertex
 10
-38.3513057
 20
-15.902141
 30
0.0
  0
VERTEX
  5
B0C
330
138
100
AcDbEntity
  8
0
 62
     7
100
AcDbVertex
100
AcDb2dVertex
 10
-38.2901195
 20
-15.7280796
 30
0.0
  0
VERTEX
  5
B0D
330
138
100
AcDbEntity
  8
0
 62
     7
100
AcDbVertex
100
AcDb2dVertex
 10
-38.2200994
 20
-15.5574435
 30
0.0
  0
VERTEX
  5
B0E
330
138
100
AcDbEntity
  8
0
 62
     7
100
AcDbVertex
100
AcDb2dVertex
 10
-38.141952
 20
-15.3908038
 30
0.0
  0
VERTEX
  5
B0F
330
138
100
AcDbEntity
  8
0
 62
     7
100
AcDbVertex
100
AcDb2dVertex
 10
-38.0563839
 20
-15.2287312
 30
0.0
  0
VERTEX
  5
B10
330
138
100
AcDbEntity
  8
0
 62
     7
100
AcDbVertex
100
AcDb2dVertex
 10
-37.9641016
 20
-15.0717968
 30
0.0
  0
SEQEND
  5
B11
330
138
100
AcDbEntity
  8
0
 62
     7
  0
POLYLINE
  5
14F
330
1E
100
AcDbEntity
  8
0
 62
     7
100
AcDb2dPolyline
 66
     1
 10
0.0
 20
0.0
 30
0.0
  0
VERTEX
  5
B12
330
14F
100
AcDbEntity
  8
0
 62
     7
100
AcDbVertex
100
AcDb2dVertex
 10
-37.9641016
 20
-25.4641016
 30
0.0
  0
VERTEX
  5
B13
330
14F
100
AcDbEntity
  8
0
 62
     7
100
AcDbVertex
100
AcDb2dVertex
 10
-38.06302989999999
 20
-25.12755929999999
 30
0.0
  0
VERTEX
  5
B14
330
14F
100
AcDbEntity
  8
0
 62
     7
100
AcDbVertex
100
AcDb2dVertex
 10
-38.15245429999999
 20
-24.7879009
 30
0.0
  0
VERTEX
  5
B15
330
14F
100
AcDbEntity
  8
0
 62
     7
100
AcDbVertex
100
AcDb2dVertex
 10
-38.2321605
 20
-24.4454725
 30
0.0
  0
VERTEX
  5
B16
330
14F
100
AcDbEntity
  8
0
 62
     7
100
AcDbVertex
100
AcDb2dVertex
 10
-38.30193449999999
 20
-24.1006204
 30
0.0
  0
VERTEX
  5
B17
330
14F
100
AcDbEntity
  8
0
 62
     7
100
AcDbVertex
100
AcDb2dVertex
 10
-38.36156179999999
 20
-23.75369089999999
 30
0.0
  0
VERTEX
  5
B18
330
14F
100
AcDbEntity
  8
0
 62
     7
100
AcDbVertex
100
AcDb2dVertex
 10
-38.4108282
 20
-23.40503019999999
 30
0.0
  0
VERTEX
  5
B19
330
14F
100
AcDbEntity
  8
0
 62
     7
100
AcDbVertex
100
AcDb2dVertex
 10
-38.4495195
 20
-23.05498449999999
 30
0.0
  0
VERTEX
  5
B1A
330
14F
100
AcDbEntity
  8
0
 62
     7
100
AcDbVertex
100
AcDb2dVertex
 10
-38.47742139999999
 20
-22.7039001
 30
0.0
  0
VERTEX
  5
B1B
330
14F
100
AcDbEntity
  8
0
 62
     7
100
AcDbVertex
100
AcDb2dVertex
 10
-38.4943196
 20
-22.3521231
 30
0.0
  0
VERTEX
  5
B1C
330
14F
100
AcDbEntity
  8
0
 62
     7
100
AcDbVertex
100
AcDb2dVertex
 10
-38.5
 20
-22.0
 30
0.0
  0
VERTEX
  5
B1D
330
14F
100
AcDbEntity
  8
0
 62
     7
100
AcDbVertex
100
AcDb2dVertex
 10
-38.4943196
 20
-21.64787689999999
 30
0.0
  0
VERTEX
  5
B1E
330
14F
100
AcDbEntity
  8
0
 62
     7
100
AcDbVertex
100
AcDb2dVertex
 10
-38.47742139999999
 20
-21.2960999
 30
0.0
  0
VERTEX
  5
B1F
330
14F
100
AcDbEntity
  8
0
 62
     7
100
AcDbVertex
100
AcDb2dVertex
 10
-38.4495195
 20
-20.94501549999999
 30
0.0
  0
VERTEX
  5
B20
330
14F
100
AcDbEntity
  8
0
 62
     7
100
AcDbVertex
100
AcDb2dVertex
 10
-38.4108282
 20
-20.5949698
 30
0.0
  0
VERTEX
  5
B21
330
14F
100
AcDbEntity
  8
0
 62
     7
100
AcDbVertex
100
AcDb2dVertex
 10
-38.36156179999999
 20
-20.2463091
 30
0.0
  0
VERTEX
  5
B22
330
14F
100
AcDbEntity
  8
0
 62
     7
100
AcDbVertex
100
AcDb2dVertex
 10
-38.30193449999999
 20
-19.89937959999999
 30
0.0
  0
VERTEX
  5
B23
330
14F
100
AcDbEntity
  8
0
 62
     7
100
AcDbVertex
100
AcDb2dVertex
 10
-38.2321605
 20
-19.5545275
 30
0.0
  0
VERTEX
  5
B24
330
14F
100
AcDbEntity
  8
0
 62
     7
100
AcDbVertex
100
AcDb2dVertex
 10
-38.15245429999999
 20
-19.21209909999999
 30
0.0
  0
VERTEX
  5
B25
330
14F
100
AcDbEntity
  8
0
 62
     7
100
AcDbVertex
100
AcDb2dVertex
 10
-38.06302989999999
 20
-18.8724407
 30
0.0
  0
VERTEX
  5
B26
330
14F
100
AcDbEntity
  8
0
 62
     7
100
AcDbVertex
100
AcDb2dVertex
 10
-37.9641016
 20
-18.5358984
 30
0.0
  0
SEQEND
  5
B27
330
14F
100
AcDbEntity
  8
0
 62
     7
  0
POLYLINE
  5
166
330
1E
100
AcDbEntity
  8
0
 62
     7
100
AcDb2dPolyline
 66
     1
 10
0.0
 20
0.0
 30
0.0
  0
VERTEX
  5
B28
330
166
100
AcDbEntity
  8
0
 62
     7
100
AcDbVertex
100
AcDb2dVertex
 10
-37.9641016
 20
-28.9282032
 30
0.0
  0
VERTEX
  5
B29
330
166
100
AcDbEntity
  8
0
 62
     7
100
AcDbVertex
100
AcDb2dVertex
 10
-38.0563839
 20
-28.7712688
 30
0.0
  0
VERTEX
  5
B2A
330
166
100
AcDbEntity
  8
0
 62
     7
100
AcDbVertex
100
AcDb2dVertex
 10
-38.141952
 20
-28.6091962
 30
0.0
  0
VERTEX
  5
B2B
330
166
100
AcDbEntity
  8
0
 62
     7
100
AcDbVertex
100
AcDb2dVertex
 10
-38.2200994
 20
-28.4425565
 30
0.0
  0
VERTEX
  5
B2C
330
166
100
AcDbEntity
  8
0
 62
     7
100
AcDbVertex
100
AcDb2dVertex
 10
-38.2901195
 20
-28.27192039999999
 30
0.0
  0
VERTEX
  5
B2D
330
166
100
AcDbEntity
  8
0
 62
     7
100
AcDbVertex
100
AcDb2dVertex
 10
-38.3513057
 20
-28.097859
 30
0.0
  0
VERTEX
  5
B2E
330
166
100
AcDbEntity
  8
0
 62
     7
100
AcDbVertex
100
AcDb2dVertex
 10
-38.4029515
 20
-27.9209431
 30
0.0
  0
VERTEX
  5
B2F
330
166
100
AcDbEntity
  8
0
 62
     7
100
AcDbVertex
100
AcDb2dVertex
 10
-38.4443504
 20
-27.74174359999999
 30
0.0
  0
VERTEX
  5
B30
330
166
100
AcDbEntity
  8
0
 62
     7
100
AcDbVertex
100
AcDb2dVertex
 10
-38.47479579999999
 20
-27.5608313
 30
0.0
  0
VERTEX
  5
B31
330
166
100
AcDbEntity
  8
0
 62
     7
100
AcDbVertex
100
AcDb2dVertex
 10
-38.4935812
 20
-27.3787773
 30
0.0
  0
VERTEX
  5
B32
330
166
100
AcDbEntity
  8
0
 62
     7
100
AcDbVertex
100
AcDb2dVertex
 10
-38.5
 20
-27.19615239999999
 30
0.0
  0
VERTEX
  5
B33
330
166
100
AcDbEntity
  8
0
 62
     7
100
AcDbVertex
100
AcDb2dVertex
 10
-38.4935812
 20
-27.0135275
 30
0.0
  0
VERTEX
  5
B34
330
166
100
AcDbEntity
  8
0
 62
     7
100
AcDbVertex
100
AcDb2dVertex
 10
-38.47479579999999
 20
-26.8314735
 30
0.0
  0
VERTEX
  5
B35
330
166
100
AcDbEntity
  8
0
 62
     7
100
AcDbVertex
100
AcDb2dVertex
 10
-38.4443504
 20
-26.65056129999999
 30
0.0
  0
VERTEX
  5
B36
330
166
100
AcDbEntity
  8
0
 62
     7
100
AcDbVertex
100
AcDb2dVertex
 10
-38.4029515
 20
-26.4713618
 30
0.0
  0
VERTEX
  5
B37
330
166
100
AcDbEntity
  8
0
 62
     7
100
AcDbVertex
100
AcDb2dVertex
 10
-38.3513057
 20
-26.29444579999999
 30
0.0
  0
VERTEX
  5
B38
330
166
100
AcDbEntity
  8
0
 62
     7
100
AcDbVertex
100
AcDb2dVertex
 10
-38.2901195
 20
-26.1203844
 30
0.0
  0
VERTEX
  5
B39
330
166
100
AcDbEntity
  8
0
 62
     7
100
AcDbVertex
100
AcDb2dVertex
 10
-38.2200994
 20
-25.9497484
 30
0.0
  0
VERTEX
  5
B3A
330
166
100
AcDbEntity
  8
0
 62
     7
100
AcDbVertex
100
AcDb2dVertex
 10
-38.141952
 20
-25.7831086
 30
0.0
  0
VERTEX
  5
B3B
330
166
100
AcDbEntity
  8
0
 62
     7
100
AcDbVertex
100
AcDb2dVertex
 10
-38.0563839
 20
-25.6210361
 30
0.0
  0
VERTEX
  5
B3C
330
166
100
AcDbEntity
  8
0
 62
     7
100
AcDbVertex
100
AcDb2dVertex
 10
-37.9641016
 20
-25.4641016
 30
0.0
  0
SEQEND
  5
B3D
330
166
100
AcDbEntity
  8
0
 62
     7
  0
POLYLINE
  5
17D
330
1E
100
AcDbEntity
  8
0
 62
     7
100
AcDb2dPolyline
 66
     1
 10
0.0
 20
0.0
 30
0.0
  0
VERTEX
  5
B3E
330
17D
100
AcDbEntity
  8
0
 62
     7
100
AcDbVertex
100
AcDb2dVertex
 10
-37.9641016
 20
18.5358984
 30
0.0
  0
VERTEX
  5
B3F
330
17D
100
AcDbEntity
  8
0
 62
     7
100
AcDbVertex
100
AcDb2dVertex
 10
-38.0563839
 20
18.3789639
 30
0.0
  0
VERTEX
  5
B40
330
17D
100
AcDbEntity
  8
0
 62
     7
100
AcDbVertex
100
AcDb2dVertex
 10
-38.141952
 20
18.21689139999999
 30
0.0
  0
VERTEX
  5
B41
330
17D
100
AcDbEntity
  8
0
 62
     7
100
AcDbVertex
100
AcDb2dVertex
 10
-38.2200994
 20
18.05025159999999
 30
0.0
  0
VERTEX
  5
B42
330
17D
100
AcDbEntity
  8
0
 62
     7
100
AcDbVertex
100
AcDb2dVertex
 10
-38.2901195
 20
17.8796156
 30
0.0
  0
VERTEX
  5
B43
330
17D
100
AcDbEntity
  8
0
 62
     7
100
AcDbVertex
100
AcDb2dVertex
 10
-38.3513057
 20
17.70555419999999
 30
0.0
  0
VERTEX
  5
B44
330
17D
100
AcDbEntity
  8
0
 62
     7
100
AcDbVertex
100
AcDb2dVertex
 10
-38.4029515
 20
17.52863819999999
 30
0.0
  0
VERTEX
  5
B45
330
17D
100
AcDbEntity
  8
0
 62
     7
100
AcDbVertex
100
AcDb2dVertex
 10
-38.4443504
 20
17.3494387
 30
0.0
  0
VERTEX
  5
B46
330
17D
100
AcDbEntity
  8
0
 62
     7
100
AcDbVertex
100
AcDb2dVertex
 10
-38.47479579999999
 20
17.1685265
 30
0.0
  0
VERTEX
  5
B47
330
17D
100
AcDbEntity
  8
0
 62
     7
100
AcDbVertex
100
AcDb2dVertex
 10
-38.4935812
 20
16.9864725
 30
0.0
  0
VERTEX
  5
B48
330
17D
100
AcDbEntity
  8
0
 62
     7
100
AcDbVertex
100
AcDb2dVertex
 10
-38.5
 20
16.8038476
 30
0.0
  0
VERTEX
  5
B49
330
17D
100
AcDbEntity
  8
0
 62
     7
100
AcDbVertex
100
AcDb2dVertex
 10
-38.4935812
 20
16.62122269999999
 30
0.0
  0
VERTEX
  5
B4A
330
17D
100
AcDbEntity
  8
0
 62
     7
100
AcDbVertex
100
AcDb2dVertex
 10
-38.47479579999999
 20
16.43916869999999
 30
0.0
  0
VERTEX
  5
B4B
330
17D
100
AcDbEntity
  8
0
 62
     7
100
AcDbVertex
100
AcDb2dVertex
 10
-38.4443504
 20
16.2582564
 30
0.0
  0
VERTEX
  5
B4C
330
17D
100
AcDbEntity
  8
0
 62
     7
100
AcDbVertex
100
AcDb2dVertex
 10
-38.4029515
 20
16.0790569
 30
0.0
  0
VERTEX
  5
B4D
330
17D
100
AcDbEntity
  8
0
 62
     7
100
AcDbVertex
100
AcDb2dVertex
 10
-38.3513057
 20
15.902141
 30
0.0
  0
VERTEX
  5
B4E
330
17D
100
AcDbEntity
  8
0
 62
     7
100
AcDbVertex
100
AcDb2dVertex
 10
-38.2901195
 20
15.7280796
 30
0.0
  0
VERTEX
  5
B4F
330
17D
100
AcDbEntity
  8
0
 62
     7
100
AcDbVertex
100
AcDb2dVertex
 10
-38.2200994
 20
15.5574435
 30
0.0
  0
VERTEX
  5
B50
330
17D
100
AcDbEntity
  8
0
 62
     7
100
AcDbVertex
100
AcDb2dVertex
 10
-38.141952
 20
15.3908038
 30
0.0
  0
VERTEX
  5
B51
330
17D
100
AcDbEntity
  8
0
 62
     7
100
AcDbVertex
100
AcDb2dVertex
 10
-38.0563839
 20
15.2287312
 30
0.0
  0
VERTEX
  5
B52
330
17D
100
AcDbEntity
  8
0
 62
     7
100
AcDbVertex
100
AcDb2dVertex
 10
-37.9641016
 20
15.0717968
 30
0.0
  0
SEQEND
  5
B53
330
17D
100
AcDbEntity
  8
0
 62
     7
  0
POLYLINE
  5
194
330
1E
100
AcDbEntity
  8
0
 62
     7
100
AcDb2dPolyline
 66
     1
 10
0.0
 20
0.0
 30
0.0
  0
VERTEX
  5
B54
330
194
100
AcDbEntity
  8
0
 62
     7
100
AcDbVertex
100
AcDb2dVertex
 10
-37.9641016
 20
25.4641016
 30
0.0
  0
VERTEX
  5
B55
330
194
100
AcDbEntity
  8
0
 62
     7
100
AcDbVertex
100
AcDb2dVertex
 10
-38.06302989999999
 20
25.12755929999999
 30
0.0
  0
VERTEX
  5
B56
330
194
100
AcDbEntity
  8
0
 62
     7
100
AcDbVertex
100
AcDb2dVertex
 10
-38.15245429999999
 20
24.7879009
 30
0.0
  0
VERTEX
  5
B57
330
194
100
AcDbEntity
  8
0
 62
     7
100
AcDbVertex
100
AcDb2dVertex
 10
-38.2321605
 20
24.4454725
 30
0.0
  0
VERTEX
  5
B58
330
194
100
AcDbEntity
  8
0
 62
     7
100
AcDbVertex
100
AcDb2dVertex
 10
-38.30193449999999
 20
24.1006204
 30
0.0
  0
VERTEX
  5
B59
330
194
100
AcDbEntity
  8
0
 62
     7
100
AcDbVertex
100
AcDb2dVertex
 10
-38.36156179999999
 20
23.75369089999999
 30
0.0
  0
VERTEX
  5
B5A
330
194
100
AcDbEntity
  8
0
 62
     7
100
AcDbVertex
100
AcDb2dVertex
 10
-38.4108282
 20
23.40503019999999
 30
0.0
  0
VERTEX
  5
B5B
330
194
100
AcDbEntity
  8
0
 62
     7
100
AcDbVertex
100
AcDb2dVertex
 10
-38.4495195
 20
23.05498449999999
 30
0.0
  0
VERTEX
  5
B5C
330
194
100
AcDbEntity
  8
0
 62
     7
100
AcDbVertex
100
AcDb2dVertex
 10
-38.47742139999999
 20
22.7039001
 30
0.0
  0
VERTEX
  5
B5D
330
194
100
AcDbEntity
  8
0
 62
     7
100
AcDbVertex
100
AcDb2dVertex
 10
-38.4943196
 20
22.3521231
 30
0.0
  0
VERTEX
  5
B5E
330
194
100
AcDbEntity
  8
0
 62
     7
100
AcDbVertex
100
AcDb2dVertex
 10
-38.5
 20
22.0
 30
0.0
  0
VERTEX
  5
B5F
330
194
100
AcDbEntity
  8
0
 62
     7
100
AcDbVertex
100
AcDb2dVertex
 10
-38.4943196
 20
21.64787689999999
 30
0.0
  0
VERTEX
  5
B60
330
194
100
AcDbEntity
  8
0
 62
     7
100
AcDbVertex
100
AcDb2dVertex
 10
-38.47742139999999
 20
21.2960999
 30
0.0
  0
VERTEX
  5
B61
330
194
100
AcDbEntity
  8
0
 62
     7
100
AcDbVertex
100
AcDb2dVertex
 10
-38.4495195
 20
20.94501549999999
 30
0.0
  0
VERTEX
  5
B62
330
194
100
AcDbEntity
  8
0
 62
     7
100
AcDbVertex
100
AcDb2dVertex
 10
-38.4108282
 20
20.5949698
 30
0.0
  0
VERTEX
  5
B63
330
194
100
AcDbEntity
  8
0
 62
     7
100
AcDbVertex
100
AcDb2dVertex
 10
-38.36156179999999
 20
20.2463091
 30
0.0
  0
VERTEX
  5
B64
330
194
100
AcDbEntity
  8
0
 62
     7
100
AcDbVertex
100
AcDb2dVertex
 10
-38.30193449999999
 20
19.89937959999999
 30
0.0
  0
VERTEX
  5
B65
330
194
100
AcDbEntity
  8
0
 62
     7
100
AcDbVertex
100
AcDb2dVertex
 10
-38.2321605
 20
19.5545275
 30
0.0
  0
VERTEX
  5
B66
330
194
100
AcDbEntity
  8
0
 62
     7
100
AcDbVertex
100
AcDb2dVertex
 10
-38.15245429999999
 20
19.21209909999999
 30
0.0
  0
VERTEX
  5
B67
330
194
100
AcDbEntity
  8
0
 62
     7
100
AcDbVertex
100
AcDb2dVertex
 10
-38.06302989999999
 20
18.8724407
 30
0.0
  0
VERTEX
  5
B68
330
194
100
AcDbEntity
  8
0
 62
     7
100
AcDbVertex
100
AcDb2dVertex
 10
-37.9641016
 20
18.5358984
 30
0.0
  0
SEQEND
  5
B69
330
194
100
AcDbEntity
  8
0
 62
     7
  0
POLYLINE
  5
1AB
330
1E
100
AcDbEntity
  8
0
 62
     7
100
AcDb2dPolyline
 66
     1
 10
0.0
 20
0.0
 30
0.0
  0
VERTEX
  5
B6A
330
1AB
100
AcDbEntity
  8
0
 62
     7
100
AcDbVertex
100
AcDb2dVertex
 10
-37.9641016
 20
28.9282032
 30
0.0
  0
VERTEX
  5
B6B
330
1AB
100
AcDbEntity
  8
0
 62
     7
100
AcDbVertex
100
AcDb2dVertex
 10
-38.0563839
 20
28.7712688
 30
0.0
  0
VERTEX
  5
B6C
330
1AB
100
AcDbEntity
  8
0
 62
     7
100
AcDbVertex
100
AcDb2dVertex
 10
-38.141952
 20
28.6091962
 30
0.0
  0
VERTEX
  5
B6D
330
1AB
100
AcDbEntity
  8
0
 62
     7
100
AcDbVertex
100
AcDb2dVertex
 10
-38.2200994
 20
28.4425565
 30
0.0
  0
VERTEX
  5
B6E
330
1AB
100
AcDbEntity
  8
0
 62
     7
100
AcDbVertex
100
AcDb2dVertex
 10
-38.2901195
 20
28.27192039999999
 30
0.0
  0
VERTEX
  5
B6F
330
1AB
100
AcDbEntity
  8
0
 62
     7
100
AcDbVertex
100
AcDb2dVertex
 10
-38.3513057
 20
28.097859
 30
0.0
  0
VERTEX
  5
B70
330
1AB
100
AcDbEntity
  8
0
 62
     7
100
AcDbVertex
100
AcDb2dVertex
 10
-38.4029515
 20
27.9209431
 30
0.0
  0
VERTEX
  5
B71
330
1AB
100
AcDbEntity
  8
0
 62
     7
100
AcDbVertex
100
AcDb2dVertex
 10
-38.4443504
 20
27.74174359999999
 30
0.0
  0
VERTEX
  5
B72
330
1AB
100
AcDbEntity
  8
0
 62
     7
100
AcDbVertex
100
AcDb2dVertex
 10
-38.47479579999999
 20
27.5608313
 30
0.0
  0
VERTEX
  5
B73
330
1AB
100
AcDbEntity
  8
0
 62
     7
100
AcDbVertex
100
AcDb2dVertex
 10
-38.4935812
 20
27.3787773
 30
0.0
  0
VERTEX
  5
B74
330
1AB
100
AcDbEntity
  8
0
 62
     7
100
AcDbVertex
100
AcDb2dVertex
 10
-38.5
 20
27.19615239999999
 30
0.0
  0
VERTEX
  5
B75
330
1AB
100
AcDbEntity
  8
0
 62
     7
100
AcDbVertex
100
AcDb2dVertex
 10
-38.4935812
 20
27.0135275
 30
0.0
  0
VERTEX
  5
B76
330
1AB
100
AcDbEntity
  8
0
 62
     7
100
AcDbVertex
100
AcDb2dVertex
 10
-38.47479579999999
 20
26.8314735
 30
0.0
  0
VERTEX
  5
B77
330
1AB
100
AcDbEntity
  8
0
 62
     7
100
AcDbVertex
100
AcDb2dVertex
 10
-38.4443504
 20
26.65056129999999
 30
0.0
  0
VERTEX
  5
B78
330
1AB
100
AcDbEntity
  8
0
 62
     7
100
AcDbVertex
100
AcDb2dVertex
 10
-38.4029515
 20
26.4713618
 30
0.0
  0
VERTEX
  5
B79
330
1AB
100
AcDbEntity
  8
0
 62
     7
100
AcDbVertex
100
AcDb2dVertex
 10
-38.3513057
 20
26.29444579999999
 30
0.0
  0
VERTEX
  5
B7A
330
1AB
100
AcDbEntity
  8
0
 62
     7
100
AcDbVertex
100
AcDb2dVertex
 10
-38.2901195
 20
26.1203844
 30
0.0
  0
VERTEX
  5
B7B
330
1AB
100
AcDbEntity
  8
0
 62
     7
100
AcDbVertex
100
AcDb2dVertex
 10
-38.2200994
 20
25.9497484
 30
0.0
  0
VERTEX
  5
B7C
330
1AB
100
AcDbEntity
  8
0
 62
     7
100
AcDbVertex
100
AcDb2dVertex
 10
-38.141952
 20
25.7831086
 30
0.0
  0
VERTEX
  5
B7D
330
1AB
100
AcDbEntity
  8
0
 62
     7
100
AcDbVertex
100
AcDb2dVertex
 10
-38.0563839
 20
25.6210361
 30
0.0
  0
VERTEX
  5
B7E
330
1AB
100
AcDbEntity
  8
0
 62
     7
100
AcDbVertex
100
AcDb2dVertex
 10
-37.9641016
 20
25.4641016
 30
0.0
  0
SEQEND
  5
B7F
330
1AB
100
AcDbEntity
  8
0
 62
     7
  0
POLYLINE
  5
1C2
330
1E
100
AcDbEntity
  8
0
 62
     7
100
AcDb2dPolyline
 66
     1
 10
0.0
 20
0.0
 30
0.0
  0
VERTEX
  5
B80
330
1C2
100
AcDbEntity
  8
0
 62
     7
100
AcDbVertex
100
AcDb2dVertex
 10
-36.0358984
 20
18.5358984
 30
0.0
  0
VERTEX
  5
B81
330
1C2
100
AcDbEntity
  8
0
 62
     7
100
AcDbVertex
100
AcDb2dVertex
 10
-35.94361609999999
 20
18.3789639
 30
0.0
  0
VERTEX
  5
B82
330
1C2
100
AcDbEntity
  8
0
 62
     7
100
AcDbVertex
100
AcDb2dVertex
 10
-35.858048
 20
18.21689139999999
 30
0.0
  0
VERTEX
  5
B83
330
1C2
100
AcDbEntity
  8
0
 62
     7
100
AcDbVertex
100
AcDb2dVertex
 10
-35.77990059999999
 20
18.05025159999999
 30
0.0
  0
VERTEX
  5
B84
330
1C2
100
AcDbEntity
  8
0
 62
     7
100
AcDbVertex
100
AcDb2dVertex
 10
-35.70988049999999
 20
17.8796156
 30
0.0
  0
VERTEX
  5
B85
330
1C2
100
AcDbEntity
  8
0
 62
     7
100
AcDbVertex
100
AcDb2dVertex
 10
-35.64869429999999
 20
17.70555419999999
 30
0.0
  0
VERTEX
  5
B86
330
1C2
100
AcDbEntity
  8
0
 62
     7
100
AcDbVertex
100
AcDb2dVertex
 10
-35.5970485
 20
17.52863819999999
 30
0.0
  0
VERTEX
  5
B87
330
1C2
100
AcDbEntity
  8
0
 62
     7
100
AcDbVertex
100
AcDb2dVertex
 10
-35.5556496
 20
17.3494387
 30
0.0
  0
VERTEX
  5
B88
330
1C2
100
AcDbEntity
  8
0
 62
     7
100
AcDbVertex
100
AcDb2dVertex
 10
-35.5252042
 20
17.1685265
 30
0.0
  0
VERTEX
  5
B89
330
1C2
100
AcDbEntity
  8
0
 62
     7
100
AcDbVertex
100
AcDb2dVertex
 10
-35.5064188
 20
16.9864725
 30
0.0
  0
VERTEX
  5
B8A
330
1C2
100
AcDbEntity
  8
0
 62
     7
100
AcDbVertex
100
AcDb2dVertex
 10
-35.5
 20
16.8038476
 30
0.0
  0
VERTEX
  5
B8B
330
1C2
100
AcDbEntity
  8
0
 62
     7
100
AcDbVertex
100
AcDb2dVertex
 10
-35.5064188
 20
16.62122269999999
 30
0.0
  0
VERTEX
  5
B8C
330
1C2
100
AcDbEntity
  8
0
 62
     7
100
AcDbVertex
100
AcDb2dVertex
 10
-35.5252042
 20
16.43916869999999
 30
0.0
  0
VERTEX
  5
B8D
330
1C2
100
AcDbEntity
  8
0
 62
     7
100
AcDbVertex
100
AcDb2dVertex
 10
-35.5556496
 20
16.2582564
 30
0.0
  0
VERTEX
  5
B8E
330
1C2
100
AcDbEntity
  8
0
 62
     7
100
AcDbVertex
100
AcDb2dVertex
 10
-35.5970485
 20
16.0790569
 30
0.0
  0
VERTEX
  5
B8F
330
1C2
100
AcDbEntity
  8
0
 62
     7
100
AcDbVertex
100
AcDb2dVertex
 10
-35.64869429999999
 20
15.902141
 30
0.0
  0
VERTEX
  5
B90
330
1C2
100
AcDbEntity
  8
0
 62
     7
100
AcDbVertex
100
AcDb2dVertex
 10
-35.70988049999999
 20
15.7280796
 30
0.0
  0
VERTEX
  5
B91
330
1C2
100
AcDbEntity
  8
0
 62
     7
100
AcDbVertex
100
AcDb2dVertex
 10
-35.77990059999999
 20
15.5574435
 30
0.0
  0
VERTEX
  5
B92
330
1C2
100
AcDbEntity
  8
0
 62
     7
100
AcDbVertex
100
AcDb2dVertex
 10
-35.858048
 20
15.3908038
 30
0.0
  0
VERTEX
  5
B93
330
1C2
100
AcDbEntity
  8
0
 62
     7
100
AcDbVertex
100
AcDb2dVertex
 10
-35.94361609999999
 20
15.2287312
 30
0.0
  0
VERTEX
  5
B94
330
1C2
100
AcDbEntity
  8
0
 62
     7
100
AcDbVertex
100
AcDb2dVertex
 10
-36.0358984
 20
15.0717968
 30
0.0
  0
SEQEND
  5
B95
330
1C2
100
AcDbEntity
  8
0
 62
     7
  0
POLYLINE
  5
1D9
330
1E
100
AcDbEntity
  8
0
 62
     7
100
AcDb2dPolyline
 66
     1
 10
0.0
 20
0.0
 30
0.0
  0
VERTEX
  5
B96
330
1D9
100
AcDbEntity
  8
0
 62
     7
100
AcDbVertex
100
AcDb2dVertex
 10
-36.0358984
 20
25.4641016
 30
0.0
  0
VERTEX
  5
B97
330
1D9
100
AcDbEntity
  8
0
 62
     7
100
AcDbVertex
100
AcDb2dVertex
 10
-35.9369701
 20
25.12755929999999
 30
0.0
  0
VERTEX
  5
B98
330
1D9
100
AcDbEntity
  8
0
 62
     7
100
AcDbVertex
100
AcDb2dVertex
 10
-35.8475457
 20
24.7879009
 30
0.0
  0
VERTEX
  5
B99
330
1D9
100
AcDbEntity
  8
0
 62
     7
100
AcDbVertex
100
AcDb2dVertex
 10
-35.7678395
 20
24.4454725
 30
0.0
  0
VERTEX
  5
B9A
330
1D9
100
AcDbEntity
  8
0
 62
     7
100
AcDbVertex
100
AcDb2dVertex
 10
-35.6980655
 20
24.1006204
 30
0.0
  0
VERTEX
  5
B9B
330
1D9
100
AcDbEntity
  8
0
 62
     7
100
AcDbVertex
100
AcDb2dVertex
 10
-35.6384382
 20
23.75369089999999
 30
0.0
  0
VERTEX
  5
B9C
330
1D9
100
AcDbEntity
  8
0
 62
     7
100
AcDbVertex
100
AcDb2dVertex
 10
-35.5891718
 20
23.40503019999999
 30
0.0
  0
VERTEX
  5
B9D
330
1D9
100
AcDbEntity
  8
0
 62
     7
100
AcDbVertex
100
AcDb2dVertex
 10
-35.55048049999999
 20
23.05498449999999
 30
0.0
  0
VERTEX
  5
B9E
330
1D9
100
AcDbEntity
  8
0
 62
     7
100
AcDbVertex
100
AcDb2dVertex
 10
-35.5225786
 20
22.7039001
 30
0.0
  0
VERTEX
  5
B9F
330
1D9
100
AcDbEntity
  8
0
 62
     7
100
AcDbVertex
100
AcDb2dVertex
 10
-35.5056804
 20
22.3521231
 30
0.0
  0
VERTEX
  5
BA0
330
1D9
100
AcDbEntity
  8
0
 62
     7
100
AcDbVertex
100
AcDb2dVertex
 10
-35.5
 20
22.0
 30
0.0
  0
VERTEX
  5
BA1
330
1D9
100
AcDbEntity
  8
0
 62
     7
100
AcDbVertex
100
AcDb2dVertex
 10
-35.5056804
 20
21.64787689999999
 30
0.0
  0
VERTEX
  5
BA2
330
1D9
100
AcDbEntity
  8
0
 62
     7
100
AcDbVertex
100
AcDb2dVertex
 10
-35.5225786
 20
21.2960999
 30
0.0
  0
VERTEX
  5
BA3
330
1D9
100
AcDbEntity
  8
0
 62
     7
100
AcDbVertex
100
AcDb2dVertex
 10
-35.55048049999999
 20
20.94501549999999
 30
0.0
  0
VERTEX
  5
BA4
330
1D9
100
AcDbEntity
  8
0
 62
     7
100
AcDbVertex
100
AcDb2dVertex
 10
-35.5891718
 20
20.5949698
 30
0.0
  0
VERTEX
  5
BA5
330
1D9
100
AcDbEntity
  8
0
 62
     7
100
AcDbVertex
100
AcDb2dVertex
 10
-35.6384382
 20
20.2463091
 30
0.0
  0
VERTEX
  5
BA6
330
1D9
100
AcDbEntity
  8
0
 62
     7
100
AcDbVertex
100
AcDb2dVertex
 10
-35.6980655
 20
19.89937959999999
 30
0.0
  0
VERTEX
  5
BA7
330
1D9
100
AcDbEntity
  8
0
 62
     7
100
AcDbVertex
100
AcDb2dVertex
 10
-35.7678395
 20
19.5545275
 30
0.0
  0
VERTEX
  5
BA8
330
1D9
100
AcDbEntity
  8
0
 62
     7
100
AcDbVertex
100
AcDb2dVertex
 10
-35.8475457
 20
19.21209909999999
 30
0.0
  0
VERTEX
  5
BA9
330
1D9
100
AcDbEntity
  8
0
 62
     7
100
AcDbVertex
100
AcDb2dVertex
 10
-35.9369701
 20
18.8724407
 30
0.0
  0
VERTEX
  5
BAA
330
1D9
100
AcDbEntity
  8
0
 62
     7
100
AcDbVertex
100
AcDb2dVertex
 10
-36.0358984
 20
18.5358984
 30
0.0
  0
SEQEND
  5
BAB
330
1D9
100
AcDbEntity
  8
0
 62
     7
  0
POLYLINE
  5
1F0
330
1E
100
AcDbEntity
  8
0
 62
     7
100
AcDb2dPolyline
 66
     1
 10
0.0
 20
0.0
 30
0.0
  0
VERTEX
  5
BAC
330
1F0
100
AcDbEntity
  8
0
 62
     7
100
AcDbVertex
100
AcDb2dVertex
 10
-36.0358984
 20
28.9282032
 30
0.0
  0
VERTEX
  5
BAD
330
1F0
100
AcDbEntity
  8
0
 62
     7
100
AcDbVertex
100
AcDb2dVertex
 10
-35.94361609999999
 20
28.7712688
 30
0.0
  0
VERTEX
  5
BAE
330
1F0
100
AcDbEntity
  8
0
 62
     7
100
AcDbVertex
100
AcDb2dVertex
 10
-35.858048
 20
28.6091962
 30
0.0
  0
VERTEX
  5
BAF
330
1F0
100
AcDbEntity
  8
0
 62
     7
100
AcDbVertex
100
AcDb2dVertex
 10
-35.77990059999999
 20
28.4425565
 30
0.0
  0
VERTEX
  5
BB0
330
1F0
100
AcDbEntity
  8
0
 62
     7
100
AcDbVertex
100
AcDb2dVertex
 10
-35.70988049999999
 20
28.27192039999999
 30
0.0
  0
VERTEX
  5
BB1
330
1F0
100
AcDbEntity
  8
0
 62
     7
100
AcDbVertex
100
AcDb2dVertex
 10
-35.64869429999999
 20
28.097859
 30
0.0
  0
VERTEX
  5
BB2
330
1F0
100
AcDbEntity
  8
0
 62
     7
100
AcDbVertex
100
AcDb2dVertex
 10
-35.5970485
 20
27.9209431
 30
0.0
  0
VERTEX
  5
BB3
330
1F0
100
AcDbEntity
  8
0
 62
     7
100
AcDbVertex
100
AcDb2dVertex
 10
-35.5556496
 20
27.74174359999999
 30
0.0
  0
VERTEX
  5
BB4
330
1F0
100
AcDbEntity
  8
0
 62
     7
100
AcDbVertex
100
AcDb2dVertex
 10
-35.5252042
 20
27.5608313
 30
0.0
  0
VERTEX
  5
BB5
330
1F0
100
AcDbEntity
  8
0
 62
     7
100
AcDbVertex
100
AcDb2dVertex
 10
-35.5064188
 20
27.3787773
 30
0.0
  0
VERTEX
  5
BB6
330
1F0
100
AcDbEntity
  8
0
 62
     7
100
AcDbVertex
100
AcDb2dVertex
 10
-35.5
 20
27.19615239999999
 30
0.0
  0
VERTEX
  5
BB7
330
1F0
100
AcDbEntity
  8
0
 62
     7
100
AcDbVertex
100
AcDb2dVertex
 10
-35.5064188
 20
27.0135275
 30
0.0
  0
VERTEX
  5
BB8
330
1F0
100
AcDbEntity
  8
0
 62
     7
100
AcDbVertex
100
AcDb2dVertex
 10
-35.5252042
 20
26.8314735
 30
0.0
  0
VERTEX
  5
BB9
330
1F0
100
AcDbEntity
  8
0
 62
     7
100
AcDbVertex
100
AcDb2dVertex
 10
-35.5556496
 20
26.65056129999999
 30
0.0
  0
VERTEX
  5
BBA
330
1F0
100
AcDbEntity
  8
0
 62
     7
100
AcDbVertex
100
AcDb2dVertex
 10
-35.5970485
 20
26.4713618
 30
0.0
  0
VERTEX
  5
BBB
330
1F0
100
AcDbEntity
  8
0
 62
     7
100
AcDbVertex
100
AcDb2dVertex
 10
-35.64869429999999
 20
26.29444579999999
 30
0.0
  0
VERTEX
  5
BBC
330
1F0
100
AcDbEntity
  8
0
 62
     7
100
AcDbVertex
100
AcDb2dVertex
 10
-35.70988049999999
 20
26.1203844
 30
0.0
  0
VERTEX
  5
BBD
330
1F0
100
AcDbEntity
  8
0
 62
     7
100
AcDbVertex
100
AcDb2dVertex
 10
-35.77990059999999
 20
25.9497484
 30
0.0
  0
VERTEX
  5
BBE
330
1F0
100
AcDbEntity
  8
0
 62
     7
100
AcDbVertex
100
AcDb2dVertex
 10
-35.858048
 20
25.7831086
 30
0.0
  0
VERTEX
  5
BBF
330
1F0
100
AcDbEntity
  8
0
 62
     7
100
AcDbVertex
100
AcDb2dVertex
 10
-35.94361609999999
 20
25.6210361
 30
0.0
  0
VERTEX
  5
BC0
330
1F0
100
AcDbEntity
  8
0
 62
     7
100
AcDbVertex
100
AcDb2dVertex
 10
-36.0358984
 20
25.4641016
 30
0.0
  0
SEQEND
  5
BC1
330
1F0
100
AcDbEntity
  8
0
 62
     7
  0
POLYLINE
  5
207
330
1E
100
AcDbEntity
  8
0
 62
     7
100
AcDb2dPolyline
 66
     1
 10
0.0
 20
0.0
 30
0.0
  0
VERTEX
  5
BC2
330
207
100
AcDbEntity
  8
0
 62
     7
100
AcDbVertex
100
AcDb2dVertex
 10
-22.5
 20
24.1794495
 30
0.0
  0
VERTEX
  5
BC3
330
207
100
AcDbEntity
  8
0
 62
     7
100
AcDbVertex
100
AcDb2dVertex
 10
-22.5895329
 20
23.9740818
 30
0.0
  0
VERTEX
  5
BC4
330
207
100
AcDbEntity
  8
0
 62
     7
100
AcDbVertex
100
AcDb2dVertex
 10
-22.6713606
 20
23.7647423
 30
0.0
  0
VERTEX
  5
BC5
330
207
100
AcDbEntity
  8
0
 62
     7
100
AcDbVertex
100
AcDb2dVertex
 10
-22.7450782
 20
23.55187239999999
 30
0.0
  0
VERTEX
  5
BC6
330
207
100
AcDbEntity
  8
0
 62
     7
100
AcDbVertex
100
AcDb2dVertex
 10
-22.8102807
 20
23.3359133
 30
0.0
  0
VERTEX
  5
BC7
330
207
100
AcDbEntity
  8
0
 62
     7
100
AcDbVertex
100
AcDb2dVertex
 10
-22.8665631
 20
23.11730639999999
 30
0.0
  0
VERTEX
  5
BC8
330
207
100
AcDbEntity
  8
0
 62
     7
100
AcDbVertex
100
AcDb2dVertex
 10
-22.91352049999999
 20
22.896493
 30
0.0
  0
VERTEX
  5
BC9
330
207
100
AcDbEntity
  8
0
 62
     7
100
AcDbVertex
100
AcDb2dVertex
 10
-22.9507478
 20
22.67391429999999
 30
0.0
  0
VERTEX
  5
BCA
330
207
100
AcDbEntity
  8
0
 62
     7
100
AcDbVertex
100
AcDb2dVertex
 10
-22.97784019999999
 20
22.4500117
 30
0.0
  0
VERTEX
  5
BCB
330
207
100
AcDbEntity
  8
0
 62
     7
100
AcDbVertex
100
AcDb2dVertex
 10
-22.9943925
 20
22.2252265
 30
0.0
  0
VERTEX
  5
BCC
330
207
100
AcDbEntity
  8
0
 62
     7
100
AcDbVertex
100
AcDb2dVertex
 10
-23.0
 20
22.0
 30
0.0
  0
VERTEX
  5
BCD
330
207
100
AcDbEntity
  8
0
 62
     7
100
AcDbVertex
100
AcDb2dVertex
 10
-22.9943925
 20
21.77477349999999
 30
0.0
  0
VERTEX
  5
BCE
330
207
100
AcDbEntity
  8
0
 62
     7
100
AcDbVertex
100
AcDb2dVertex
 10
-22.97784019999999
 20
21.54998829999999
 30
0.0
  0
VERTEX
  5
BCF
330
207
100
AcDbEntity
  8
0
 62
     7
100
AcDbVertex
100
AcDb2dVertex
 10
-22.9507478
 20
21.32608569999999
 30
0.0
  0
VERTEX
  5
BD0
330
207
100
AcDbEntity
  8
0
 62
     7
100
AcDbVertex
100
AcDb2dVertex
 10
-22.91352049999999
 20
21.103507
 30
0.0
  0
VERTEX
  5
BD1
330
207
100
AcDbEntity
  8
0
 62
     7
100
AcDbVertex
100
AcDb2dVertex
 10
-22.8665631
 20
20.8826936
 30
0.0
  0
VERTEX
  5
BD2
330
207
100
AcDbEntity
  8
0
 62
     7
100
AcDbVertex
100
AcDb2dVertex
 10
-22.8102807
 20
20.66408669999999
 30
0.0
  0
VERTEX
  5
BD3
330
207
100
AcDbEntity
  8
0
 62
     7
100
AcDbVertex
100
AcDb2dVertex
 10
-22.7450782
 20
20.4481276
 30
0.0
  0
VERTEX
  5
BD4
330
207
100
AcDbEntity
  8
0
 62
     7
100
AcDbVertex
100
AcDb2dVertex
 10
-22.6713606
 20
20.2352577
 30
0.0
  0
VERTEX
  5
BD5
330
207
100
AcDbEntity
  8
0
 62
     7
100
AcDbVertex
100
AcDb2dVertex
 10
-22.5895329
 20
20.0259182
 30
0.0
  0
VERTEX
  5
BD6
330
207
100
AcDbEntity
  8
0
 62
     7
100
AcDbVertex
100
AcDb2dVertex
 10
-22.5
 20
19.82055049999999
 30
0.0
  0
SEQEND
  5
BD7
330
207
100
AcDbEntity
  8
0
 62
     7
  0
POLYLINE
  5
21E
330
1E
100
AcDbEntity
  8
0
 62
     7
100
AcDb2dPolyline
 66
     1
 10
0.0
 20
0.0
 30
0.0
  0
VERTEX
  5
BD8
330
21E
100
AcDbEntity
  8
0
 62
     7
100
AcDbVertex
100
AcDb2dVertex
 10
-19.25
 20
24.1794495
 30
0.0
  0
VERTEX
  5
BD9
330
21E
100
AcDbEntity
  8
0
 62
     7
100
AcDbVertex
100
AcDb2dVertex
 10
-19.1604671
 20
23.9740818
 30
0.0
  0
VERTEX
  5
BDA
330
21E
100
AcDbEntity
  8
0
 62
     7
100
AcDbVertex
100
AcDb2dVertex
 10
-19.07863939999999
 20
23.7647423
 30
0.0
  0
VERTEX
  5
BDB
330
21E
100
AcDbEntity
  8
0
 62
     7
100
AcDbVertex
100
AcDb2dVertex
 10
-19.00492179999999
 20
23.55187239999999
 30
0.0
  0
VERTEX
  5
BDC
330
21E
100
AcDbEntity
  8
0
 62
     7
100
AcDbVertex
100
AcDb2dVertex
 10
-18.9397193
 20
23.3359133
 30
0.0
  0
VERTEX
  5
BDD
330
21E
100
AcDbEntity
  8
0
 62
     7
100
AcDbVertex
100
AcDb2dVertex
 10
-18.88343689999999
 20
23.11730639999999
 30
0.0
  0
VERTEX
  5
BDE
330
21E
100
AcDbEntity
  8
0
 62
     7
100
AcDbVertex
100
AcDb2dVertex
 10
-18.8364795
 20
22.896493
 30
0.0
  0
VERTEX
  5
BDF
330
21E
100
AcDbEntity
  8
0
 62
     7
100
AcDbVertex
100
AcDb2dVertex
 10
-18.79925219999999
 20
22.67391429999999
 30
0.0
  0
VERTEX
  5
BE0
330
21E
100
AcDbEntity
  8
0
 62
     7
100
AcDbVertex
100
AcDb2dVertex
 10
-18.7721598
 20
22.4500117
 30
0.0
  0
VERTEX
  5
BE1
330
21E
100
AcDbEntity
  8
0
 62
     7
100
AcDbVertex
100
AcDb2dVertex
 10
-18.75560749999999
 20
22.2252265
 30
0.0
  0
VERTEX
  5
BE2
330
21E
100
AcDbEntity
  8
0
 62
     7
100
AcDbVertex
100
AcDb2dVertex
 10
-18.75
 20
22.0
 30
0.0
  0
VERTEX
  5
BE3
330
21E
100
AcDbEntity
  8
0
 62
     7
100
AcDbVertex
100
AcDb2dVertex
 10
-18.75560749999999
 20
21.77477349999999
 30
0.0
  0
VERTEX
  5
BE4
330
21E
100
AcDbEntity
  8
0
 62
     7
100
AcDbVertex
100
AcDb2dVertex
 10
-18.7721598
 20
21.54998829999999
 30
0.0
  0
VERTEX
  5
BE5
330
21E
100
AcDbEntity
  8
0
 62
     7
100
AcDbVertex
100
AcDb2dVertex
 10
-18.79925219999999
 20
21.32608569999999
 30
0.0
  0
VERTEX
  5
BE6
330
21E
100
AcDbEntity
  8
0
 62
     7
100
AcDbVertex
100
AcDb2dVertex
 10
-18.8364795
 20
21.103507
 30
0.0
  0
VERTEX
  5
BE7
330
21E
100
AcDbEntity
  8
0
 62
     7
100
AcDbVertex
100
AcDb2dVertex
 10
-18.88343689999999
 20
20.8826936
 30
0.0
  0
VERTEX
  5
BE8
330
21E
100
AcDbEntity
  8
0
 62
     7
100
AcDbVertex
100
AcDb2dVertex
 10
-18.9397193
 20
20.66408669999999
 30
0.0
  0
VERTEX
  5
BE9
330
21E
100
AcDbEntity
  8
0
 62
     7
100
AcDbVertex
100
AcDb2dVertex
 10
-19.00492179999999
 20
20.4481276
 30
0.0
  0
VERTEX
  5
BEA
330
21E
100
AcDbEntity
  8
0
 62
     7
100
AcDbVertex
100
AcDb2dVertex
 10
-19.07863939999999
 20
20.2352577
 30
0.0
  0
VERTEX
  5
BEB
330
21E
100
AcDbEntity
  8
0
 62
     7
100
AcDbVertex
100
AcDb2dVertex
 10
-19.1604671
 20
20.0259182
 30
0.0
  0
VERTEX
  5
BEC
330
21E
100
AcDbEntity
  8
0
 62
     7
100
AcDbVertex
100
AcDb2dVertex
 10
-19.25
 20
19.82055049999999
 30
0.0
  0
SEQEND
  5
BED
330
21E
100
AcDbEntity
  8
0
 62
     7
  0
POLYLINE
  5
235
330
1E
100
AcDbEntity
  8
0
 62
     7
100
AcDb2dPolyline
 66
     1
 10
0.0
 20
0.0
 30
0.0
  0
VERTEX
  5
BEE
330
235
100
AcDbEntity
  8
0
 62
     7
100
AcDbVertex
100
AcDb2dVertex
 10
-19.25
 20
-24.1794495
 30
0.0
  0
VERTEX
  5
BEF
330
235
100
AcDbEntity
  8
0
 62
     7
100
AcDbVertex
100
AcDb2dVertex
 10
-19.1604671
 20
-23.9740818
 30
0.0
  0
VERTEX
  5
BF0
330
235
100
AcDbEntity
  8
0
 62
     7
100
AcDbVertex
100
AcDb2dVertex
 10
-19.07863939999999
 20
-23.7647423
 30
0.0
  0
VERTEX
  5
BF1
330
235
100
AcDbEntity
  8
0
 62
     7
100
AcDbVertex
100
AcDb2dVertex
 10
-19.00492179999999
 20
-23.55187239999999
 30
0.0
  0
VERTEX
  5
BF2
330
235
100
AcDbEntity
  8
0
 62
     7
100
AcDbVertex
100
AcDb2dVertex
 10
-18.9397193
 20
-23.3359133
 30
0.0
  0
VERTEX
  5
BF3
330
235
100
AcDbEntity
  8
0
 62
     7
100
AcDbVertex
100
AcDb2dVertex
 10
-18.88343689999999
 20
-23.11730639999999
 30
0.0
  0
VERTEX
  5
BF4
330
235
100
AcDbEntity
  8
0
 62
     7
100
AcDbVertex
100
AcDb2dVertex
 10
-18.8364795
 20
-22.896493
 30
0.0
  0
VERTEX
  5
BF5
330
235
100
AcDbEntity
  8
0
 62
     7
100
AcDbVertex
100
AcDb2dVertex
 10
-18.79925219999999
 20
-22.67391429999999
 30
0.0
  0
VERTEX
  5
BF6
330
235
100
AcDbEntity
  8
0
 62
     7
100
AcDbVertex
100
AcDb2dVertex
 10
-18.7721598
 20
-22.4500117
 30
0.0
  0
VERTEX
  5
BF7
330
235
100
AcDbEntity
  8
0
 62
     7
100
AcDbVertex
100
AcDb2dVertex
 10
-18.75560749999999
 20
-22.2252265
 30
0.0
  0
VERTEX
  5
BF8
330
235
100
AcDbEntity
  8
0
 62
     7
100
AcDbVertex
100
AcDb2dVertex
 10
-18.75
 20
-22.0
 30
0.0
  0
VERTEX
  5
BF9
330
235
100
AcDbEntity
  8
0
 62
     7
100
AcDbVertex
100
AcDb2dVertex
 10
-18.75560749999999
 20
-21.77477349999999
 30
0.0
  0
VERTEX
  5
BFA
330
235
100
AcDbEntity
  8
0
 62
     7
100
AcDbVertex
100
AcDb2dVertex
 10
-18.7721598
 20
-21.54998829999999
 30
0.0
  0
VERTEX
  5
BFB
330
235
100
AcDbEntity
  8
0
 62
     7
100
AcDbVertex
100
AcDb2dVertex
 10
-18.79925219999999
 20
-21.32608569999999
 30
0.0
  0
VERTEX
  5
BFC
330
235
100
AcDbEntity
  8
0
 62
     7
100
AcDbVertex
100
AcDb2dVertex
 10
-18.8364795
 20
-21.103507
 30
0.0
  0
VERTEX
  5
BFD
330
235
100
AcDbEntity
  8
0
 62
     7
100
AcDbVertex
100
AcDb2dVertex
 10
-18.88343689999999
 20
-20.8826936
 30
0.0
  0
VERTEX
  5
BFE
330
235
100
AcDbEntity
  8
0
 62
     7
100
AcDbVertex
100
AcDb2dVertex
 10
-18.9397193
 20
-20.66408669999999
 30
0.0
  0
VERTEX
  5
BFF
330
235
100
AcDbEntity
  8
0
 62
     7
100
AcDbVertex
100
AcDb2dVertex
 10
-19.00492179999999
 20
-20.4481276
 30
0.0
  0
VERTEX
  5
C00
330
235
100
AcDbEntity
  8
0
 62
     7
100
AcDbVertex
100
AcDb2dVertex
 10
-19.07863939999999
 20
-20.2352577
 30
0.0
  0
VERTEX
  5
C01
330
235
100
AcDbEntity
  8
0
 62
     7
100
AcDbVertex
100
AcDb2dVertex
 10
-19.1604671
 20
-20.0259182
 30
0.0
  0
VERTEX
  5
C02
330
235
100
AcDbEntity
  8
0
 62
     7
100
AcDbVertex
100
AcDb2dVertex
 10
-19.25
 20
-19.82055049999999
 30
0.0
  0
SEQEND
  5
C03
330
235
100
AcDbEntity
  8
0
 62
     7
  0
POLYLINE
  5
24C
330
1E
100
AcDbEntity
  8
0
 62
     7
100
AcDb2dPolyline
 66
     1
 10
0.0
 20
0.0
 30
0.0
  0
VERTEX
  5
C04
330
24C
100
AcDbEntity
  8
0
 62
     7
100
AcDbVertex
100
AcDb2dVertex
 10
-22.5
 20
-24.1794495
 30
0.0
  0
VERTEX
  5
C05
330
24C
100
AcDbEntity
  8
0
 62
     7
100
AcDbVertex
100
AcDb2dVertex
 10
-22.5895329
 20
-23.9740818
 30
0.0
  0
VERTEX
  5
C06
330
24C
100
AcDbEntity
  8
0
 62
     7
100
AcDbVertex
100
AcDb2dVertex
 10
-22.6713606
 20
-23.7647423
 30
0.0
  0
VERTEX
  5
C07
330
24C
100
AcDbEntity
  8
0
 62
     7
100
AcDbVertex
100
AcDb2dVertex
 10
-22.7450782
 20
-23.55187239999999
 30
0.0
  0
VERTEX
  5
C08
330
24C
100
AcDbEntity
  8
0
 62
     7
100
AcDbVertex
100
AcDb2dVertex
 10
-22.8102807
 20
-23.3359133
 30
0.0
  0
VERTEX
  5
C09
330
24C
100
AcDbEntity
  8
0
 62
     7
100
AcDbVertex
100
AcDb2dVertex
 10
-22.8665631
 20
-23.11730639999999
 30
0.0
  0
VERTEX
  5
C0A
330
24C
100
AcDbEntity
  8
0
 62
     7
100
AcDbVertex
100
AcDb2dVertex
 10
-22.91352049999999
 20
-22.896493
 30
0.0
  0
VERTEX
  5
C0B
330
24C
100
AcDbEntity
  8
0
 62
     7
100
AcDbVertex
100
AcDb2dVertex
 10
-22.9507478
 20
-22.67391429999999
 30
0.0
  0
VERTEX
  5
C0C
330
24C
100
AcDbEntity
  8
0
 62
     7
100
AcDbVertex
100
AcDb2dVertex
 10
-22.97784019999999
 20
-22.4500117
 30
0.0
  0
VERTEX
  5
C0D
330
24C
100
AcDbEntity
  8
0
 62
     7
100
AcDbVertex
100
AcDb2dVertex
 10
-22.9943925
 20
-22.2252265
 30
0.0
  0
VERTEX
  5
C0E
330
24C
100
AcDbEntity
  8
0
 62
     7
100
AcDbVertex
100
AcDb2dVertex
 10
-23.0
 20
-22.0
 30
0.0
  0
VERTEX
  5
C0F
330
24C
100
AcDbEntity
  8
0
 62
     7
100
AcDbVertex
100
AcDb2dVertex
 10
-22.9943925
 20
-21.77477349999999
 30
0.0
  0
VERTEX
  5
C10
330
24C
100
AcDbEntity
  8
0
 62
     7
100
AcDbVertex
100
AcDb2dVertex
 10
-22.97784019999999
 20
-21.54998829999999
 30
0.0
  0
VERTEX
  5
C11
330
24C
100
AcDbEntity
  8
0
 62
     7
100
AcDbVertex
100
AcDb2dVertex
 10
-22.9507478
 20
-21.32608569999999
 30
0.0
  0
VERTEX
  5
C12
330
24C
100
AcDbEntity
  8
0
 62
     7
100
AcDbVertex
100
AcDb2dVertex
 10
-22.91352049999999
 20
-21.103507
 30
0.0
  0
VERTEX
  5
C13
330
24C
100
AcDbEntity
  8
0
 62
     7
100
AcDbVertex
100
AcDb2dVertex
 10
-22.8665631
 20
-20.8826936
 30
0.0
  0
VERTEX
  5
C14
330
24C
100
AcDbEntity
  8
0
 62
     7
100
AcDbVertex
100
AcDb2dVertex
 10
-22.8102807
 20
-20.66408669999999
 30
0.0
  0
VERTEX
  5
C15
330
24C
100
AcDbEntity
  8
0
 62
     7
100
AcDbVertex
100
AcDb2dVertex
 10
-22.7450782
 20
-20.4481276
 30
0.0
  0
VERTEX
  5
C16
330
24C
100
AcDbEntity
  8
0
 62
     7
100
AcDbVertex
100
AcDb2dVertex
 10
-22.6713606
 20
-20.2352577
 30
0.0
  0
VERTEX
  5
C17
330
24C
100
AcDbEntity
  8
0
 62
     7
100
AcDbVertex
100
AcDb2dVertex
 10
-22.5895329
 20
-20.0259182
 30
0.0
  0
VERTEX
  5
C18
330
24C
100
AcDbEntity
  8
0
 62
     7
100
AcDbVertex
100
AcDb2dVertex
 10
-22.5
 20
-19.82055049999999
 30
0.0
  0
SEQEND
  5
C19
330
24C
100
AcDbEntity
  8
0
 62
     7
  0
LINE
  5
263
330
1E
100
AcDbEntity
  8
0
  6
CENTER
 62
     2
100
AcDbLine
 10
-200.0
 20
71.5
 30
0.0
 11
-200.0
 21
-71.5
 31
0.0
  0
LINE
  5
264
330
1E
100
AcDbEntity
  8
0
 62
     7
100
AcDbLine
 10
-166.5
 20
30.0
 30
0.0
 11
-179.4999999999999
 21
30.0
 31
0.0
  0
LINE
  5
265
330
1E
100
AcDbEntity
  8
0
 62
     7
100
AcDbLine
 10
-166.5
 20
-30.0
 30
0.0
 11
-179.4999999999999
 21
-30.0
 31
0.0
  0
LINE
  5
266
330
1E
100
AcDbEntity
  8
0
 62
     7
100
AcDbLine
 10
-165.5
 20
27.0
 30
0.0
 11
-166.5
 21
27.0
 31
0.0
  0
LINE
  5
267
330
1E
100
AcDbEntity
  8
0
 62
     7
100
AcDbLine
 10
-165.5
 20
-27.0
 30
0.0
 11
-166.5
 21
-27.0
 31
0.0
  0
LINE
  5
268
330
1E
100
AcDbEntity
  8
0
 62
     7
100
AcDbLine
 10
-160.4999999999999
 20
29.5
 30
0.0
 11
-165.5
 21
29.5
 31
0.0
  0
LINE
  5
269
330
1E
100
AcDbEntity
  8
0
 62
     7
100
AcDbLine
 10
-160.4999999999999
 20
-29.5
 30
0.0
 11
-165.5
 21
-29.5
 31
0.0
  0
LINE
  5
26A
330
1E
100
AcDbEntity
  8
0
 62
     7
100
AcDbLine
 10
-181.4999999999999
 20
-67.8
 30
0.0
 11
-181.4999999999999
 21
-68.7
 31
0.0
  0
LINE
  5
26B
330
1E
100
AcDbEntity
  8
0
 62
     7
100
AcDbLine
 10
-189.3
 20
-68.9
 30
0.0
 11
-181.6999999999999
 21
-68.9
 31
0.0
  0
LINE
  5
26C
330
1E
100
AcDbEntity
  8
0
 62
     7
100
AcDbLine
 10
-181.6999999999999
 20
-68.9
 30
0.0
 11
-181.4999999999999
 21
-68.7
 31
0.0
  0
LINE
  5
26D
330
1E
100
AcDbEntity
  8
0
 62
     7
100
AcDbLine
 10
-189.4999999999999
 20
-67.8
 30
0.0
 11
-189.4999999999999
 21
-68.7
 31
0.0
  0
LINE
  5
26E
330
1E
100
AcDbEntity
  8
0
 62
     7
100
AcDbLine
 10
-189.3
 20
-68.9
 30
0.0
 11
-189.4999999999999
 21
-68.7
 31
0.0
  0
LINE
  5
26F
330
1E
100
AcDbEntity
  8
0
 62
     7
100
AcDbLine
 10
-189.4999999999999
 20
-68.7
 30
0.0
 11
-181.4999999999999
 21
-68.7
 31
0.0
  0
LINE
  5
270
330
1E
100
AcDbEntity
  8
0
 62
     7
100
AcDbLine
 10
-181.4999999999999
 20
-67.8
 30
0.0
 11
-189.4999999999999
 21
-67.8
 31
0.0
  0
LINE
  5
271
330
1E
100
AcDbEntity
  8
0
 62
     7
100
AcDbLine
 10
-181.6
 20
-67.5
 30
0.0
 11
-181.6
 21
-67.8
 31
0.0
  0
LINE
  5
272
330
1E
100
AcDbEntity
  8
0
 62
     7
100
AcDbLine
 10
-189.4
 20
-67.5
 30
0.0
 11
-189.4
 21
-67.8
 31
0.0
  0
LINE
  5
273
330
1E
100
AcDbEntity
  8
0
 62
     7
100
AcDbLine
 10
-210.4999999999999
 20
-67.8
 30
0.0
 11
-210.4999999999999
 21
-68.7
 31
0.0
  0
LINE
  5
274
330
1E
100
AcDbEntity
  8
0
 62
     7
100
AcDbLine
 10
-218.3
 20
-68.9
 30
0.0
 11
-210.6999999999999
 21
-68.9
 31
0.0
  0
LINE
  5
275
330
1E
100
AcDbEntity
  8
0
 62
     7
100
AcDbLine
 10
-210.6999999999999
 20
-68.9
 30
0.0
 11
-210.4999999999999
 21
-68.7
 31
0.0
  0
LINE
  5
276
330
1E
100
AcDbEntity
  8
0
 62
     7
100
AcDbLine
 10
-218.5
 20
-67.8
 30
0.0
 11
-218.5
 21
-68.7
 31
0.0
  0
LINE
  5
277
330
1E
100
AcDbEntity
  8
0
 62
     7
100
AcDbLine
 10
-218.3
 20
-68.9
 30
0.0
 11
-218.5
 21
-68.7
 31
0.0
  0
LINE
  5
278
330
1E
100
AcDbEntity
  8
0
 62
     7
100
AcDbLine
 10
-218.5
 20
-68.7
 30
0.0
 11
-210.4999999999999
 21
-68.7
 31
0.0
  0
LINE
  5
279
330
1E
100
AcDbEntity
  8
0
 62
     7
100
AcDbLine
 10
-210.4999999999999
 20
-67.8
 30
0.0
 11
-218.5
 21
-67.8
 31
0.0
  0
LINE
  5
27A
330
1E
100
AcDbEntity
  8
0
 62
     7
100
AcDbLine
 10
-210.5999999999999
 20
-67.5
 30
0.0
 11
-210.5999999999999
 21
-67.8
 31
0.0
  0
LINE
  5
27B
330
1E
100
AcDbEntity
  8
0
 62
     7
100
AcDbLine
 10
-218.4
 20
-67.5
 30
0.0
 11
-218.4
 21
-67.8
 31
0.0
  0
LINE
  5
27C
330
1E
100
AcDbEntity
  8
0
 62
     7
100
AcDbLine
 10
-181.4999999999999
 20
67.8
 30
0.0
 11
-189.4999999999999
 21
67.8
 31
0.0
  0
LINE
  5
27D
330
1E
100
AcDbEntity
  8
0
 62
     7
100
AcDbLine
 10
-189.4999999999999
 20
68.7
 30
0.0
 11
-181.4999999999999
 21
68.7
 31
0.0
  0
LINE
  5
27E
330
1E
100
AcDbEntity
  8
0
 62
     7
100
AcDbLine
 10
-189.3
 20
68.9
 30
0.0
 11
-189.4999999999999
 21
68.7
 31
0.0
  0
LINE
  5
27F
330
1E
100
AcDbEntity
  8
0
 62
     7
100
AcDbLine
 10
-189.4999999999999
 20
67.8
 30
0.0
 11
-189.4999999999999
 21
68.7
 31
0.0
  0
LINE
  5
280
330
1E
100
AcDbEntity
  8
0
 62
     7
100
AcDbLine
 10
-181.6999999999999
 20
68.9
 30
0.0
 11
-181.4999999999999
 21
68.7
 31
0.0
  0
LINE
  5
281
330
1E
100
AcDbEntity
  8
0
 62
     7
100
AcDbLine
 10
-189.3
 20
68.9
 30
0.0
 11
-181.6999999999999
 21
68.9
 31
0.0
  0
LINE
  5
282
330
1E
100
AcDbEntity
  8
0
 62
     7
100
AcDbLine
 10
-181.4999999999999
 20
67.8
 30
0.0
 11
-181.4999999999999
 21
68.7
 31
0.0
  0
LINE
  5
283
330
1E
100
AcDbEntity
  8
0
 62
     7
100
AcDbLine
 10
-189.4
 20
67.5
 30
0.0
 11
-189.4
 21
67.8
 31
0.0
  0
LINE
  5
284
330
1E
100
AcDbEntity
  8
0
 62
     7
100
AcDbLine
 10
-181.6
 20
67.5
 30
0.0
 11
-181.6
 21
67.8
 31
0.0
  0
LINE
  5
285
330
1E
100
AcDbEntity
  8
0
  6
CENTER
 62
     2
100
AcDbLine
 10
-185.5
 20
70.9
 30
0.0
 11
-185.5
 21
67.5
 31
0.0
  0
LINE
  5
286
330
1E
100
AcDbEntity
  8
0
 62
     7
100
AcDbLine
 10
-210.4999999999999
 20
67.8
 30
0.0
 11
-218.5
 21
67.8
 31
0.0
  0
LINE
  5
287
330
1E
100
AcDbEntity
  8
0
 62
     7
100
AcDbLine
 10
-218.5
 20
68.7
 30
0.0
 11
-210.4999999999999
 21
68.7
 31
0.0
  0
LINE
  5
288
330
1E
100
AcDbEntity
  8
0
 62
     7
100
AcDbLine
 10
-218.3
 20
68.9
 30
0.0
 11
-218.5
 21
68.7
 31
0.0
  0
LINE
  5
289
330
1E
100
AcDbEntity
  8
0
 62
     7
100
AcDbLine
 10
-218.5
 20
67.8
 30
0.0
 11
-218.5
 21
68.7
 31
0.0
  0
LINE
  5
28A
330
1E
100
AcDbEntity
  8
0
 62
     7
100
AcDbLine
 10
-210.6999999999999
 20
68.9
 30
0.0
 11
-210.4999999999999
 21
68.7
 31
0.0
  0
LINE
  5
28B
330
1E
100
AcDbEntity
  8
0
 62
     7
100
AcDbLine
 10
-218.3
 20
68.9
 30
0.0
 11
-210.6999999999999
 21
68.9
 31
0.0
  0
LINE
  5
28C
330
1E
100
AcDbEntity
  8
0
 62
     7
100
AcDbLine
 10
-210.4999999999999
 20
67.8
 30
0.0
 11
-210.4999999999999
 21
68.7
 31
0.0
  0
LINE
  5
28D
330
1E
100
AcDbEntity
  8
0
 62
     7
100
AcDbLine
 10
-218.4
 20
67.5
 30
0.0
 11
-218.4
 21
67.8
 31
0.0
  0
LINE
  5
28E
330
1E
100
AcDbEntity
  8
0
 62
     7
100
AcDbLine
 10
-210.5999999999999
 20
67.5
 30
0.0
 11
-210.5999999999999
 21
67.8
 31
0.0
  0
LINE
  5
28F
330
1E
100
AcDbEntity
  8
0
  6
CENTER
 62
     2
100
AcDbLine
 10
-214.5
 20
70.9
 30
0.0
 11
-214.5
 21
67.5
 31
0.0
  0
LINE
  5
290
330
1E
100
AcDbEntity
  8
0
 62
     7
100
AcDbLine
 10
-165.5
 20
29.5
 30
0.0
 11
-165.5
 21
-29.5
 31
0.0
  0
LINE
  5
291
330
1E
100
AcDbEntity
  8
0
 62
     7
100
AcDbLine
 10
-218.4686269999999
 20
59.0
 30
0.0
 11
-210.531373
 21
59.0
 31
0.0
  0
LINE
  5
292
330
1E
100
AcDbEntity
  8
0
 62
     7
100
AcDbLine
 10
-218.4686269999999
 20
58.0
 30
0.0
 11
-210.531373
 21
58.0
 31
0.0
  0
CIRCLE
  5
293
330
1E
100
AcDbEntity
  8
0
 62
     7
100
AcDbCircle
 10
-214.5
 20
58.5
 30
0.0
 40
4.0
  0
LINE
  5
294
330
1E
100
AcDbEntity
  8
0
  6
CENTER
 62
     2
100
AcDbLine
 10
-214.5
 20
52.25
 30
0.0
 11
-214.5
 21
64.75
 31
0.0
  0
LINE
  5
295
330
1E
100
AcDbEntity
  8
0
  6
CENTER
 62
     2
100
AcDbLine
 10
-220.75
 20
58.5
 30
0.0
 11
-208.25
 21
58.5
 31
0.0
  0
LINE
  5
296
330
1E
100
AcDbEntity
  8
0
 62
     7
100
AcDbLine
 10
-189.468627
 20
-58.0
 30
0.0
 11
-181.5313729999999
 21
-58.0
 31
0.0
  0
LINE
  5
297
330
1E
100
AcDbEntity
  8
0
 62
     7
100
AcDbLine
 10
-189.468627
 20
-59.0
 30
0.0
 11
-181.5313729999999
 21
-59.0
 31
0.0
  0
CIRCLE
  5
298
330
1E
100
AcDbEntity
  8
0
 62
     7
100
AcDbCircle
 10
-185.5
 20
-58.5
 30
0.0
 40
4.0
  0
LINE
  5
299
330
1E
100
AcDbEntity
  8
0
  6
CENTER
 62
     2
100
AcDbLine
 10
-185.5
 20
-64.75
 30
0.0
 11
-185.5
 21
-52.25
 31
0.0
  0
LINE
  5
29A
330
1E
100
AcDbEntity
  8
0
  6
CENTER
 62
     2
100
AcDbLine
 10
-191.75
 20
-58.5
 30
0.0
 11
-179.2499999999999
 21
-58.5
 31
0.0
  0
LINE
  5
29B
330
1E
100
AcDbEntity
  8
0
 62
     7
100
AcDbLine
 10
-166.5
 20
30.0
 30
0.0
 11
-166.5
 21
-30.0
 31
0.0
  0
LINE
  5
29C
330
1E
100
AcDbEntity
  8
0
 62
     7
100
AcDbLine
 10
-219.0
 20
67.50000759999998
 30
0.0
 11
-219.0
 21
-67.49999240000001
 31
0.0
  0
LINE
  5
29D
330
1E
100
AcDbEntity
  8
0
 62
     7
100
AcDbLine
 10
-220.5
 20
67.50000759999998
 30
0.0
 11
-220.5
 21
-67.49999240000001
 31
0.0
  0
LINE
  5
29E
330
1E
100
AcDbEntity
  8
0
 62
     7
100
AcDbLine
 10
-160.4999999999999
 20
-29.5
 30
0.0
 11
-160.4999999999999
 21
29.5
 31
0.0
  0
LINE
  5
29F
330
1E
100
AcDbEntity
  8
0
  6
CENTER
 62
     2
100
AcDbLine
 10
-156.4999999999999
 20
0.0
 30
0.0
 11
-224.5
 21
0.0
 31
0.0
  0
LINE
  5
2A0
330
1E
100
AcDbEntity
  8
0
 62
     7
100
AcDbLine
 10
-179.4999999999999
 20
67.5
 30
0.0
 11
-220.5
 21
67.5
 31
0.0
  0
LINE
  5
2A1
330
1E
100
AcDbEntity
  8
0
 62
     7
100
AcDbLine
 10
-179.4999999999999
 20
-67.5
 30
0.0
 11
-220.5
 21
-67.5
 31
0.0
  0
LINE
  5
2A2
330
1E
100
AcDbEntity
  8
0
 62
     7
100
AcDbLine
 10
-197.5999999999999
 20
67.50000759999998
 30
0.0
 11
-197.5999999999999
 21
-67.49999240000001
 31
0.0
  0
LINE
  5
2A3
330
1E
100
AcDbEntity
  8
0
 62
     7
100
AcDbLine
 10
-194.4
 20
67.50000759999998
 30
0.0
 11
-194.4
 21
-67.49999240000001
 31
0.0
  0
LINE
  5
2A4
330
1E
100
AcDbEntity
  8
0
 62
     7
100
AcDbLine
 10
-202.4
 20
67.50000759999998
 30
0.0
 11
-202.4
 21
-67.49999240000001
 31
0.0
  0
LINE
  5
2A5
330
1E
100
AcDbEntity
  8
0
 62
     7
100
AcDbLine
 10
-205.6
 20
67.50000759999998
 30
0.0
 11
-205.6
 21
-67.49999240000001
 31
0.0
  0
LINE
  5
2A6
330
1E
100
AcDbEntity
  8
0
 62
     7
100
AcDbLine
 10
-179.4999999999999
 20
-67.49999240000001
 30
0.0
 11
-179.4999999999999
 21
67.50000759999998
 31
0.0
  0
LINE
  5
2A7
330
1E
100
AcDbEntity
  8
0
 62
     7
100
AcDbLine
 10
-181.0
 20
-67.49999240000001
 30
0.0
 11
-181.0
 21
67.50000759999998
 31
0.0
  0
LINE
  5
2A8
330
1E
100
AcDbEntity
  8
0
  6
CENTER
 62
     2
100
AcDbLine
 10
-214.5
 20
-70.9
 30
0.0
 11
-214.5
 21
-67.5
 31
0.0
  0
LINE
  5
2A9
330
1E
100
AcDbEntity
  8
0
  6
CENTER
 62
     2
100
AcDbLine
 10
-185.5
 20
-70.9
 30
0.0
 11
-185.5
 21
-67.5
 31
0.0
  0
LINE
  5
2AA
330
1E
100
AcDbEntity
  8
0
 62
     7
100
AcDbLine
 10
20.5
 20
-29.5
 30
0.0
 11
25.5
 21
-29.5
 31
0.0
  0
LINE
  5
2AB
330
1E
100
AcDbEntity
  8
0
 62
     7
100
AcDbLine
 10
20.5
 20
29.5
 30
0.0
 11
25.5
 21
29.5
 31
0.0
  0
LINE
  5
2AC
330
1E
100
AcDbEntity
  8
0
 62
     7
100
AcDbLine
 10
25.5
 20
-27.0
 30
0.0
 11
26.5
 21
-27.0
 31
0.0
  0
LINE
  5
2AD
330
1E
100
AcDbEntity
  8
0
 62
     7
100
AcDbLine
 10
25.5
 20
27.0
 30
0.0
 11
26.5
 21
27.0
 31
0.0
  0
LINE
  5
2AE
330
1E
100
AcDbEntity
  8
0
 62
     7
100
AcDbLine
 10
26.5
 20
-30.0
 30
0.0
 11
41.0
 21
-30.0
 31
0.0
  0
LINE
  5
2AF
330
1E
100
AcDbEntity
  8
0
 62
     7
100
AcDbLine
 10
26.5
 20
30.0
 30
0.0
 11
41.0
 21
30.0
 31
0.0
  0
LINE
  5
2B0
330
1E
100
AcDbEntity
  8
0
 62
     7
100
AcDbLine
 10
41.6
 20
-67.5
 30
0.0
 11
41.6
 21
-67.8
 31
0.0
  0
LINE
  5
2B1
330
1E
100
AcDbEntity
  8
0
 62
     7
100
AcDbLine
 10
49.4
 20
-67.5
 30
0.0
 11
49.4
 21
-67.8
 31
0.0
  0
LINE
  5
2B2
330
1E
100
AcDbEntity
  8
0
 62
     7
100
AcDbLine
 10
49.5
 20
-67.8
 30
0.0
 11
41.5
 21
-67.8
 31
0.0
  0
LINE
  5
2B3
330
1E
100
AcDbEntity
  8
0
 62
     7
100
AcDbLine
 10
41.5
 20
-68.7
 30
0.0
 11
49.5
 21
-68.7
 31
0.0
  0
LINE
  5
2B4
330
1E
100
AcDbEntity
  8
0
 62
     7
100
AcDbLine
 10
41.7
 20
-68.9
 30
0.0
 11
41.5
 21
-68.7
 31
0.0
  0
LINE
  5
2B5
330
1E
100
AcDbEntity
  8
0
 62
     7
100
AcDbLine
 10
41.5
 20
-67.8
 30
0.0
 11
41.5
 21
-68.7
 31
0.0
  0
LINE
  5
2B6
330
1E
100
AcDbEntity
  8
0
 62
     7
100
AcDbLine
 10
49.29999999999999
 20
-68.9
 30
0.0
 11
49.5
 21
-68.7
 31
0.0
  0
LINE
  5
2B7
330
1E
100
AcDbEntity
  8
0
 62
     7
100
AcDbLine
 10
41.7
 20
-68.9
 30
0.0
 11
49.29999999999999
 21
-68.9
 31
0.0
  0
LINE
  5
2B8
330
1E
100
AcDbEntity
  8
0
 62
     7
100
AcDbLine
 10
49.5
 20
-67.8
 30
0.0
 11
49.5
 21
-68.7
 31
0.0
  0
LINE
  5
2B9
330
1E
100
AcDbEntity
  8
0
 62
     7
100
AcDbLine
 10
70.59999999999999
 20
-67.5
 30
0.0
 11
70.59999999999999
 21
-67.8
 31
0.0
  0
LINE
  5
2BA
330
1E
100
AcDbEntity
  8
0
 62
     7
100
AcDbLine
 10
78.4
 20
-67.5
 30
0.0
 11
78.4
 21
-67.8
 31
0.0
  0
LINE
  5
2BB
330
1E
100
AcDbEntity
  8
0
 62
     7
100
AcDbLine
 10
78.5
 20
-67.8
 30
0.0
 11
70.5
 21
-67.8
 31
0.0
  0
LINE
  5
2BC
330
1E
100
AcDbEntity
  8
0
 62
     7
100
AcDbLine
 10
70.5
 20
-68.7
 30
0.0
 11
78.5
 21
-68.7
 31
0.0
  0
LINE
  5
2BD
330
1E
100
AcDbEntity
  8
0
 62
     7
100
AcDbLine
 10
70.7
 20
-68.9
 30
0.0
 11
70.5
 21
-68.7
 31
0.0
  0
LINE
  5
2BE
330
1E
100
AcDbEntity
  8
0
 62
     7
100
AcDbLine
 10
70.5
 20
-67.8
 30
0.0
 11
70.5
 21
-68.7
 31
0.0
  0
LINE
  5
2BF
330
1E
100
AcDbEntity
  8
0
 62
     7
100
AcDbLine
 10
78.3
 20
-68.9
 30
0.0
 11
78.5
 21
-68.7
 31
0.0
  0
LINE
  5
2C0
330
1E
100
AcDbEntity
  8
0
 62
     7
100
AcDbLine
 10
70.7
 20
-68.9
 30
0.0
 11
78.3
 21
-68.9
 31
0.0
  0
LINE
  5
2C1
330
1E
100
AcDbEntity
  8
0
 62
     7
100
AcDbLine
 10
78.5
 20
-67.8
 30
0.0
 11
78.5
 21
-68.7
 31
0.0
  0
LINE
  5
2C2
330
1E
100
AcDbEntity
  8
0
 62
     7
100
AcDbLine
 10
78.5
 20
67.8
 30
0.0
 11
78.5
 21
68.7
 31
0.0
  0
LINE
  5
2C3
330
1E
100
AcDbEntity
  8
0
 62
     7
100
AcDbLine
 10
70.7
 20
68.9
 30
0.0
 11
78.3
 21
68.9
 31
0.0
  0
LINE
  5
2C4
330
1E
100
AcDbEntity
  8
0
 62
     7
100
AcDbLine
 10
78.3
 20
68.9
 30
0.0
 11
78.5
 21
68.7
 31
0.0
  0
LINE
  5
2C5
330
1E
100
AcDbEntity
  8
0
 62
     7
100
AcDbLine
 10
70.5
 20
67.8
 30
0.0
 11
70.5
 21
68.7
 31
0.0
  0
LINE
  5
2C6
330
1E
100
AcDbEntity
  8
0
 62
     7
100
AcDbLine
 10
70.7
 20
68.9
 30
0.0
 11
70.5
 21
68.7
 31
0.0
  0
LINE
  5
2C7
330
1E
100
AcDbEntity
  8
0
 62
     7
100
AcDbLine
 10
70.5
 20
68.7
 30
0.0
 11
78.5
 21
68.7
 31
0.0
  0
LINE
  5
2C8
330
1E
100
AcDbEntity
  8
0
 62
     7
100
AcDbLine
 10
78.5
 20
67.8
 30
0.0
 11
70.5
 21
67.8
 31
0.0
  0
LINE
  5
2C9
330
1E
100
AcDbEntity
  8
0
 62
     7
100
AcDbLine
 10
70.59999999999999
 20
67.5
 30
0.0
 11
70.59999999999999
 21
67.8
 31
0.0
  0
LINE
  5
2CA
330
1E
100
AcDbEntity
  8
0
 62
     7
100
AcDbLine
 10
78.4
 20
67.5
 30
0.0
 11
78.4
 21
67.8
 31
0.0
  0
LINE
  5
2CB
330
1E
100
AcDbEntity
  8
0
  6
CENTER
 62
     2
100
AcDbLine
 10
74.5
 20
70.9
 30
0.0
 11
74.5
 21
67.5
 31
0.0
  0
LINE
  5
2CC
330
1E
100
AcDbEntity
  8
0
 62
     7
100
AcDbLine
 10
49.5
 20
67.8
 30
0.0
 11
49.5
 21
68.7
 31
0.0
  0
LINE
  5
2CD
330
1E
100
AcDbEntity
  8
0
 62
     7
100
AcDbLine
 10
41.7
 20
68.9
 30
0.0
 11
49.29999999999999
 21
68.9
 31
0.0
  0
LINE
  5
2CE
330
1E
100
AcDbEntity
  8
0
 62
     7
100
AcDbLine
 10
49.29999999999999
 20
68.9
 30
0.0
 11
49.5
 21
68.7
 31
0.0
  0
LINE
  5
2CF
330
1E
100
AcDbEntity
  8
0
 62
     7
100
AcDbLine
 10
41.5
 20
67.8
 30
0.0
 11
41.5
 21
68.7
 31
0.0
  0
LINE
  5
2D0
330
1E
100
AcDbEntity
  8
0
 62
     7
100
AcDbLine
 10
41.7
 20
68.9
 30
0.0
 11
41.5
 21
68.7
 31
0.0
  0
LINE
  5
2D1
330
1E
100
AcDbEntity
  8
0
 62
     7
100
AcDbLine
 10
41.5
 20
68.7
 30
0.0
 11
49.5
 21
68.7
 31
0.0
  0
LINE
  5
2D2
330
1E
100
AcDbEntity
  8
0
 62
     7
100
AcDbLine
 10
49.5
 20
67.8
 30
0.0
 11
41.5
 21
67.8
 31
0.0
  0
LINE
  5
2D3
330
1E
100
AcDbEntity
  8
0
 62
     7
100
AcDbLine
 10
41.6
 20
67.5
 30
0.0
 11
41.6
 21
67.8
 31
0.0
  0
LINE
  5
2D4
330
1E
100
AcDbEntity
  8
0
 62
     7
100
AcDbLine
 10
49.4
 20
67.5
 30
0.0
 11
49.4
 21
67.8
 31
0.0
  0
LINE
  5
2D5
330
1E
100
AcDbEntity
  8
0
  6
CENTER
 62
     2
100
AcDbLine
 10
45.49999999999999
 20
70.9
 30
0.0
 11
45.49999999999999
 21
67.5
 31
0.0
  0
LINE
  5
2D6
330
1E
100
AcDbEntity
  8
0
 62
     7
100
AcDbLine
 10
25.5
 20
29.5
 30
0.0
 11
25.5
 21
-29.5
 31
0.0
  0
CIRCLE
  5
2D7
330
1E
100
AcDbEntity
  8
0
 62
     7
100
AcDbCircle
 10
74.5
 20
-58.5
 30
0.0
 40
2.1
  0
CIRCLE
  5
2D8
330
1E
100
AcDbEntity
  8
0
 62
     2
100
AcDbCircle
 10
74.5
 20
-58.5
 30
0.0
 40
2.5
  0
LINE
  5
2D9
330
1E
100
AcDbEntity
  8
0
  6
CENTER
 62
     2
100
AcDbLine
 10
79.0
 20
-58.5
 30
0.0
 11
70.0
 21
-58.5
 31
0.0
  0
LINE
  5
2DA
330
1E
100
AcDbEntity
  8
0
  6
CENTER
 62
     2
100
AcDbLine
 10
74.5
 20
-63.0
 30
0.0
 11
74.5
 21
-54.0
 31
0.0
  0
CIRCLE
  5
2DB
330
1E
100
AcDbEntity
  8
0
 62
     7
100
AcDbCircle
 10
45.49999999999999
 20
58.5
 30
0.0
 40
2.1
  0
CIRCLE
  5
2DC
330
1E
100
AcDbEntity
  8
0
 62
     2
100
AcDbCircle
 10
45.49999999999999
 20
58.5
 30
0.0
 40
2.5
  0
LINE
  5
2DD
330
1E
100
AcDbEntity
  8
0
  6
CENTER
 62
     2
100
AcDbLine
 10
41.0
 20
58.5
 30
0.0
 11
50.0
 21
58.5
 31
0.0
  0
LINE
  5
2DE
330
1E
100
AcDbEntity
  8
0
  6
CENTER
 62
     2
100
AcDbLine
 10
45.49999999999999
 20
63.0
 30
0.0
 11
45.49999999999999
 21
54.0
 31
0.0
  0
LINE
  5
2DF
330
1E
100
AcDbEntity
  8
0
 62
     7
100
AcDbLine
 10
41.0
 20
-30.0
 30
0.0
 11
41.0
 21
-67.49999240000001
 31
0.0
  0
LINE
  5
2E0
330
1E
100
AcDbEntity
  8
0
 62
     7
100
AcDbLine
 10
41.0
 20
67.50000759999998
 30
0.0
 11
41.0
 21
30.0
 31
0.0
  0
LINE
  5
2E1
330
1E
100
AcDbEntity
  8
0
 62
     7
100
AcDbLine
 10
39.5
 20
-30.0
 30
0.0
 11
39.5
 21
-67.49999240000001
 31
0.0
  0
LINE
  5
2E2
330
1E
100
AcDbEntity
  8
0
 62
     7
100
AcDbLine
 10
39.5
 20
67.50000759999998
 30
0.0
 11
39.5
 21
30.0
 31
0.0
  0
LINE
  5
2E3
330
1E
100
AcDbEntity
  8
0
 62
     7
100
AcDbLine
 10
65.59999999999999
 20
67.50000759999998
 30
0.0
 11
65.59999999999999
 21
-67.49999240000001
 31
0.0
  0
LINE
  5
2E4
330
1E
100
AcDbEntity
  8
0
 62
     7
100
AcDbLine
 10
62.4
 20
67.50000759999998
 30
0.0
 11
62.4
 21
-67.49999240000001
 31
0.0
  0
LINE
  5
2E5
330
1E
100
AcDbEntity
  8
0
 62
     7
100
AcDbLine
 10
54.4
 20
67.50000759999998
 30
0.0
 11
54.4
 21
-67.49999240000001
 31
0.0
  0
LINE
  5
2E6
330
1E
100
AcDbEntity
  8
0
 62
     7
100
AcDbLine
 10
57.6
 20
67.50000759999998
 30
0.0
 11
57.6
 21
-67.49999240000001
 31
0.0
  0
LINE
  5
2E7
330
1E
100
AcDbEntity
  8
0
 62
     7
100
AcDbLine
 10
39.5
 20
-67.5
 30
0.0
 11
80.5
 21
-67.5
 31
0.0
  0
LINE
  5
2E8
330
1E
100
AcDbEntity
  8
0
 62
     7
100
AcDbLine
 10
39.5
 20
67.5
 30
0.0
 11
80.5
 21
67.5
 31
0.0
  0
LINE
  5
2E9
330
1E
100
AcDbEntity
  8
0
  6
CENTER
 62
     2
100
AcDbLine
 10
16.5
 20
0.0
 30
0.0
 11
84.50000000000001
 21
0.0
 31
0.0
  0
LINE
  5
2EA
330
1E
100
AcDbEntity
  8
0
 62
     7
100
AcDbLine
 10
20.5
 20
-29.5
 30
0.0
 11
20.5
 21
29.5
 31
0.0
  0
LINE
  5
2EB
330
1E
100
AcDbEntity
  8
0
 62
     7
100
AcDbLine
 10
80.5
 20
67.50000759999998
 30
0.0
 11
80.5
 21
-67.49999240000001
 31
0.0
  0
LINE
  5
2EC
330
1E
100
AcDbEntity
  8
0
 62
     7
100
AcDbLine
 10
79.0
 20
67.50000759999998
 30
0.0
 11
79.0
 21
-67.49999240000001
 31
0.0
  0
LINE
  5
2ED
330
1E
100
AcDbEntity
  8
0
 62
     7
100
AcDbLine
 10
26.5
 20
30.0
 30
0.0
 11
26.5
 21
-30.0
 31
0.0
  0
LINE
  5
2EE
330
1E
100
AcDbEntity
  8
0
  6
CENTER
 62
     2
100
AcDbLine
 10
25.0717968
 20
22.0
 30
0.0
 11
42.92820319999999
 21
22.0
 31
0.0
  0
LINE
  5
2EF
330
1E
100
AcDbEntity
  8
0
 62
     7
100
AcDbLine
 10
34.0
 20
28.9282032
 30
0.0
 11
28.0
 21
25.4641016
 31
0.0
  0
LINE
  5
2F0
330
1E
100
AcDbEntity
  8
0
 62
     7
100
AcDbLine
 10
40.0
 20
25.4641016
 30
0.0
 11
34.0
 21
28.9282032
 31
0.0
  0
LINE
  5
2F1
330
1E
100
AcDbEntity
  8
0
  6
CENTER
 62
     2
100
AcDbLine
 10
34.0
 20
14.0
 30
0.0
 11
34.0
 21
30.0
 31
0.0
  0
CIRCLE
  5
2F2
330
1E
100
AcDbEntity
  8
0
 62
     7
100
AcDbCircle
 10
34.0
 20
22.0
 30
0.0
 40
3.25
  0
CIRCLE
  5
2F3
330
1E
100
AcDbEntity
  8
0
 62
     2
100
AcDbCircle
 10
34.0
 20
22.0
 30
0.0
 40
4.5
  0
CIRCLE
  5
2F4
330
1E
100
AcDbEntity
  8
0
 62
     7
100
AcDbCircle
 10
34.0
 20
22.0
 30
0.0
 40
5.0
  0
CIRCLE
  5
2F5
330
1E
100
AcDbEntity
  8
0
 62
     7
100
AcDbCircle
 10
34.0
 20
22.0
 30
0.0
 40
6.0
  0
LINE
  5
2F6
330
1E
100
AcDbEntity
  8
0
 62
     7
100
AcDbLine
 10
40.0
 20
18.5358984
 30
0.0
 11
40.0
 21
25.4641016
 31
0.0
  0
LINE
  5
2F7
330
1E
100
AcDbEntity
  8
0
 62
     7
100
AcDbLine
 10
34.0
 20
15.0717968
 30
0.0
 11
40.0
 21
18.5358984
 31
0.0
  0
LINE
  5
2F8
330
1E
100
AcDbEntity
  8
0
 62
     7
100
AcDbLine
 10
28.0
 20
18.5358984
 30
0.0
 11
34.0
 21
15.0717968
 31
0.0
  0
LINE
  5
2F9
330
1E
100
AcDbEntity
  8
0
 62
     7
100
AcDbLine
 10
28.0
 20
25.4641016
 30
0.0
 11
28.0
 21
18.5358984
 31
0.0
  0
LINE
  5
2FA
330
1E
100
AcDbEntity
  8
0
 62
     7
100
AcDbLine
 10
29.5
 20
19.82055049999999
 30
0.0
 11
29.5
 21
24.1794495
 31
0.0
  0
LINE
  5
2FB
330
1E
100
AcDbEntity
  8
0
 62
     7
100
AcDbLine
 10
38.5
 20
19.82055049999999
 30
0.0
 11
38.5
 21
24.1794495
 31
0.0
  0
LINE
  5
2FC
330
1E
100
AcDbEntity
  8
0
  6
CENTER
 62
     2
100
AcDbLine
 10
60.0
 20
72.0
 30
0.0
 11
60.0
 21
-71.5
 31
0.0
  0
LINE
  5
2FD
330
1E
100
AcDbEntity
  8
0
  6
CENTER
 62
     2
100
AcDbLine
 10
74.5
 20
-70.9
 30
0.0
 11
74.5
 21
-67.5
 31
0.0
  0
LINE
  5
2FE
330
1E
100
AcDbEntity
  8
0
  6
CENTER
 62
     2
100
AcDbLine
 10
45.49999999999999
 20
-70.9
 30
0.0
 11
45.49999999999999
 21
-67.5
 31
0.0
  0
LINE
  5
2FF
330
1E
100
AcDbEntity
  8
0
  6
CENTER
 62
     2
100
AcDbLine
 10
25.0717968
 20
-22.0
 30
0.0
 11
42.92820319999999
 21
-22.0
 31
0.0
  0
LINE
  5
300
330
1E
100
AcDbEntity
  8
0
 62
     7
100
AcDbLine
 10
34.0
 20
-28.9282032
 30
0.0
 11
28.0
 21
-25.4641016
 31
0.0
  0
LINE
  5
301
330
1E
100
AcDbEntity
  8
0
 62
     7
100
AcDbLine
 10
40.0
 20
-25.4641016
 30
0.0
 11
34.0
 21
-28.9282032
 31
0.0
  0
LINE
  5
302
330
1E
100
AcDbEntity
  8
0
  6
CENTER
 62
     2
100
AcDbLine
 10
34.0
 20
-14.0
 30
0.0
 11
34.0
 21
-30.0
 31
0.0
  0
LINE
  5
303
330
1E
100
AcDbEntity
  8
0
 62
     7
100
AcDbLine
 10
34.0
 20
-15.0717968
 30
0.0
 11
40.0
 21
-18.5358984
 31
0.0
  0
LINE
  5
304
330
1E
100
AcDbEntity
  8
0
 62
     7
100
AcDbLine
 10
28.0
 20
-18.5358984
 30
0.0
 11
34.0
 21
-15.0717968
 31
0.0
  0
LINE
  5
305
330
1E
100
AcDbEntity
  8
0
 62
     7
100
AcDbLine
 10
38.5
 20
-19.82055049999999
 30
0.0
 11
38.5
 21
-24.1794495
 31
0.0
  0
LINE
  5
306
330
1E
100
AcDbEntity
  8
0
 62
     7
100
AcDbLine
 10
29.5
 20
-19.82055049999999
 30
0.0
 11
29.5
 21
-24.1794495
 31
0.0
  0
LINE
  5
307
330
1E
100
AcDbEntity
  8
0
 62
     7
100
AcDbLine
 10
28.0
 20
-25.4641016
 30
0.0
 11
28.0
 21
-18.5358984
 31
0.0
  0
LINE
  5
308
330
1E
100
AcDbEntity
  8
0
 62
     7
100
AcDbLine
 10
40.0
 20
-18.5358984
 30
0.0
 11
40.0
 21
-25.4641016
 31
0.0
  0
CIRCLE
  5
309
330
1E
100
AcDbEntity
  8
0
 62
     7
100
AcDbCircle
 10
34.0
 20
-22.0
 30
0.0
 40
6.0
  0
CIRCLE
  5
30A
330
1E
100
AcDbEntity
  8
0
 62
     7
100
AcDbCircle
 10
34.0
 20
-22.0
 30
0.0
 40
5.0
  0
CIRCLE
  5
30B
330
1E
100
AcDbEntity
  8
0
 62
     2
100
AcDbCircle
 10
34.0
 20
-22.0
 30
0.0
 40
4.5
  0
CIRCLE
  5
30C
330
1E
100
AcDbEntity
  8
0
 62
     7
100
AcDbCircle
 10
34.0
 20
-22.0
 30
0.0
 40
3.25
  0
LINE
  5
30D
330
1E
100
AcDbEntity
  8
0
 62
     7
100
AcDbLine
 10
-52.0
 20
170.5
 30
0.0
 11
-40.0
 21
170.5
 31
0.0
  0
LINE
  5
30E
330
1E
100
AcDbEntity
  8
0
 62
     7
100
AcDbLine
 10
-88.0
 20
170.5
 30
0.0
 11
-100.0
 21
170.5
 31
0.0
  0
LINE
  5
30F
330
1E
100
AcDbEntity
  8
0
 62
     7
100
AcDbLine
 10
-52.5
 20
170.0
 30
0.0
 11
-87.5
 21
170.0
 31
0.0
  0
LINE
  5
310
330
1E
100
AcDbEntity
  8
0
 62
     7
100
AcDbLine
 10
-88.0
 20
170.5
 30
0.0
 11
-87.5
 21
170.0
 31
0.0
  0
LINE
  5
311
330
1E
100
AcDbEntity
  8
0
 62
     7
100
AcDbLine
 10
-52.0
 20
170.5
 30
0.0
 11
-52.5
 21
170.0
 31
0.0
  0
LINE
  5
312
330
1E
100
AcDbEntity
  8
0
 62
     7
100
AcDbLine
 10
-102.0999999999999
 20
131.4999999999999
 30
0.0
 11
-102.0999999999999
 21
139.5
 31
0.0
  0
LINE
  5
313
330
1E
100
AcDbEntity
  8
0
 62
     7
100
AcDbLine
 10
-103.0
 20
131.4999999999999
 30
0.0
 11
-103.0
 21
139.5
 31
0.0
  0
LINE
  5
314
330
1E
100
AcDbEntity
  8
0
 62
     7
100
AcDbLine
 10
-103.2
 20
131.6999999999999
 30
0.0
 11
-103.2
 21
139.3
 31
0.0
  0
LINE
  5
315
330
1E
100
AcDbEntity
  8
0
 62
     7
100
AcDbLine
 10
-103.2
 20
139.3
 30
0.0
 11
-103.0
 21
139.5
 31
0.0
  0
LINE
  5
316
330
1E
100
AcDbEntity
  8
0
 62
     7
100
AcDbLine
 10
-102.0999999999999
 20
139.5
 30
0.0
 11
-103.0
 21
139.5
 31
0.0
  0
LINE
  5
317
330
1E
100
AcDbEntity
  8
0
 62
     7
100
AcDbLine
 10
-103.2
 20
131.6999999999999
 30
0.0
 11
-103.0
 21
131.4999999999999
 31
0.0
  0
LINE
  5
318
330
1E
100
AcDbEntity
  8
0
 62
     7
100
AcDbLine
 10
-102.0999999999999
 20
131.4999999999999
 30
0.0
 11
-103.0
 21
131.4999999999999
 31
0.0
  0
LINE
  5
319
330
1E
100
AcDbEntity
  8
0
  6
CENTER
 62
     2
100
AcDbLine
 10
-101.5
 20
135.4999999999999
 30
0.0
 11
-105.2
 21
135.4999999999999
 31
0.0
  0
LINE
  5
31A
330
1E
100
AcDbEntity
  8
0
 62
     7
100
AcDbLine
 10
-101.5
 20
139.4
 30
0.0
 11
-102.0999999999999
 21
139.4
 31
0.0
  0
LINE
  5
31B
330
1E
100
AcDbEntity
  8
0
 62
     7
100
AcDbLine
 10
-101.5
 20
131.6
 30
0.0
 11
-102.0999999999999
 21
131.6
 31
0.0
  0
LINE
  5
31C
330
1E
100
AcDbEntity
  8
0
 62
     7
100
AcDbLine
 10
-102.0999999999999
 20
160.4999999999999
 30
0.0
 11
-102.0999999999999
 21
168.5
 31
0.0
  0
LINE
  5
31D
330
1E
100
AcDbEntity
  8
0
 62
     7
100
AcDbLine
 10
-103.0
 20
160.4999999999999
 30
0.0
 11
-103.0
 21
168.5
 31
0.0
  0
LINE
  5
31E
330
1E
100
AcDbEntity
  8
0
 62
     7
100
AcDbLine
 10
-103.2
 20
160.7
 30
0.0
 11
-103.2
 21
168.3
 31
0.0
  0
LINE
  5
31F
330
1E
100
AcDbEntity
  8
0
 62
     7
100
AcDbLine
 10
-103.2
 20
168.3
 30
0.0
 11
-103.0
 21
168.5
 31
0.0
  0
LINE
  5
320
330
1E
100
AcDbEntity
  8
0
 62
     7
100
AcDbLine
 10
-102.0999999999999
 20
168.5
 30
0.0
 11
-103.0
 21
168.5
 31
0.0
  0
LINE
  5
321
330
1E
100
AcDbEntity
  8
0
 62
     7
100
AcDbLine
 10
-103.2
 20
160.7
 30
0.0
 11
-103.0
 21
160.4999999999999
 31
0.0
  0
LINE
  5
322
330
1E
100
AcDbEntity
  8
0
 62
     7
100
AcDbLine
 10
-102.0999999999999
 20
160.4999999999999
 30
0.0
 11
-103.0
 21
160.4999999999999
 31
0.0
  0
LINE
  5
323
330
1E
100
AcDbEntity
  8
0
  6
CENTER
 62
     2
100
AcDbLine
 10
-101.5
 20
164.5
 30
0.0
 11
-105.2
 21
164.5
 31
0.0
  0
LINE
  5
324
330
1E
100
AcDbEntity
  8
0
 62
     7
100
AcDbLine
 10
-101.5
 20
168.4
 30
0.0
 11
-102.0999999999999
 21
168.4
 31
0.0
  0
LINE
  5
325
330
1E
100
AcDbEntity
  8
0
 62
     7
100
AcDbLine
 10
-101.5
 20
160.5999999999999
 30
0.0
 11
-102.0999999999999
 21
160.5999999999999
 31
0.0
  0
LINE
  5
326
330
1E
100
AcDbEntity
  8
0
 62
     7
100
AcDbLine
 10
-99.50000000000001
 20
115.5
 30
0.0
 11
-40.49999999999999
 21
115.5
 31
0.0
  0
LINE
  5
327
330
1E
100
AcDbEntity
  8
0
 62
     7
100
AcDbLine
 10
-40.49999999999999
 20
115.5
 30
0.0
 11
-40.49999999999999
 21
110.4999999999999
 31
0.0
  0
LINE
  5
328
330
1E
100
AcDbEntity
  8
0
 62
     7
100
AcDbLine
 10
-99.50000000000001
 20
115.5
 30
0.0
 11
-99.50000000000001
 21
110.4999999999999
 31
0.0
  0
CIRCLE
  5
329
330
1E
100
AcDbEntity
  8
0
 62
     7
100
AcDbCircle
 10
-45.0
 20
135.4999999999999
 30
0.0
 40
4.0
  0
LINE
  5
32A
330
1E
100
AcDbEntity
  8
0
 62
     7
100
AcDbLine
 10
-44.5
 20
139.468627
 30
0.0
 11
-44.5
 21
131.5313729999999
 31
0.0
  0
LINE
  5
32B
330
1E
100
AcDbEntity
  8
0
 62
     7
100
AcDbLine
 10
-45.49999999999999
 20
139.468627
 30
0.0
 11
-45.49999999999999
 21
131.5313729999999
 31
0.0
  0
CIRCLE
  5
32C
330
1E
100
AcDbEntity
  8
0
 62
     7
100
AcDbCircle
 10
-45.0
 20
135.4999999999999
 30
0.0
 40
4.25
  0
LINE
  5
32D
330
1E
100
AcDbEntity
  8
0
  6
CENTER
 62
     2
100
AcDbLine
 10
-38.75
 20
135.4999999999999
 30
0.0
 11
-51.25
 21
135.4999999999999
 31
0.0
  0
LINE
  5
32E
330
1E
100
AcDbEntity
  8
0
  6
CENTER
 62
     2
100
AcDbLine
 10
-45.0
 20
141.7499999999999
 30
0.0
 11
-45.0
 21
129.2499999999999
 31
0.0
  0
CIRCLE
  5
32F
330
1E
100
AcDbEntity
  8
0
 62
     7
100
AcDbCircle
 10
-95.0
 20
164.5
 30
0.0
 40
4.0
  0
LINE
  5
330
330
1E
100
AcDbEntity
  8
0
 62
     7
100
AcDbLine
 10
-94.50000000000001
 20
168.468627
 30
0.0
 11
-94.50000000000001
 21
160.5313729999999
 31
0.0
  0
LINE
  5
331
330
1E
100
AcDbEntity
  8
0
 62
     7
100
AcDbLine
 10
-95.5
 20
168.468627
 30
0.0
 11
-95.5
 21
160.5313729999999
 31
0.0
  0
CIRCLE
  5
332
330
1E
100
AcDbEntity
  8
0
 62
     7
100
AcDbCircle
 10
-95.0
 20
164.5
 30
0.0
 40
4.25
  0
LINE
  5
333
330
1E
100
AcDbEntity
  8
0
  6
CENTER
 62
     2
100
AcDbLine
 10
-88.75
 20
164.5
 30
0.0
 11
-101.2499999999999
 21
164.5
 31
0.0
  0
ARC
  5
334
330
1E
100
AcDbEntity
  8
0
 62
     7
100
AcDbCircle
 10
-58.0835571
 20
159.641953
 30
0.0
 40
1.5
100
AcDbArc
 50
200.308593
 51
31.2063966
  0
ARC
  5
335
330
1E
100
AcDbEntity
  8
0
 62
     7
100
AcDbCircle
 10
-52.9164429
 20
159.641953
 30
0.0
 40
1.5
100
AcDbArc
 50
148.793585
 51
339.691389
  0
ARC
  5
336
330
1E
100
AcDbEntity
  8
0
 62
     7
100
AcDbCircle
 10
-52.9164429
 20
159.641953
 30
0.0
 40
0.600000024
100
AcDbArc
 50
106.181493
 51
43.818466
  0
ARC
  5
337
330
1E
100
AcDbEntity
  8
0
 62
     7
100
AcDbCircle
 10
-55.5
 20
150.5
 30
0.0
 40
9.5
100
AcDbArc
 50
114.836643
 51
65.16328299999999
  0
ARC
  5
338
330
1E
100
AcDbEntity
  8
0
 62
     7
100
AcDbCircle
 10
-58.0835571
 20
159.641953
 30
0.0
 40
0.600000024
100
AcDbArc
 50
136.1815339999999
 51
73.8185072
  0
ARC
  5
339
330
1E
100
AcDbEntity
  8
0
 62
     7
100
AcDbCircle
 10
-81.91644290000001
 20
159.641953
 30
0.0
 40
0.600000024
100
AcDbArc
 50
106.181493
 51
43.818466
  0
ARC
  5
33A
330
1E
100
AcDbEntity
  8
0
 62
     7
100
AcDbCircle
 10
-81.91644290000001
 20
159.641953
 30
0.0
 40
1.5
100
AcDbArc
 50
148.793585
 51
339.691389
  0
ARC
  5
33B
330
1E
100
AcDbEntity
  8
0
 62
     7
100
AcDbCircle
 10
-87.08355709999999
 20
159.641953
 30
0.0
 40
1.5
100
AcDbArc
 50
200.308606
 51
31.20640349999999
  0
ARC
  5
33C
330
1E
100
AcDbEntity
  8
0
 62
     7
100
AcDbCircle
 10
-87.08355709999999
 20
159.641953
 30
0.0
 40
0.600000024
100
AcDbArc
 50
136.1815339999999
 51
73.8185072
  0
ARC
  5
33D
330
1E
100
AcDbEntity
  8
0
 62
     7
100
AcDbCircle
 10
-84.50000000000001
 20
150.5
 30
0.0
 40
9.5
100
AcDbArc
 50
114.836698
 51
65.16335119999999
  0
CIRCLE
  5
33E
330
1E
100
AcDbEntity
  8
0
 62
     7
100
AcDbCircle
 10
-55.5
 20
150.0
 30
0.0
 40
10.5
  0
CIRCLE
  5
33F
330
1E
100
AcDbEntity
  8
0
 62
     7
100
AcDbCircle
 10
-84.50000000000001
 20
150.0
 30
0.0
 40
10.5
  0
LINE
  5
340
330
1E
100
AcDbEntity
  8
0
 62
     7
100
AcDbLine
 10
-100.0
 20
116.5
 30
0.0
 11
-38.5
 21
116.5
 31
0.0
  0
LINE
  5
341
330
1E
100
AcDbEntity
  8
0
 62
     7
100
AcDbLine
 10
-99.50000000000001
 20
110.4999999999999
 30
0.0
 11
-40.49999999999999
 21
110.4999999999999
 31
0.0
  0
LINE
  5
342
330
1E
100
AcDbEntity
  8
0
  6
CENTER
 62
     2
100
AcDbLine
 10
-84.50000000000001
 20
162.5
 30
0.0
 11
-84.50000000000001
 21
137.5
 31
0.0
  0
LINE
  5
343
330
1E
100
AcDbEntity
  8
0
  6
CENTER
 62
     2
100
AcDbLine
 10
-55.5
 20
162.5
 30
0.0
 11
-55.5
 21
137.5
 31
0.0
  0
LINE
  5
344
330
1E
100
AcDbEntity
  8
0
  6
CENTER
 62
     2
100
AcDbLine
 10
-43.0
 20
150.0
 30
0.0
 11
-97.0
 21
150.0
 31
0.0
  0
LINE
  5
345
330
1E
100
AcDbEntity
  8
0
 62
     7
100
AcDbLine
 10
-97.0
 20
116.5
 30
0.0
 11
-97.0
 21
115.5
 31
0.0
  0
LINE
  5
346
330
1E
100
AcDbEntity
  8
0
 62
     7
100
AcDbLine
 10
-43.0
 20
116.5
 30
0.0
 11
-43.0
 21
115.5
 31
0.0
  0
LINE
  5
347
330
1E
100
AcDbEntity
  8
0
 62
     7
100
AcDbLine
 10
-101.5
 20
169.0
 30
0.0
 11
-101.5
 21
156.4999999999999
 31
0.0
  0
LINE
  5
348
330
1E
100
AcDbEntity
  8
0
 62
     7
100
AcDbLine
 10
-38.5
 20
169.0
 30
0.0
 11
-38.5
 21
156.4999999999999
 31
0.0
  0
LINE
  5
349
330
1E
100
AcDbEntity
  8
0
 62
     7
100
AcDbLine
 10
-100.0
 20
129.500062
 30
0.0
 11
-100.0
 21
116.5
 31
0.0
  0
LINE
  5
34A
330
1E
100
AcDbEntity
  8
0
 62
     7
100
AcDbLine
 10
-100.0
 20
129.4999999999999
 30
0.0
 11
-40.0
 21
129.4999999999999
 31
0.0
  0
LINE
  5
34B
330
1E
100
AcDbEntity
  8
0
 62
     7
100
AcDbLine
 10
-38.5
 20
131.0
 30
0.0
 11
-40.0
 21
129.4999999999999
 31
0.0
  0
LINE
  5
34C
330
1E
100
AcDbEntity
  8
0
 62
     7
100
AcDbLine
 10
-100.0
 20
129.4999999999999
 30
0.0
 11
-101.5
 21
131.0
 31
0.0
  0
LINE
  5
34D
330
1E
100
AcDbEntity
  8
0
  6
CENTER
 62
     2
100
AcDbLine
 10
-44.54701309999999
 20
146.0
 30
0.0
 11
-37.00000029999999
 21
146.0
 31
0.0
  0
ARC
  5
34E
330
1E
100
AcDbEntity
  8
0
 62
     7
100
AcDbCircle
 10
-42.02500029999999
 20
146.0
 30
0.0
 40
2.075
100
AcDbArc
 50
90.00000020000001
 51
270.0
  0
LINE
  5
34F
330
1E
100
AcDbEntity
  8
0
  6
CENTER
 62
     2
100
AcDbLine
 10
-44.54701309999999
 20
154.0
 30
0.0
 11
-37.00000029999999
 21
154.0
 31
0.0
  0
ARC
  5
350
330
1E
100
AcDbEntity
  8
0
 62
     7
100
AcDbCircle
 10
-42.02500029999999
 20
154.0
 30
0.0
 40
2.075
100
AcDbArc
 50
90.00000020000001
 51
270.0
  0
LINE
  5
351
330
1E
100
AcDbEntity
  8
0
 62
     7
100
AcDbLine
 10
-39.70000029999999
 20
152.4
 30
0.0
 11
-39.92500029999999
 21
152.4
 31
0.0
  0
LINE
  5
352
330
1E
100
AcDbEntity
  8
0
 62
     7
100
AcDbLine
 10
-39.40000029999999
 20
155.6
 30
0.0
 11
-39.92500029999999
 21
155.6
 31
0.0
  0
LINE
  5
353
330
1E
100
AcDbEntity
  8
0
 62
     7
100
AcDbLine
 10
-42.02500029999999
 20
151.925
 30
0.0
 11
-40.40000029999999
 21
151.925
 31
0.0
  0
LINE
  5
354
330
1E
100
AcDbEntity
  8
0
 62
     7
100
AcDbLine
 10
-40.40000029999999
 20
151.925
 30
0.0
 11
-39.92500029999999
 21
152.4
 31
0.0
  0
ARC
  5
355
330
1E
100
AcDbEntity
  8
0
 62
     7
100
AcDbCircle
 10
-39.70000029999999
 20
152.0999999999999
 30
0.0
 40
0.3
100
AcDbArc
 50
0.0
 51
90.00000020000001
  0
LINE
  5
356
330
1E
100
AcDbEntity
  8
0
 62
     7
100
AcDbLine
 10
-40.40000029999999
 20
156.0749999999999
 30
0.0
 11
-39.92500029999999
 21
155.6
 31
0.0
  0
LINE
  5
357
330
1E
100
AcDbEntity
  8
0
 62
     7
100
AcDbLine
 10
-39.40000029999999
 20
155.6
 30
0.0
 11
-38.5
 21
156.4999999999999
 31
0.0
  0
ARC
  5
358
330
1E
100
AcDbEntity
  8
0
 62
     7
100
AcDbCircle
 10
-39.70000029999999
 20
147.9
 30
0.0
 40
0.3
100
AcDbArc
 50
270.0
 51
0.0
  0
LINE
  5
359
330
1E
100
AcDbEntity
  8
0
 62
     7
100
AcDbLine
 10
-39.40000029999999
 20
152.0999999999999
 30
0.0
 11
-39.40000029999999
 21
147.9
 31
0.0
  0
LINE
  5
35A
330
1E
100
AcDbEntity
  8
0
 62
     7
100
AcDbLine
 10
-40.40000029999999
 20
148.075
 30
0.0
 11
-39.92500029999999
 21
147.5999999999999
 31
0.0
  0
LINE
  5
35B
330
1E
100
AcDbEntity
  8
0
 62
     7
100
AcDbLine
 10
-40.40000029999999
 20
143.925
 30
0.0
 11
-39.92500029999999
 21
144.4
 31
0.0
  0
LINE
  5
35C
330
1E
100
AcDbEntity
  8
0
 62
     7
100
AcDbLine
 10
-42.02500029999999
 20
143.925
 30
0.0
 11
-40.40000029999999
 21
143.925
 31
0.0
  0
LINE
  5
35D
330
1E
100
AcDbEntity
  8
0
 62
     7
100
AcDbLine
 10
-42.02500029999999
 20
148.075
 30
0.0
 11
-40.40000029999999
 21
148.075
 31
0.0
  0
LINE
  5
35E
330
1E
100
AcDbEntity
  8
0
 62
     7
100
AcDbLine
 10
-39.40000029999999
 20
144.4
 30
0.0
 11
-38.5
 21
143.5
 31
0.0
  0
LINE
  5
35F
330
1E
100
AcDbEntity
  8
0
 62
     7
100
AcDbLine
 10
-39.40000029999999
 20
144.4
 30
0.0
 11
-39.92500029999999
 21
144.4
 31
0.0
  0
LINE
  5
360
330
1E
100
AcDbEntity
  8
0
 62
     7
100
AcDbLine
 10
-39.70000029999999
 20
147.5999999999999
 30
0.0
 11
-39.92500029999999
 21
147.5999999999999
 31
0.0
  0
LINE
  5
361
330
1E
100
AcDbEntity
  8
0
 62
     7
100
AcDbLine
 10
-42.02500029999999
 20
156.0749999999999
 30
0.0
 11
-40.375
 21
156.074993
 31
0.0
  0
LINE
  5
362
330
1E
100
AcDbEntity
  8
0
 62
     7
100
AcDbLine
 10
-38.5
 20
143.5
 30
0.0
 11
-38.5
 21
116.5
 31
0.0
  0
LINE
  5
363
330
1E
100
AcDbEntity
  8
0
  6
CENTER
 62
     2
100
AcDbLine
 10
-95.4529869
 20
146.0
 30
0.0
 11
-103.0
 21
146.0
 31
0.0
  0
ARC
  5
364
330
1E
100
AcDbEntity
  8
0
 62
     7
100
AcDbCircle
 10
-97.9749997
 20
146.0
 30
0.0
 40
2.075
100
AcDbArc
 50
270.0
 51
90.00000020000001
  0
LINE
  5
365
330
1E
100
AcDbEntity
  8
0
  6
CENTER
 62
     2
100
AcDbLine
 10
-95.4529869
 20
154.0
 30
0.0
 11
-103.0
 21
154.0
 31
0.0
  0
ARC
  5
366
330
1E
100
AcDbEntity
  8
0
 62
     7
100
AcDbCircle
 10
-97.9749997
 20
154.0
 30
0.0
 40
2.075
100
AcDbArc
 50
270.0
 51
90.00000020000001
  0
LINE
  5
367
330
1E
100
AcDbEntity
  8
0
 62
     7
100
AcDbLine
 10
-100.6
 20
155.6
 30
0.0
 11
-101.5
 21
156.4999999999999
 31
0.0
  0
LINE
  5
368
330
1E
100
AcDbEntity
  8
0
 62
     7
100
AcDbLine
 10
-100.6
 20
144.4
 30
0.0
 11
-101.5
 21
143.5
 31
0.0
  0
LINE
  5
369
330
1E
100
AcDbEntity
  8
0
 62
     7
100
AcDbLine
 10
-97.9749997
 20
156.0749999999999
 30
0.0
 11
-99.625
 21
156.074993
 31
0.0
  0
LINE
  5
36A
330
1E
100
AcDbEntity
  8
0
 62
     7
100
AcDbLine
 10
-100.2999999999999
 20
147.5999999999999
 30
0.0
 11
-100.075
 21
147.5999999999999
 31
0.0
  0
LINE
  5
36B
330
1E
100
AcDbEntity
  8
0
 62
     7
100
AcDbLine
 10
-100.6
 20
144.4
 30
0.0
 11
-100.075
 21
144.4
 31
0.0
  0
LINE
  5
36C
330
1E
100
AcDbEntity
  8
0
 62
     7
100
AcDbLine
 10
-97.9749997
 20
148.075
 30
0.0
 11
-99.5999997
 21
148.075
 31
0.0
  0
LINE
  5
36D
330
1E
100
AcDbEntity
  8
0
 62
     7
100
AcDbLine
 10
-97.9749997
 20
143.925
 30
0.0
 11
-99.5999997
 21
143.925
 31
0.0
  0
LINE
  5
36E
330
1E
100
AcDbEntity
  8
0
 62
     7
100
AcDbLine
 10
-99.5999997
 20
143.925
 30
0.0
 11
-100.075
 21
144.4
 31
0.0
  0
LINE
  5
36F
330
1E
100
AcDbEntity
  8
0
 62
     7
100
AcDbLine
 10
-99.5999997
 20
148.075
 30
0.0
 11
-100.075
 21
147.5999999999999
 31
0.0
  0
LINE
  5
370
330
1E
100
AcDbEntity
  8
0
 62
     7
100
AcDbLine
 10
-100.6
 20
152.0999999999999
 30
0.0
 11
-100.6
 21
147.9
 31
0.0
  0
ARC
  5
371
330
1E
100
AcDbEntity
  8
0
 62
     7
100
AcDbCircle
 10
-100.2999999999999
 20
147.9
 30
0.0
 40
0.3
100
AcDbArc
 50
180.0
 51
270.0
  0
LINE
  5
372
330
1E
100
AcDbEntity
  8
0
 62
     7
100
AcDbLine
 10
-99.5999997
 20
156.0749999999999
 30
0.0
 11
-100.075
 21
155.6
 31
0.0
  0
ARC
  5
373
330
1E
100
AcDbEntity
  8
0
 62
     7
100
AcDbCircle
 10
-100.2999999999999
 20
152.0999999999999
 30
0.0
 40
0.3
100
AcDbArc
 50
90.00000020000001
 51
180.0
  0
LINE
  5
374
330
1E
100
AcDbEntity
  8
0
 62
     7
100
AcDbLine
 10
-99.5999997
 20
151.925
 30
0.0
 11
-100.075
 21
152.4
 31
0.0
  0
LINE
  5
375
330
1E
100
AcDbEntity
  8
0
 62
     7
100
AcDbLine
 10
-97.9749997
 20
151.925
 30
0.0
 11
-99.5999997
 21
151.925
 31
0.0
  0
LINE
  5
376
330
1E
100
AcDbEntity
  8
0
 62
     7
100
AcDbLine
 10
-100.6
 20
155.6
 30
0.0
 11
-100.075
 21
155.6
 31
0.0
  0
LINE
  5
377
330
1E
100
AcDbEntity
  8
0
 62
     7
100
AcDbLine
 10
-100.2999999999999
 20
152.4
 30
0.0
 11
-100.075
 21
152.4
 31
0.0
  0
LINE
  5
378
330
1E
100
AcDbEntity
  8
0
 62
     7
100
AcDbLine
 10
-101.5
 20
143.5
 30
0.0
 11
-101.5
 21
131.0
 31
0.0
  0
LINE
  5
379
330
1E
100
AcDbEntity
  8
0
 62
     7
100
AcDbLine
 10
-35.5
 20
130.0
 30
0.0
 11
-38.5
 21
130.0
 31
0.0
  0
LINE
  5
37A
330
1E
100
AcDbEntity
  8
0
 62
     7
100
AcDbLine
 10
-35.5
 20
118.0
 30
0.0
 11
-38.5
 21
118.0
 31
0.0
  0
LINE
  5
37B
330
1E
100
AcDbEntity
  8
0
 62
     7
100
AcDbLine
 10
-35.5
 20
130.0
 30
0.0
 11
-35.5
 21
118.0
 31
0.0
  0
LINE
  5
37C
330
1E
100
AcDbEntity
  8
0
 62
     7
100
AcDbLine
 10
-37.9641016
 20
124.0
 30
0.0
 11
-36.0358984
 21
124.0
 31
0.0
  0
LINE
  5
37D
330
1E
100
AcDbEntity
  8
0
 62
     2
100
AcDbLine
 10
-35.5
 20
128.4999999999999
 30
0.0
 11
-22.5
 21
128.4999999999999
 31
0.0
  0
LINE
  5
37E
330
1E
100
AcDbEntity
  8
0
 62
     7
100
AcDbLine
 10
-35.5
 20
129.0
 30
0.0
 11
-23.0
 21
129.0
 31
0.0
  0
LINE
  5
37F
330
1E
100
AcDbEntity
  8
0
  6
CENTER
 62
     2
100
AcDbLine
 10
-38.5
 20
124.0
 30
0.0
 11
-11.5
 21
124.0
 31
0.0
  0
LINE
  5
380
330
1E
100
AcDbEntity
  8
0
 62
     2
100
AcDbLine
 10
-35.5
 20
119.5
 30
0.0
 11
-22.5
 21
119.5
 31
0.0
  0
LINE
  5
381
330
1E
100
AcDbEntity
  8
0
 62
     7
100
AcDbLine
 10
-35.5
 20
119.0
 30
0.0
 11
-23.0
 21
119.0
 31
0.0
  0
LINE
  5
382
330
1E
100
AcDbEntity
  8
0
 62
     7
100
AcDbLine
 10
-14.0
 20
128.2499999999999
 30
0.0
 11
-14.0
 21
119.75
 31
0.0
  0
LINE
  5
383
330
1E
100
AcDbEntity
  8
0
 62
     7
100
AcDbLine
 10
-14.0
 20
119.75
 30
0.0
 11
-13.5
 21
120.25
 31
0.0
  0
LINE
  5
384
330
1E
100
AcDbEntity
  8
0
 62
     7
100
AcDbLine
 10
-14.0
 20
128.2499999999999
 30
0.0
 11
-13.5
 21
127.75
 31
0.0
  0
LINE
  5
385
330
1E
100
AcDbEntity
  8
0
 62
     7
100
AcDbLine
 10
-18.5
 20
119.75
 30
0.0
 11
-14.0
 21
119.75
 31
0.0
  0
LINE
  5
386
330
1E
100
AcDbEntity
  8
0
 62
     7
100
AcDbLine
 10
-18.5
 20
128.2499999999999
 30
0.0
 11
-14.0
 21
128.2499999999999
 31
0.0
  0
LINE
  5
387
330
1E
100
AcDbEntity
  8
0
 62
     7
100
AcDbLine
 10
-18.5
 20
119.75
 30
0.0
 11
-18.5
 21
128.2499999999999
 31
0.0
  0
LINE
  5
388
330
1E
100
AcDbEntity
  8
0
 62
     7
100
AcDbLine
 10
-13.5
 20
120.25
 30
0.0
 11
-13.5
 21
127.75
 31
0.0
  0
LINE
  5
389
330
1E
100
AcDbEntity
  8
0
 62
     7
100
AcDbLine
 10
-18.5
 20
128.2499999999999
 30
0.0
 11
-18.75
 21
128.4999999999999
 31
0.0
  0
LINE
  5
38A
330
1E
100
AcDbEntity
  8
0
 62
     7
100
AcDbLine
 10
-18.5
 20
119.75
 30
0.0
 11
-18.75
 21
119.5
 31
0.0
  0
LINE
  5
38B
330
1E
100
AcDbEntity
  8
0
 62
     7
100
AcDbLine
 10
-19.25
 20
128.4999999999999
 30
0.0
 11
-19.25
 21
119.5
 31
0.0
  0
LINE
  5
38C
330
1E
100
AcDbEntity
  8
0
 62
     7
100
AcDbLine
 10
-22.5
 20
128.4999999999999
 30
0.0
 11
-23.0
 21
129.0
 31
0.0
  0
LINE
  5
38D
330
1E
100
AcDbEntity
  8
0
 62
     7
100
AcDbLine
 10
-22.5
 20
119.5
 30
0.0
 11
-23.0
 21
119.0
 31
0.0
  0
LINE
  5
38E
330
1E
100
AcDbEntity
  8
0
 62
     7
100
AcDbLine
 10
-22.5
 20
128.4999999999999
 30
0.0
 11
-18.75
 21
128.4999999999999
 31
0.0
  0
LINE
  5
38F
330
1E
100
AcDbEntity
  8
0
 62
     7
100
AcDbLine
 10
-22.5
 20
119.5
 30
0.0
 11
-18.75
 21
119.5
 31
0.0
  0
LINE
  5
390
330
1E
100
AcDbEntity
  8
0
 62
     7
100
AcDbLine
 10
-100.0
 20
170.5
 30
0.0
 11
-101.5
 21
169.0
 31
0.0
  0
LINE
  5
391
330
1E
100
AcDbEntity
  8
0
 62
     7
100
AcDbLine
 10
-38.5
 20
169.0
 30
0.0
 11
-40.0
 21
170.5
 31
0.0
  0
LINE
  5
392
330
1E
100
AcDbEntity
  8
0
  6
CENTER
 62
     2
100
AcDbLine
 10
-70.0
 20
174.5
 30
0.0
 11
-70.0
 21
106.4999999999999
 31
0.0
  0
LINE
  5
393
330
1E
100
AcDbEntity
  8
0
  6
CENTER
 62
     2
100
AcDbLine
 10
-95.0
 20
170.75
 30
0.0
 11
-95.0
 21
158.25
 31
0.0
  0
POLYLINE
  5
394
330
1E
100
AcDbEntity
  8
0
 62
     7
100
AcDb2dPolyline
 66
     1
 10
0.0
 20
0.0
 30
0.0
  0
VERTEX
  5
C1A
330
394
100
AcDbEntity
  8
0
 62
     7
100
AcDbVertex
100
AcDb2dVertex
 10
-36.0358984
 20
118.0
 30
0.0
  0
VERTEX
  5
C1B
330
394
100
AcDbEntity
  8
0
 62
     7
100
AcDbVertex
100
AcDb2dVertex
 10
-35.93784439999999
 20
118.288871
 30
0.0
  0
VERTEX
  5
C1C
330
394
100
AcDbEntity
  8
0
 62
     7
100
AcDbVertex
100
AcDb2dVertex
 10
-35.8489274
 20
118.581257
 30
0.0
  0
VERTEX
  5
C1D
330
394
100
AcDbEntity
  8
0
 62
     7
100
AcDbVertex
100
AcDb2dVertex
 10
-35.7694262
 20
118.8767659999999
 30
0.0
  0
VERTEX
  5
C1E
330
394
100
AcDbEntity
  8
0
 62
     7
100
AcDbVertex
100
AcDb2dVertex
 10
-35.69961989999999
 20
119.1750089999999
 30
0.0
  0
VERTEX
  5
C1F
330
394
100
AcDbEntity
  8
0
 62
     7
100
AcDbVertex
100
AcDb2dVertex
 10
-35.63978749999999
 20
119.475595
 30
0.0
  0
VERTEX
  5
C20
330
394
100
AcDbEntity
  8
0
 62
     7
100
AcDbVertex
100
AcDb2dVertex
 10
-35.590208
 20
119.778133
 30
0.0
  0
VERTEX
  5
C21
330
394
100
AcDbEntity
  8
0
 62
     7
100
AcDbVertex
100
AcDb2dVertex
 10
-35.55116049999999
 20
120.082233
 30
0.0
  0
VERTEX
  5
C22
330
394
100
AcDbEntity
  8
0
 62
     7
100
AcDbVertex
100
AcDb2dVertex
 10
-35.52292399999999
 20
120.387505
 30
0.0
  0
VERTEX
  5
C23
330
394
100
AcDbEntity
  8
0
 62
     7
100
AcDbVertex
100
AcDb2dVertex
 10
-35.5057775
 20
120.693557
 30
0.0
  0
VERTEX
  5
C24
330
394
100
AcDbEntity
  8
0
 62
     7
100
AcDbVertex
100
AcDb2dVertex
 10
-35.5
 20
121.0
 30
0.0
  0
VERTEX
  5
C25
330
394
100
AcDbEntity
  8
0
 62
     7
100
AcDbVertex
100
AcDb2dVertex
 10
-35.5057775
 20
121.3064439999999
 30
0.0
  0
VERTEX
  5
C26
330
394
100
AcDbEntity
  8
0
 62
     7
100
AcDbVertex
100
AcDb2dVertex
 10
-35.52292399999999
 20
121.6124959999999
 30
0.0
  0
VERTEX
  5
C27
330
394
100
AcDbEntity
  8
0
 62
     7
100
AcDbVertex
100
AcDb2dVertex
 10
-35.55116049999999
 20
121.917768
 30
0.0
  0
VERTEX
  5
C28
330
394
100
AcDbEntity
  8
0
 62
     7
100
AcDbVertex
100
AcDb2dVertex
 10
-35.590208
 20
122.2218679999999
 30
0.0
  0
VERTEX
  5
C29
330
394
100
AcDbEntity
  8
0
 62
     7
100
AcDbVertex
100
AcDb2dVertex
 10
-35.63978749999999
 20
122.524406
 30
0.0
  0
VERTEX
  5
C2A
330
394
100
AcDbEntity
  8
0
 62
     7
100
AcDbVertex
100
AcDb2dVertex
 10
-35.69961989999999
 20
122.8249919999999
 30
0.0
  0
VERTEX
  5
C2B
330
394
100
AcDbEntity
  8
0
 62
     7
100
AcDbVertex
100
AcDb2dVertex
 10
-35.7694262
 20
123.123235
 30
0.0
  0
VERTEX
  5
C2C
330
394
100
AcDbEntity
  8
0
 62
     7
100
AcDbVertex
100
AcDb2dVertex
 10
-35.8489274
 20
123.4187439999999
 30
0.0
  0
VERTEX
  5
C2D
330
394
100
AcDbEntity
  8
0
 62
     7
100
AcDbVertex
100
AcDb2dVertex
 10
-35.93784439999999
 20
123.711129
 30
0.0
  0
VERTEX
  5
C2E
330
394
100
AcDbEntity
  8
0
 62
     7
100
AcDbVertex
100
AcDb2dVertex
 10
-36.0358984
 20
124.0
 30
0.0
  0
SEQEND
  5
C2F
330
394
100
AcDbEntity
  8
0
 62
     7
  0
POLYLINE
  5
3AB
330
1E
100
AcDbEntity
  8
0
 62
     7
100
AcDb2dPolyline
 66
     1
 10
0.0
 20
0.0
 30
0.0
  0
VERTEX
  5
C30
330
3AB
100
AcDbEntity
  8
0
 62
     7
100
AcDbVertex
100
AcDb2dVertex
 10
-36.0358984
 20
124.0
 30
0.0
  0
VERTEX
  5
C31
330
3AB
100
AcDbEntity
  8
0
 62
     7
100
AcDbVertex
100
AcDb2dVertex
 10
-35.93784439999999
 20
124.288871
 30
0.0
  0
VERTEX
  5
C32
330
3AB
100
AcDbEntity
  8
0
 62
     7
100
AcDbVertex
100
AcDb2dVertex
 10
-35.8489274
 20
124.581257
 30
0.0
  0
VERTEX
  5
C33
330
3AB
100
AcDbEntity
  8
0
 62
     7
100
AcDbVertex
100
AcDb2dVertex
 10
-35.7694262
 20
124.8767659999999
 30
0.0
  0
VERTEX
  5
C34
330
3AB
100
AcDbEntity
  8
0
 62
     7
100
AcDbVertex
100
AcDb2dVertex
 10
-35.69961989999999
 20
125.175009
 30
0.0
  0
VERTEX
  5
C35
330
3AB
100
AcDbEntity
  8
0
 62
     7
100
AcDbVertex
100
AcDb2dVertex
 10
-35.63978749999999
 20
125.475595
 30
0.0
  0
VERTEX
  5
C36
330
3AB
100
AcDbEntity
  8
0
 62
     7
100
AcDbVertex
100
AcDb2dVertex
 10
-35.590208
 20
125.778133
 30
0.0
  0
VERTEX
  5
C37
330
3AB
100
AcDbEntity
  8
0
 62
     7
100
AcDbVertex
100
AcDb2dVertex
 10
-35.55116049999999
 20
126.082233
 30
0.0
  0
VERTEX
  5
C38
330
3AB
100
AcDbEntity
  8
0
 62
     7
100
AcDbVertex
100
AcDb2dVertex
 10
-35.52292399999999
 20
126.3875049999999
 30
0.0
  0
VERTEX
  5
C39
330
3AB
100
AcDbEntity
  8
0
 62
     7
100
AcDbVertex
100
AcDb2dVertex
 10
-35.5057775
 20
126.693557
 30
0.0
  0
VERTEX
  5
C3A
330
3AB
100
AcDbEntity
  8
0
 62
     7
100
AcDbVertex
100
AcDb2dVertex
 10
-35.5
 20
127.0
 30
0.0
  0
VERTEX
  5
C3B
330
3AB
100
AcDbEntity
  8
0
 62
     7
100
AcDbVertex
100
AcDb2dVertex
 10
-35.5057775
 20
127.3064439999999
 30
0.0
  0
VERTEX
  5
C3C
330
3AB
100
AcDbEntity
  8
0
 62
     7
100
AcDbVertex
100
AcDb2dVertex
 10
-35.52292399999999
 20
127.6124959999999
 30
0.0
  0
VERTEX
  5
C3D
330
3AB
100
AcDbEntity
  8
0
 62
     7
100
AcDbVertex
100
AcDb2dVertex
 10
-35.55116049999999
 20
127.9177679999999
 30
0.0
  0
VERTEX
  5
C3E
330
3AB
100
AcDbEntity
  8
0
 62
     7
100
AcDbVertex
100
AcDb2dVertex
 10
-35.590208
 20
128.2218679999999
 30
0.0
  0
VERTEX
  5
C3F
330
3AB
100
AcDbEntity
  8
0
 62
     7
100
AcDbVertex
100
AcDb2dVertex
 10
-35.63978749999999
 20
128.5244059999999
 30
0.0
  0
VERTEX
  5
C40
330
3AB
100
AcDbEntity
  8
0
 62
     7
100
AcDbVertex
100
AcDb2dVertex
 10
-35.69961989999999
 20
128.8249919999999
 30
0.0
  0
VERTEX
  5
C41
330
3AB
100
AcDbEntity
  8
0
 62
     7
100
AcDbVertex
100
AcDb2dVertex
 10
-35.7694262
 20
129.123235
 30
0.0
  0
VERTEX
  5
C42
330
3AB
100
AcDbEntity
  8
0
 62
     7
100
AcDbVertex
100
AcDb2dVertex
 10
-35.8489274
 20
129.4187439999999
 30
0.0
  0
VERTEX
  5
C43
330
3AB
100
AcDbEntity
  8
0
 62
     7
100
AcDbVertex
100
AcDb2dVertex
 10
-35.93784439999999
 20
129.7111289999999
 30
0.0
  0
VERTEX
  5
C44
330
3AB
100
AcDbEntity
  8
0
 62
     7
100
AcDbVertex
100
AcDb2dVertex
 10
-36.0358984
 20
130.0
 30
0.0
  0
SEQEND
  5
C45
330
3AB
100
AcDbEntity
  8
0
 62
     7
  0
POLYLINE
  5
3C2
330
1E
100
AcDbEntity
  8
0
 62
     7
100
AcDb2dPolyline
 66
     1
 10
0.0
 20
0.0
 30
0.0
  0
VERTEX
  5
C46
330
3C2
100
AcDbEntity
  8
0
 62
     7
100
AcDbVertex
100
AcDb2dVertex
 10
-37.9641016
 20
118.0
 30
0.0
  0
VERTEX
  5
C47
330
3C2
100
AcDbEntity
  8
0
 62
     7
100
AcDbVertex
100
AcDb2dVertex
 10
-38.0621556
 20
118.288871
 30
0.0
  0
VERTEX
  5
C48
330
3C2
100
AcDbEntity
  8
0
 62
     7
100
AcDbVertex
100
AcDb2dVertex
 10
-38.15107259999999
 20
118.581257
 30
0.0
  0
VERTEX
  5
C49
330
3C2
100
AcDbEntity
  8
0
 62
     7
100
AcDbVertex
100
AcDb2dVertex
 10
-38.23057379999999
 20
118.8767659999999
 30
0.0
  0
VERTEX
  5
C4A
330
3C2
100
AcDbEntity
  8
0
 62
     7
100
AcDbVertex
100
AcDb2dVertex
 10
-38.3003801
 20
119.1750089999999
 30
0.0
  0
VERTEX
  5
C4B
330
3C2
100
AcDbEntity
  8
0
 62
     7
100
AcDbVertex
100
AcDb2dVertex
 10
-38.3602125
 20
119.475595
 30
0.0
  0
VERTEX
  5
C4C
330
3C2
100
AcDbEntity
  8
0
 62
     7
100
AcDbVertex
100
AcDb2dVertex
 10
-38.40979199999999
 20
119.778133
 30
0.0
  0
VERTEX
  5
C4D
330
3C2
100
AcDbEntity
  8
0
 62
     7
100
AcDbVertex
100
AcDb2dVertex
 10
-38.4488395
 20
120.082233
 30
0.0
  0
VERTEX
  5
C4E
330
3C2
100
AcDbEntity
  8
0
 62
     7
100
AcDbVertex
100
AcDb2dVertex
 10
-38.477076
 20
120.387505
 30
0.0
  0
VERTEX
  5
C4F
330
3C2
100
AcDbEntity
  8
0
 62
     7
100
AcDbVertex
100
AcDb2dVertex
 10
-38.49422249999999
 20
120.693557
 30
0.0
  0
VERTEX
  5
C50
330
3C2
100
AcDbEntity
  8
0
 62
     7
100
AcDbVertex
100
AcDb2dVertex
 10
-38.5
 20
121.0
 30
0.0
  0
VERTEX
  5
C51
330
3C2
100
AcDbEntity
  8
0
 62
     7
100
AcDbVertex
100
AcDb2dVertex
 10
-38.49422249999999
 20
121.3064439999999
 30
0.0
  0
VERTEX
  5
C52
330
3C2
100
AcDbEntity
  8
0
 62
     7
100
AcDbVertex
100
AcDb2dVertex
 10
-38.477076
 20
121.6124959999999
 30
0.0
  0
VERTEX
  5
C53
330
3C2
100
AcDbEntity
  8
0
 62
     7
100
AcDbVertex
100
AcDb2dVertex
 10
-38.4488395
 20
121.917768
 30
0.0
  0
VERTEX
  5
C54
330
3C2
100
AcDbEntity
  8
0
 62
     7
100
AcDbVertex
100
AcDb2dVertex
 10
-38.40979199999999
 20
122.2218679999999
 30
0.0
  0
VERTEX
  5
C55
330
3C2
100
AcDbEntity
  8
0
 62
     7
100
AcDbVertex
100
AcDb2dVertex
 10
-38.3602125
 20
122.524406
 30
0.0
  0
VERTEX
  5
C56
330
3C2
100
AcDbEntity
  8
0
 62
     7
100
AcDbVertex
100
AcDb2dVertex
 10
-38.3003801
 20
122.8249919999999
 30
0.0
  0
VERTEX
  5
C57
330
3C2
100
AcDbEntity
  8
0
 62
     7
100
AcDbVertex
100
AcDb2dVertex
 10
-38.23057379999999
 20
123.123235
 30
0.0
  0
VERTEX
  5
C58
330
3C2
100
AcDbEntity
  8
0
 62
     7
100
AcDbVertex
100
AcDb2dVertex
 10
-38.15107259999999
 20
123.4187439999999
 30
0.0
  0
VERTEX
  5
C59
330
3C2
100
AcDbEntity
  8
0
 62
     7
100
AcDbVertex
100
AcDb2dVertex
 10
-38.0621556
 20
123.711129
 30
0.0
  0
VERTEX
  5
C5A
330
3C2
100
AcDbEntity
  8
0
 62
     7
100
AcDbVertex
100
AcDb2dVertex
 10
-37.9641016
 20
124.0
 30
0.0
  0
SEQEND
  5
C5B
330
3C2
100
AcDbEntity
  8
0
 62
     7
  0
POLYLINE
  5
3D9
330
1E
100
AcDbEntity
  8
0
 62
     7
100
AcDb2dPolyline
 66
     1
 10
0.0
 20
0.0
 30
0.0
  0
VERTEX
  5
C5C
330
3D9
100
AcDbEntity
  8
0
 62
     7
100
AcDbVertex
100
AcDb2dVertex
 10
-37.9641016
 20
124.0
 30
0.0
  0
VERTEX
  5
C5D
330
3D9
100
AcDbEntity
  8
0
 62
     7
100
AcDbVertex
100
AcDb2dVertex
 10
-38.0621556
 20
124.288871
 30
0.0
  0
VERTEX
  5
C5E
330
3D9
100
AcDbEntity
  8
0
 62
     7
100
AcDbVertex
100
AcDb2dVertex
 10
-38.15107259999999
 20
124.581257
 30
0.0
  0
VERTEX
  5
C5F
330
3D9
100
AcDbEntity
  8
0
 62
     7
100
AcDbVertex
100
AcDb2dVertex
 10
-38.23057379999999
 20
124.8767659999999
 30
0.0
  0
VERTEX
  5
C60
330
3D9
100
AcDbEntity
  8
0
 62
     7
100
AcDbVertex
100
AcDb2dVertex
 10
-38.3003801
 20
125.175009
 30
0.0
  0
VERTEX
  5
C61
330
3D9
100
AcDbEntity
  8
0
 62
     7
100
AcDbVertex
100
AcDb2dVertex
 10
-38.3602125
 20
125.475595
 30
0.0
  0
VERTEX
  5
C62
330
3D9
100
AcDbEntity
  8
0
 62
     7
100
AcDbVertex
100
AcDb2dVertex
 10
-38.40979199999999
 20
125.778133
 30
0.0
  0
VERTEX
  5
C63
330
3D9
100
AcDbEntity
  8
0
 62
     7
100
AcDbVertex
100
AcDb2dVertex
 10
-38.4488395
 20
126.082233
 30
0.0
  0
VERTEX
  5
C64
330
3D9
100
AcDbEntity
  8
0
 62
     7
100
AcDbVertex
100
AcDb2dVertex
 10
-38.477076
 20
126.3875049999999
 30
0.0
  0
VERTEX
  5
C65
330
3D9
100
AcDbEntity
  8
0
 62
     7
100
AcDbVertex
100
AcDb2dVertex
 10
-38.49422249999999
 20
126.693557
 30
0.0
  0
VERTEX
  5
C66
330
3D9
100
AcDbEntity
  8
0
 62
     7
100
AcDbVertex
100
AcDb2dVertex
 10
-38.5
 20
127.0
 30
0.0
  0
VERTEX
  5
C67
330
3D9
100
AcDbEntity
  8
0
 62
     7
100
AcDbVertex
100
AcDb2dVertex
 10
-38.49422249999999
 20
127.3064439999999
 30
0.0
  0
VERTEX
  5
C68
330
3D9
100
AcDbEntity
  8
0
 62
     7
100
AcDbVertex
100
AcDb2dVertex
 10
-38.477076
 20
127.6124959999999
 30
0.0
  0
VERTEX
  5
C69
330
3D9
100
AcDbEntity
  8
0
 62
     7
100
AcDbVertex
100
AcDb2dVertex
 10
-38.4488395
 20
127.9177679999999
 30
0.0
  0
VERTEX
  5
C6A
330
3D9
100
AcDbEntity
  8
0
 62
     7
100
AcDbVertex
100
AcDb2dVertex
 10
-38.40979199999999
 20
128.2218679999999
 30
0.0
  0
VERTEX
  5
C6B
330
3D9
100
AcDbEntity
  8
0
 62
     7
100
AcDbVertex
100
AcDb2dVertex
 10
-38.3602125
 20
128.5244059999999
 30
0.0
  0
VERTEX
  5
C6C
330
3D9
100
AcDbEntity
  8
0
 62
     7
100
AcDbVertex
100
AcDb2dVertex
 10
-38.3003801
 20
128.8249919999999
 30
0.0
  0
VERTEX
  5
C6D
330
3D9
100
AcDbEntity
  8
0
 62
     7
100
AcDbVertex
100
AcDb2dVertex
 10
-38.23057379999999
 20
129.123235
 30
0.0
  0
VERTEX
  5
C6E
330
3D9
100
AcDbEntity
  8
0
 62
     7
100
AcDbVertex
100
AcDb2dVertex
 10
-38.15107259999999
 20
129.4187439999999
 30
0.0
  0
VERTEX
  5
C6F
330
3D9
100
AcDbEntity
  8
0
 62
     7
100
AcDbVertex
100
AcDb2dVertex
 10
-38.0621556
 20
129.7111289999999
 30
0.0
  0
VERTEX
  5
C70
330
3D9
100
AcDbEntity
  8
0
 62
     7
100
AcDbVertex
100
AcDb2dVertex
 10
-37.9641016
 20
130.0
 30
0.0
  0
SEQEND
  5
C71
330
3D9
100
AcDbEntity
  8
0
 62
     7
  0
LINE
  5
3F0
330
1E
100
AcDbEntity
  8
0
  6
CENTER
 62
     2
100
AcDbLine
 10
-70.0
 20
-164.5
 30
0.0
 11
-70.0
 21
-96.5000005
 31
0.0
  0
LINE
  5
3F1
330
1E
100
AcDbEntity
  8
0
 62
     7
100
AcDbLine
 10
-103.2
 20
-158.3
 30
0.0
 11
-103.0
 21
-158.4999999999999
 31
0.0
  0
LINE
  5
3F2
330
1E
100
AcDbEntity
  8
0
 62
     7
100
AcDbLine
 10
-102.0999999999999
 20
-158.4999999999999
 30
0.0
 11
-103.0
 21
-158.4999999999999
 31
0.0
  0
LINE
  5
3F3
330
1E
100
AcDbEntity
  8
0
 62
     7
100
AcDbLine
 10
-101.5
 20
-158.4
 30
0.0
 11
-102.0999999999999
 21
-158.4
 31
0.0
  0
LINE
  5
3F4
330
1E
100
AcDbEntity
  8
0
 62
     7
100
AcDbLine
 10
-52.0
 20
-160.4999999999999
 30
0.0
 11
-40.0
 21
-160.4999999999999
 31
0.0
  0
LINE
  5
3F5
330
1E
100
AcDbEntity
  8
0
 62
     7
100
AcDbLine
 10
-88.0
 20
-160.4999999999999
 30
0.0
 11
-100.0
 21
-160.4999999999999
 31
0.0
  0
LINE
  5
3F6
330
1E
100
AcDbEntity
  8
0
 62
     7
100
AcDbLine
 10
-52.5
 20
-160.0
 30
0.0
 11
-87.5
 21
-160.0
 31
0.0
  0
LINE
  5
3F7
330
1E
100
AcDbEntity
  8
0
 62
     7
100
AcDbLine
 10
-38.5
 20
-159.0
 30
0.0
 11
-40.0
 21
-160.4999999999999
 31
0.0
  0
LINE
  5
3F8
330
1E
100
AcDbEntity
  8
0
 62
     7
100
AcDbLine
 10
-100.0
 20
-160.4999999999999
 30
0.0
 11
-101.5
 21
-159.0
 31
0.0
  0
LINE
  5
3F9
330
1E
100
AcDbEntity
  8
0
 62
     7
100
AcDbLine
 10
-88.0
 20
-160.4999999999999
 30
0.0
 11
-87.5
 21
-160.0
 31
0.0
  0
LINE
  5
3FA
330
1E
100
AcDbEntity
  8
0
 62
     7
100
AcDbLine
 10
-52.0
 20
-160.4999999999999
 30
0.0
 11
-52.5
 21
-160.0
 31
0.0
  0
LINE
  5
3FB
330
1E
100
AcDbEntity
  8
0
 62
     7
100
AcDbLine
 10
-43.0
 20
-106.4999999999999
 30
0.0
 11
-43.0
 21
-105.4999999999999
 31
0.0
  0
LINE
  5
3FC
330
1E
100
AcDbEntity
  8
0
 62
     7
100
AcDbLine
 10
-97.0
 20
-106.4999999999999
 30
0.0
 11
-97.0
 21
-105.4999999999999
 31
0.0
  0
LINE
  5
3FD
330
1E
100
AcDbEntity
  8
0
 62
     7
100
AcDbLine
 10
-103.2
 20
-150.6999999999999
 30
0.0
 11
-103.0
 21
-150.5
 31
0.0
  0
LINE
  5
3FE
330
1E
100
AcDbEntity
  8
0
 62
     7
100
AcDbLine
 10
-102.0999999999999
 20
-150.5
 30
0.0
 11
-103.0
 21
-150.5
 31
0.0
  0
LINE
  5
3FF
330
1E
100
AcDbEntity
  8
0
  6
CENTER
 62
     2
100
AcDbLine
 10
-101.5
 20
-154.4999999999999
 30
0.0
 11
-105.2
 21
-154.4999999999999
 31
0.0
  0
LINE
  5
400
330
1E
100
AcDbEntity
  8
0
 62
     7
100
AcDbLine
 10
-101.5
 20
-150.6
 30
0.0
 11
-102.0999999999999
 21
-150.6
 31
0.0
  0
LINE
  5
401
330
1E
100
AcDbEntity
  8
0
 62
     7
100
AcDbLine
 10
-103.2
 20
-129.3
 30
0.0
 11
-103.2
 21
-121.7
 31
0.0
  0
LINE
  5
402
330
1E
100
AcDbEntity
  8
0
 62
     7
100
AcDbLine
 10
-102.0999999999999
 20
-129.4999999999999
 30
0.0
 11
-102.0999999999999
 21
-121.5
 31
0.0
  0
LINE
  5
403
330
1E
100
AcDbEntity
  8
0
 62
     7
100
AcDbLine
 10
-103.0
 20
-129.4999999999999
 30
0.0
 11
-103.0
 21
-121.5
 31
0.0
  0
LINE
  5
404
330
1E
100
AcDbEntity
  8
0
 62
     7
100
AcDbLine
 10
-103.2
 20
-121.7
 30
0.0
 11
-103.0
 21
-121.5
 31
0.0
  0
LINE
  5
405
330
1E
100
AcDbEntity
  8
0
 62
     7
100
AcDbLine
 10
-102.0999999999999
 20
-121.5
 30
0.0
 11
-103.0
 21
-121.5
 31
0.0
  0
LINE
  5
406
330
1E
100
AcDbEntity
  8
0
 62
     7
100
AcDbLine
 10
-103.2
 20
-129.3
 30
0.0
 11
-103.0
 21
-129.4999999999999
 31
0.0
  0
LINE
  5
407
330
1E
100
AcDbEntity
  8
0
 62
     7
100
AcDbLine
 10
-102.0999999999999
 20
-129.4999999999999
 30
0.0
 11
-103.0
 21
-129.4999999999999
 31
0.0
  0
LINE
  5
408
330
1E
100
AcDbEntity
  8
0
  6
CENTER
 62
     2
100
AcDbLine
 10
-101.5
 20
-125.5
 30
0.0
 11
-105.2
 21
-125.5
 31
0.0
  0
LINE
  5
409
330
1E
100
AcDbEntity
  8
0
 62
     7
100
AcDbLine
 10
-101.5
 20
-121.5999999999999
 30
0.0
 11
-102.0999999999999
 21
-121.5999999999999
 31
0.0
  0
LINE
  5
40A
330
1E
100
AcDbEntity
  8
0
 62
     7
100
AcDbLine
 10
-101.5
 20
-129.4
 30
0.0
 11
-102.0999999999999
 21
-129.4
 31
0.0
  0
LINE
  5
40B
330
1E
100
AcDbEntity
  8
0
 62
     7
100
AcDbLine
 10
-99.50000000000001
 20
-105.4999999999999
 30
0.0
 11
-40.49999999999999
 21
-105.4999999999999
 31
0.0
  0
LINE
  5
40C
330
1E
100
AcDbEntity
  8
0
 62
     7
100
AcDbLine
 10
-40.49999999999999
 20
-105.4999999999999
 30
0.0
 11
-40.49999999999999
 21
-100.5
 31
0.0
  0
LINE
  5
40D
330
1E
100
AcDbEntity
  8
0
 62
     7
100
AcDbLine
 10
-99.50000000000001
 20
-105.4999999999999
 30
0.0
 11
-99.50000000000001
 21
-100.5
 31
0.0
  0
CIRCLE
  5
40E
330
1E
100
AcDbEntity
  8
0
 62
     7
100
AcDbCircle
 10
-45.0
 20
-125.5
 30
0.0
 40
4.0
  0
LINE
  5
40F
330
1E
100
AcDbEntity
  8
0
 62
     7
100
AcDbLine
 10
-44.5
 20
-129.4686269999999
 30
0.0
 11
-44.5
 21
-121.531373
 31
0.0
  0
LINE
  5
410
330
1E
100
AcDbEntity
  8
0
 62
     7
100
AcDbLine
 10
-45.49999999999999
 20
-129.4686269999999
 30
0.0
 11
-45.49999999999999
 21
-121.531373
 31
0.0
  0
CIRCLE
  5
411
330
1E
100
AcDbEntity
  8
0
 62
     7
100
AcDbCircle
 10
-45.0
 20
-125.5
 30
0.0
 40
4.25
  0
LINE
  5
412
330
1E
100
AcDbEntity
  8
0
  6
CENTER
 62
     2
100
AcDbLine
 10
-38.75
 20
-125.5
 30
0.0
 11
-51.25
 21
-125.5
 31
0.0
  0
LINE
  5
413
330
1E
100
AcDbEntity
  8
0
  6
CENTER
 62
     2
100
AcDbLine
 10
-45.0
 20
-131.75
 30
0.0
 11
-45.0
 21
-119.25
 31
0.0
  0
LINE
  5
414
330
1E
100
AcDbEntity
  8
0
  6
CENTER
 62
     2
100
AcDbLine
 10
-88.75
 20
-154.4999999999999
 30
0.0
 11
-101.2499999999999
 21
-154.4999999999999
 31
0.0
  0
ARC
  5
415
330
1E
100
AcDbEntity
  8
0
 62
     7
100
AcDbCircle
 10
-58.0835571
 20
-149.641953
 30
0.0
 40
1.5
100
AcDbArc
 50
328.7936029999999
 51
159.691408
  0
ARC
  5
416
330
1E
100
AcDbEntity
  8
0
 62
     7
100
AcDbCircle
 10
-52.9164429
 20
-149.641953
 30
0.0
 40
1.5
100
AcDbArc
 50
20.3086113
 51
211.206415
  0
ARC
  5
417
330
1E
100
AcDbEntity
  8
0
 62
     7
100
AcDbCircle
 10
-52.9164429
 20
-149.641953
 30
0.0
 40
0.600000024
100
AcDbArc
 50
316.1815339999999
 51
253.8185079999999
  0
ARC
  5
418
330
1E
100
AcDbEntity
  8
0
 62
     7
100
AcDbCircle
 10
-55.5
 20
-140.5
 30
0.0
 40
9.5
100
AcDbArc
 50
294.8367169999999
 51
245.1633569999999
  0
ARC
  5
419
330
1E
100
AcDbEntity
  8
0
 62
     7
100
AcDbCircle
 10
-58.0835571
 20
-149.641953
 30
0.0
 40
0.600000024
100
AcDbArc
 50
286.181492
 51
223.8184659999999
  0
ARC
  5
41A
330
1E
100
AcDbEntity
  8
0
 62
     7
100
AcDbCircle
 10
-81.91644290000001
 20
-149.641953
 30
0.0
 40
0.600000024
100
AcDbArc
 50
316.1815339999999
 51
253.8185079999999
  0
ARC
  5
41B
330
1E
100
AcDbEntity
  8
0
 62
     7
100
AcDbCircle
 10
-81.91644290000001
 20
-149.641953
 30
0.0
 40
1.5
100
AcDbArc
 50
20.3086113
 51
211.206415
  0
ARC
  5
41C
330
1E
100
AcDbEntity
  8
0
 62
     7
100
AcDbCircle
 10
-87.08355709999999
 20
-149.641953
 30
0.0
 40
1.5
100
AcDbArc
 50
328.793597
 51
159.691394
  0
ARC
  5
41D
330
1E
100
AcDbEntity
  8
0
 62
     7
100
AcDbCircle
 10
-87.08355709999999
 20
-149.641953
 30
0.0
 40
0.600000024
100
AcDbArc
 50
286.181492
 51
223.8184659999999
  0
ARC
  5
41E
330
1E
100
AcDbEntity
  8
0
 62
     7
100
AcDbCircle
 10
-84.50000000000001
 20
-140.5
 30
0.0
 40
9.5
100
AcDbArc
 50
294.836648
 51
245.163302
  0
CIRCLE
  5
41F
330
1E
100
AcDbEntity
  8
0
 62
     7
100
AcDbCircle
 10
-55.5
 20
-140.0
 30
0.0
 40
10.5
  0
CIRCLE
  5
420
330
1E
100
AcDbEntity
  8
0
 62
     7
100
AcDbCircle
 10
-84.50000000000001
 20
-140.0
 30
0.0
 40
10.5
  0
LINE
  5
421
330
1E
100
AcDbEntity
  8
0
 62
     7
100
AcDbLine
 10
-100.0
 20
-106.4999999999999
 30
0.0
 11
-38.5
 21
-106.4999999999999
 31
0.0
  0
LINE
  5
422
330
1E
100
AcDbEntity
  8
0
 62
     7
100
AcDbLine
 10
-99.50000000000001
 20
-100.5
 30
0.0
 11
-40.49999999999999
 21
-100.5
 31
0.0
  0
LINE
  5
423
330
1E
100
AcDbEntity
  8
0
  6
CENTER
 62
     2
100
AcDbLine
 10
-84.50000000000001
 20
-152.5
 30
0.0
 11
-84.50000000000001
 21
-127.5
 31
0.0
  0
LINE
  5
424
330
1E
100
AcDbEntity
  8
0
  6
CENTER
 62
     2
100
AcDbLine
 10
-55.5
 20
-152.5
 30
0.0
 11
-55.5
 21
-127.5
 31
0.0
  0
LINE
  5
425
330
1E
100
AcDbEntity
  8
0
  6
CENTER
 62
     2
100
AcDbLine
 10
-43.0
 20
-140.0
 30
0.0
 11
-97.0
 21
-140.0
 31
0.0
  0
LINE
  5
426
330
1E
100
AcDbEntity
  8
0
 62
     7
100
AcDbLine
 10
-100.0
 20
-119.500062
 30
0.0
 11
-100.0
 21
-106.4999999999999
 31
0.0
  0
LINE
  5
427
330
1E
100
AcDbEntity
  8
0
 62
     7
100
AcDbLine
 10
-100.0
 20
-119.5
 30
0.0
 11
-40.0
 21
-119.5
 31
0.0
  0
LINE
  5
428
330
1E
100
AcDbEntity
  8
0
 62
     7
100
AcDbLine
 10
-38.5
 20
-121.0
 30
0.0
 11
-40.0
 21
-119.5
 31
0.0
  0
LINE
  5
429
330
1E
100
AcDbEntity
  8
0
 62
     7
100
AcDbLine
 10
-100.0
 20
-119.5
 30
0.0
 11
-101.5
 21
-121.0
 31
0.0
  0
LINE
  5
42A
330
1E
100
AcDbEntity
  8
0
  6
CENTER
 62
     2
100
AcDbLine
 10
-44.54701309999999
 20
-136.0
 30
0.0
 11
-37.00000029999999
 21
-136.0
 31
0.0
  0
ARC
  5
42B
330
1E
100
AcDbEntity
  8
0
 62
     7
100
AcDbCircle
 10
-42.02500029999999
 20
-136.0
 30
0.0
 40
2.075
100
AcDbArc
 50
90.00000020000001
 51
270.0
  0
LINE
  5
42C
330
1E
100
AcDbEntity
  8
0
  6
CENTER
 62
     2
100
AcDbLine
 10
-44.54701309999999
 20
-144.0
 30
0.0
 11
-37.00000029999999
 21
-144.0
 31
0.0
  0
ARC
  5
42D
330
1E
100
AcDbEntity
  8
0
 62
     7
100
AcDbCircle
 10
-42.02500029999999
 20
-144.0
 30
0.0
 40
2.075
100
AcDbArc
 50
90.00000020000001
 51
270.0
  0
LINE
  5
42E
330
1E
100
AcDbEntity
  8
0
 62
     7
100
AcDbLine
 10
-39.70000029999999
 20
-142.4
 30
0.0
 11
-39.92500029999999
 21
-142.4
 31
0.0
  0
LINE
  5
42F
330
1E
100
AcDbEntity
  8
0
 62
     7
100
AcDbLine
 10
-39.40000029999999
 20
-145.5999999999999
 30
0.0
 11
-39.92500029999999
 21
-145.5999999999999
 31
0.0
  0
LINE
  5
430
330
1E
100
AcDbEntity
  8
0
 62
     7
100
AcDbLine
 10
-42.02500029999999
 20
-141.925
 30
0.0
 11
-40.40000029999999
 21
-141.925
 31
0.0
  0
LINE
  5
431
330
1E
100
AcDbEntity
  8
0
 62
     7
100
AcDbLine
 10
-40.40000029999999
 20
-141.925
 30
0.0
 11
-39.92500029999999
 21
-142.4
 31
0.0
  0
ARC
  5
432
330
1E
100
AcDbEntity
  8
0
 62
     7
100
AcDbCircle
 10
-39.70000029999999
 20
-142.1
 30
0.0
 40
0.3
100
AcDbArc
 50
270.0
 51
0.0
  0
LINE
  5
433
330
1E
100
AcDbEntity
  8
0
 62
     7
100
AcDbLine
 10
-40.40000029999999
 20
-146.0749999999999
 30
0.0
 11
-39.92500029999999
 21
-145.5999999999999
 31
0.0
  0
LINE
  5
434
330
1E
100
AcDbEntity
  8
0
 62
     7
100
AcDbLine
 10
-39.40000029999999
 20
-145.5999999999999
 30
0.0
 11
-38.5
 21
-146.5
 31
0.0
  0
ARC
  5
435
330
1E
100
AcDbEntity
  8
0
 62
     7
100
AcDbCircle
 10
-39.70000029999999
 20
-137.9
 30
0.0
 40
0.3
100
AcDbArc
 50
0.0
 51
90.00000020000001
  0
LINE
  5
436
330
1E
100
AcDbEntity
  8
0
 62
     7
100
AcDbLine
 10
-39.40000029999999
 20
-142.1
 30
0.0
 11
-39.40000029999999
 21
-137.9
 31
0.0
  0
LINE
  5
437
330
1E
100
AcDbEntity
  8
0
 62
     7
100
AcDbLine
 10
-40.40000029999999
 20
-138.0749999999999
 30
0.0
 11
-39.92500029999999
 21
-137.5999999999999
 31
0.0
  0
LINE
  5
438
330
1E
100
AcDbEntity
  8
0
 62
     7
100
AcDbLine
 10
-40.40000029999999
 20
-133.925
 30
0.0
 11
-39.92500029999999
 21
-134.4
 31
0.0
  0
LINE
  5
439
330
1E
100
AcDbEntity
  8
0
 62
     7
100
AcDbLine
 10
-42.02500029999999
 20
-133.925
 30
0.0
 11
-40.40000029999999
 21
-133.925
 31
0.0
  0
LINE
  5
43A
330
1E
100
AcDbEntity
  8
0
 62
     7
100
AcDbLine
 10
-42.02500029999999
 20
-138.0749999999999
 30
0.0
 11
-40.40000029999999
 21
-138.0749999999999
 31
0.0
  0
LINE
  5
43B
330
1E
100
AcDbEntity
  8
0
 62
     7
100
AcDbLine
 10
-39.40000029999999
 20
-134.4
 30
0.0
 11
-38.5
 21
-133.4999999999999
 31
0.0
  0
LINE
  5
43C
330
1E
100
AcDbEntity
  8
0
 62
     7
100
AcDbLine
 10
-39.40000029999999
 20
-134.4
 30
0.0
 11
-39.92500029999999
 21
-134.4
 31
0.0
  0
LINE
  5
43D
330
1E
100
AcDbEntity
  8
0
 62
     7
100
AcDbLine
 10
-39.70000029999999
 20
-137.5999999999999
 30
0.0
 11
-39.92500029999999
 21
-137.5999999999999
 31
0.0
  0
LINE
  5
43E
330
1E
100
AcDbEntity
  8
0
 62
     7
100
AcDbLine
 10
-42.02500029999999
 20
-146.0749999999999
 30
0.0
 11
-40.375
 21
-146.074993
 31
0.0
  0
LINE
  5
43F
330
1E
100
AcDbEntity
  8
0
 62
     7
100
AcDbLine
 10
-38.5
 20
-133.4999999999999
 30
0.0
 11
-38.5
 21
-106.4999999999999
 31
0.0
  0
LINE
  5
440
330
1E
100
AcDbEntity
  8
0
  6
CENTER
 62
     2
100
AcDbLine
 10
-95.4529869
 20
-136.0
 30
0.0
 11
-103.0
 21
-136.0
 31
0.0
  0
ARC
  5
441
330
1E
100
AcDbEntity
  8
0
 62
     7
100
AcDbCircle
 10
-97.9749997
 20
-136.0
 30
0.0
 40
2.075
100
AcDbArc
 50
270.0
 51
90.00000020000001
  0
LINE
  5
442
330
1E
100
AcDbEntity
  8
0
  6
CENTER
 62
     2
100
AcDbLine
 10
-95.4529869
 20
-144.0
 30
0.0
 11
-103.0
 21
-144.0
 31
0.0
  0
ARC
  5
443
330
1E
100
AcDbEntity
  8
0
 62
     7
100
AcDbCircle
 10
-97.9749997
 20
-144.0
 30
0.0
 40
2.075
100
AcDbArc
 50
270.0
 51
90.00000020000001
  0
LINE
  5
444
330
1E
100
AcDbEntity
  8
0
 62
     7
100
AcDbLine
 10
-100.6
 20
-145.5999999999999
 30
0.0
 11
-101.5
 21
-146.5
 31
0.0
  0
LINE
  5
445
330
1E
100
AcDbEntity
  8
0
 62
     7
100
AcDbLine
 10
-100.6
 20
-134.4
 30
0.0
 11
-101.5
 21
-133.4999999999999
 31
0.0
  0
LINE
  5
446
330
1E
100
AcDbEntity
  8
0
 62
     7
100
AcDbLine
 10
-97.9749997
 20
-146.0749999999999
 30
0.0
 11
-99.625
 21
-146.074993
 31
0.0
  0
LINE
  5
447
330
1E
100
AcDbEntity
  8
0
 62
     7
100
AcDbLine
 10
-100.2999999999999
 20
-137.5999999999999
 30
0.0
 11
-100.075
 21
-137.5999999999999
 31
0.0
  0
LINE
  5
448
330
1E
100
AcDbEntity
  8
0
 62
     7
100
AcDbLine
 10
-100.6
 20
-134.4
 30
0.0
 11
-100.075
 21
-134.4
 31
0.0
  0
LINE
  5
449
330
1E
100
AcDbEntity
  8
0
 62
     7
100
AcDbLine
 10
-97.9749997
 20
-138.0749999999999
 30
0.0
 11
-99.5999997
 21
-138.0749999999999
 31
0.0
  0
LINE
  5
44A
330
1E
100
AcDbEntity
  8
0
 62
     7
100
AcDbLine
 10
-97.9749997
 20
-133.925
 30
0.0
 11
-99.5999997
 21
-133.925
 31
0.0
  0
LINE
  5
44B
330
1E
100
AcDbEntity
  8
0
 62
     7
100
AcDbLine
 10
-99.5999997
 20
-133.925
 30
0.0
 11
-100.075
 21
-134.4
 31
0.0
  0
LINE
  5
44C
330
1E
100
AcDbEntity
  8
0
 62
     7
100
AcDbLine
 10
-99.5999997
 20
-138.0749999999999
 30
0.0
 11
-100.075
 21
-137.5999999999999
 31
0.0
  0
LINE
  5
44D
330
1E
100
AcDbEntity
  8
0
 62
     7
100
AcDbLine
 10
-100.6
 20
-142.1
 30
0.0
 11
-100.6
 21
-137.9
 31
0.0
  0
ARC
  5
44E
330
1E
100
AcDbEntity
  8
0
 62
     7
100
AcDbCircle
 10
-100.2999999999999
 20
-137.9
 30
0.0
 40
0.3
100
AcDbArc
 50
90.00000020000001
 51
180.0
  0
LINE
  5
44F
330
1E
100
AcDbEntity
  8
0
 62
     7
100
AcDbLine
 10
-99.5999997
 20
-146.0749999999999
 30
0.0
 11
-100.075
 21
-145.5999999999999
 31
0.0
  0
ARC
  5
450
330
1E
100
AcDbEntity
  8
0
 62
     7
100
AcDbCircle
 10
-100.2999999999999
 20
-142.1
 30
0.0
 40
0.3
100
AcDbArc
 50
180.0
 51
270.0
  0
LINE
  5
451
330
1E
100
AcDbEntity
  8
0
 62
     7
100
AcDbLine
 10
-99.5999997
 20
-141.925
 30
0.0
 11
-100.075
 21
-142.4
 31
0.0
  0
LINE
  5
452
330
1E
100
AcDbEntity
  8
0
 62
     7
100
AcDbLine
 10
-97.9749997
 20
-141.925
 30
0.0
 11
-99.5999997
 21
-141.925
 31
0.0
  0
LINE
  5
453
330
1E
100
AcDbEntity
  8
0
 62
     7
100
AcDbLine
 10
-100.6
 20
-145.5999999999999
 30
0.0
 11
-100.075
 21
-145.5999999999999
 31
0.0
  0
LINE
  5
454
330
1E
100
AcDbEntity
  8
0
 62
     7
100
AcDbLine
 10
-100.2999999999999
 20
-142.4
 30
0.0
 11
-100.075
 21
-142.4
 31
0.0
  0
LINE
  5
455
330
1E
100
AcDbEntity
  8
0
 62
     7
100
AcDbLine
 10
-101.5
 20
-133.4999999999999
 30
0.0
 11
-101.5
 21
-121.0
 31
0.0
  0
LINE
  5
456
330
1E
100
AcDbEntity
  8
0
 62
     7
100
AcDbLine
 10
-35.5
 20
-120.0
 30
0.0
 11
-38.5
 21
-120.0
 31
0.0
  0
LINE
  5
457
330
1E
100
AcDbEntity
  8
0
 62
     7
100
AcDbLine
 10
-35.5
 20
-108.0
 30
0.0
 11
-38.5
 21
-108.0
 31
0.0
  0
LINE
  5
458
330
1E
100
AcDbEntity
  8
0
 62
     7
100
AcDbLine
 10
-35.5
 20
-120.0
 30
0.0
 11
-35.5
 21
-108.0
 31
0.0
  0
LINE
  5
459
330
1E
100
AcDbEntity
  8
0
 62
     7
100
AcDbLine
 10
-37.9641016
 20
-114.0
 30
0.0
 11
-36.0358984
 21
-114.0
 31
0.0
  0
LINE
  5
45A
330
1E
100
AcDbEntity
  8
0
 62
     2
100
AcDbLine
 10
-35.5
 20
-109.4999999999999
 30
0.0
 11
-22.5
 21
-109.4999999999999
 31
0.0
  0
LINE
  5
45B
330
1E
100
AcDbEntity
  8
0
 62
     7
100
AcDbLine
 10
-35.5
 20
-109.0
 30
0.0
 11
-23.0
 21
-109.0
 31
0.0
  0
LINE
  5
45C
330
1E
100
AcDbEntity
  8
0
  6
CENTER
 62
     2
100
AcDbLine
 10
-38.5
 20
-114.0
 30
0.0
 11
-11.5
 21
-114.0
 31
0.0
  0
LINE
  5
45D
330
1E
100
AcDbEntity
  8
0
 62
     2
100
AcDbLine
 10
-35.5
 20
-118.5
 30
0.0
 11
-22.5
 21
-118.5
 31
0.0
  0
LINE
  5
45E
330
1E
100
AcDbEntity
  8
0
 62
     7
100
AcDbLine
 10
-35.5
 20
-119.0
 30
0.0
 11
-23.0
 21
-119.0
 31
0.0
  0
LINE
  5
45F
330
1E
100
AcDbEntity
  8
0
 62
     7
100
AcDbLine
 10
-22.5
 20
-118.5
 30
0.0
 11
-18.75
 21
-118.5
 31
0.0
  0
LINE
  5
460
330
1E
100
AcDbEntity
  8
0
 62
     7
100
AcDbLine
 10
-22.5
 20
-109.4999999999999
 30
0.0
 11
-18.75
 21
-109.4999999999999
 31
0.0
  0
LINE
  5
461
330
1E
100
AcDbEntity
  8
0
 62
     7
100
AcDbLine
 10
-22.5
 20
-118.5
 30
0.0
 11
-23.0
 21
-119.0
 31
0.0
  0
LINE
  5
462
330
1E
100
AcDbEntity
  8
0
 62
     7
100
AcDbLine
 10
-22.5
 20
-109.4999999999999
 30
0.0
 11
-23.0
 21
-109.0
 31
0.0
  0
LINE
  5
463
330
1E
100
AcDbEntity
  8
0
 62
     7
100
AcDbLine
 10
-19.25
 20
-109.4999999999999
 30
0.0
 11
-19.25
 21
-118.5
 31
0.0
  0
LINE
  5
464
330
1E
100
AcDbEntity
  8
0
 62
     7
100
AcDbLine
 10
-18.5
 20
-118.25
 30
0.0
 11
-18.75
 21
-118.5
 31
0.0
  0
LINE
  5
465
330
1E
100
AcDbEntity
  8
0
 62
     7
100
AcDbLine
 10
-18.5
 20
-109.7499999999999
 30
0.0
 11
-18.75
 21
-109.4999999999999
 31
0.0
  0
LINE
  5
466
330
1E
100
AcDbEntity
  8
0
 62
     7
100
AcDbLine
 10
-13.5
 20
-117.7499999999999
 30
0.0
 11
-13.5
 21
-110.25
 31
0.0
  0
LINE
  5
467
330
1E
100
AcDbEntity
  8
0
 62
     7
100
AcDbLine
 10
-18.5
 20
-118.25
 30
0.0
 11
-18.5
 21
-109.7499999999999
 31
0.0
  0
LINE
  5
468
330
1E
100
AcDbEntity
  8
0
 62
     7
100
AcDbLine
 10
-18.5
 20
-109.7499999999999
 30
0.0
 11
-14.0
 21
-109.7499999999999
 31
0.0
  0
LINE
  5
469
330
1E
100
AcDbEntity
  8
0
 62
     7
100
AcDbLine
 10
-18.5
 20
-118.25
 30
0.0
 11
-14.0
 21
-118.25
 31
0.0
  0
LINE
  5
46A
330
1E
100
AcDbEntity
  8
0
 62
     7
100
AcDbLine
 10
-14.0
 20
-109.7499999999999
 30
0.0
 11
-13.5
 21
-110.25
 31
0.0
  0
LINE
  5
46B
330
1E
100
AcDbEntity
  8
0
 62
     7
100
AcDbLine
 10
-14.0
 20
-118.25
 30
0.0
 11
-13.5
 21
-117.7499999999999
 31
0.0
  0
LINE
  5
46C
330
1E
100
AcDbEntity
  8
0
 62
     7
100
AcDbLine
 10
-14.0
 20
-109.7499999999999
 30
0.0
 11
-14.0
 21
-118.25
 31
0.0
  0
LINE
  5
46D
330
1E
100
AcDbEntity
  8
0
 62
     7
100
AcDbLine
 10
-38.5
 20
-159.0
 30
0.0
 11
-38.5
 21
-146.5
 31
0.0
  0
LINE
  5
46E
330
1E
100
AcDbEntity
  8
0
 62
     7
100
AcDbLine
 10
-101.5
 20
-159.0
 30
0.0
 11
-101.5
 21
-146.5
 31
0.0
  0
LINE
  5
46F
330
1E
100
AcDbEntity
  8
0
  6
CENTER
 62
     2
100
AcDbLine
 10
-95.0
 20
-160.7499999999999
 30
0.0
 11
-95.0
 21
-148.2499999999999
 31
0.0
  0
CIRCLE
  5
470
330
1E
100
AcDbEntity
  8
0
 62
     7
100
AcDbCircle
 10
-95.0
 20
-154.4999999999999
 30
0.0
 40
4.25
  0
LINE
  5
471
330
1E
100
AcDbEntity
  8
0
 62
     7
100
AcDbLine
 10
-95.5
 20
-158.4686269999999
 30
0.0
 11
-95.5
 21
-150.531373
 31
0.0
  0
LINE
  5
472
330
1E
100
AcDbEntity
  8
0
 62
     7
100
AcDbLine
 10
-94.50000000000001
 20
-158.4686269999999
 30
0.0
 11
-94.50000000000001
 21
-150.531373
 31
0.0
  0
CIRCLE
  5
473
330
1E
100
AcDbEntity
  8
0
 62
     7
100
AcDbCircle
 10
-95.0
 20
-154.4999999999999
 30
0.0
 40
4.0
  0
LINE
  5
474
330
1E
100
AcDbEntity
  8
0
 62
     7
100
AcDbLine
 10
-103.0
 20
-158.4999999999999
 30
0.0
 11
-103.0
 21
-150.5
 31
0.0
  0
LINE
  5
475
330
1E
100
AcDbEntity
  8
0
 62
     7
100
AcDbLine
 10
-102.0999999999999
 20
-158.4999999999999
 30
0.0
 11
-102.0999999999999
 21
-150.5
 31
0.0
  0
LINE
  5
476
330
1E
100
AcDbEntity
  8
0
 62
     7
100
AcDbLine
 10
-103.2
 20
-158.3
 30
0.0
 11
-103.2
 21
-150.6999999999999
 31
0.0
  0
POLYLINE
  5
477
330
1E
100
AcDbEntity
  8
0
 62
     7
100
AcDb2dPolyline
 66
     1
 10
0.0
 20
0.0
 30
0.0
  0
VERTEX
  5
C72
330
477
100
AcDbEntity
  8
0
 62
     7
100
AcDbVertex
100
AcDb2dVertex
 10
-36.0358984
 20
-108.0
 30
0.0
  0
VERTEX
  5
C73
330
477
100
AcDbEntity
  8
0
 62
     7
100
AcDbVertex
100
AcDb2dVertex
 10
-35.93784439999999
 20
-108.2888709999999
 30
0.0
  0
VERTEX
  5
C74
330
477
100
AcDbEntity
  8
0
 62
     7
100
AcDbVertex
100
AcDb2dVertex
 10
-35.8489274
 20
-108.581257
 30
0.0
  0
VERTEX
  5
C75
330
477
100
AcDbEntity
  8
0
 62
     7
100
AcDbVertex
100
AcDb2dVertex
 10
-35.7694262
 20
-108.876766
 30
0.0
  0
VERTEX
  5
C76
330
477
100
AcDbEntity
  8
0
 62
     7
100
AcDbVertex
100
AcDb2dVertex
 10
-35.69961989999999
 20
-109.175009
 30
0.0
  0
VERTEX
  5
C77
330
477
100
AcDbEntity
  8
0
 62
     7
100
AcDbVertex
100
AcDb2dVertex
 10
-35.63978749999999
 20
-109.4755949999999
 30
0.0
  0
VERTEX
  5
C78
330
477
100
AcDbEntity
  8
0
 62
     7
100
AcDbVertex
100
AcDb2dVertex
 10
-35.590208
 20
-109.778133
 30
0.0
  0
VERTEX
  5
C79
330
477
100
AcDbEntity
  8
0
 62
     7
100
AcDbVertex
100
AcDb2dVertex
 10
-35.55116049999999
 20
-110.0822329999999
 30
0.0
  0
VERTEX
  5
C7A
330
477
100
AcDbEntity
  8
0
 62
     7
100
AcDbVertex
100
AcDb2dVertex
 10
-35.52292399999999
 20
-110.387505
 30
0.0
  0
VERTEX
  5
C7B
330
477
100
AcDbEntity
  8
0
 62
     7
100
AcDbVertex
100
AcDb2dVertex
 10
-35.5057775
 20
-110.693557
 30
0.0
  0
VERTEX
  5
C7C
330
477
100
AcDbEntity
  8
0
 62
     7
100
AcDbVertex
100
AcDb2dVertex
 10
-35.5
 20
-111.0
 30
0.0
  0
VERTEX
  5
C7D
330
477
100
AcDbEntity
  8
0
 62
     7
100
AcDbVertex
100
AcDb2dVertex
 10
-35.5057775
 20
-111.306444
 30
0.0
  0
VERTEX
  5
C7E
330
477
100
AcDbEntity
  8
0
 62
     7
100
AcDbVertex
100
AcDb2dVertex
 10
-35.52292399999999
 20
-111.612496
 30
0.0
  0
VERTEX
  5
C7F
330
477
100
AcDbEntity
  8
0
 62
     7
100
AcDbVertex
100
AcDb2dVertex
 10
-35.55116049999999
 20
-111.9177679999999
 30
0.0
  0
VERTEX
  5
C80
330
477
100
AcDbEntity
  8
0
 62
     7
100
AcDbVertex
100
AcDb2dVertex
 10
-35.590208
 20
-112.2218679999999
 30
0.0
  0
VERTEX
  5
C81
330
477
100
AcDbEntity
  8
0
 62
     7
100
AcDbVertex
100
AcDb2dVertex
 10
-35.63978749999999
 20
-112.5244059999999
 30
0.0
  0
VERTEX
  5
C82
330
477
100
AcDbEntity
  8
0
 62
     7
100
AcDbVertex
100
AcDb2dVertex
 10
-35.69961989999999
 20
-112.824992
 30
0.0
  0
VERTEX
  5
C83
330
477
100
AcDbEntity
  8
0
 62
     7
100
AcDbVertex
100
AcDb2dVertex
 10
-35.7694262
 20
-113.123235
 30
0.0
  0
VERTEX
  5
C84
330
477
100
AcDbEntity
  8
0
 62
     7
100
AcDbVertex
100
AcDb2dVertex
 10
-35.8489274
 20
-113.4187439999999
 30
0.0
  0
VERTEX
  5
C85
330
477
100
AcDbEntity
  8
0
 62
     7
100
AcDbVertex
100
AcDb2dVertex
 10
-35.93784439999999
 20
-113.7111289999999
 30
0.0
  0
VERTEX
  5
C86
330
477
100
AcDbEntity
  8
0
 62
     7
100
AcDbVertex
100
AcDb2dVertex
 10
-36.0358984
 20
-114.0
 30
0.0
  0
SEQEND
  5
C87
330
477
100
AcDbEntity
  8
0
 62
     7
  0
POLYLINE
  5
48E
330
1E
100
AcDbEntity
  8
0
 62
     7
100
AcDb2dPolyline
 66
     1
 10
0.0
 20
0.0
 30
0.0
  0
VERTEX
  5
C88
330
48E
100
AcDbEntity
  8
0
 62
     7
100
AcDbVertex
100
AcDb2dVertex
 10
-36.0358984
 20
-114.0
 30
0.0
  0
VERTEX
  5
C89
330
48E
100
AcDbEntity
  8
0
 62
     7
100
AcDbVertex
100
AcDb2dVertex
 10
-35.93784439999999
 20
-114.288871
 30
0.0
  0
VERTEX
  5
C8A
330
48E
100
AcDbEntity
  8
0
 62
     7
100
AcDbVertex
100
AcDb2dVertex
 10
-35.8489274
 20
-114.581257
 30
0.0
  0
VERTEX
  5
C8B
330
48E
100
AcDbEntity
  8
0
 62
     7
100
AcDbVertex
100
AcDb2dVertex
 10
-35.7694262
 20
-114.8767659999999
 30
0.0
  0
VERTEX
  5
C8C
330
48E
100
AcDbEntity
  8
0
 62
     7
100
AcDbVertex
100
AcDb2dVertex
 10
-35.69961989999999
 20
-115.1750089999999
 30
0.0
  0
VERTEX
  5
C8D
330
48E
100
AcDbEntity
  8
0
 62
     7
100
AcDbVertex
100
AcDb2dVertex
 10
-35.63978749999999
 20
-115.4755949999999
 30
0.0
  0
VERTEX
  5
C8E
330
48E
100
AcDbEntity
  8
0
 62
     7
100
AcDbVertex
100
AcDb2dVertex
 10
-35.590208
 20
-115.778133
 30
0.0
  0
VERTEX
  5
C8F
330
48E
100
AcDbEntity
  8
0
 62
     7
100
AcDbVertex
100
AcDb2dVertex
 10
-35.55116049999999
 20
-116.082233
 30
0.0
  0
VERTEX
  5
C90
330
48E
100
AcDbEntity
  8
0
 62
     7
100
AcDbVertex
100
AcDb2dVertex
 10
-35.52292399999999
 20
-116.387505
 30
0.0
  0
VERTEX
  5
C91
330
48E
100
AcDbEntity
  8
0
 62
     7
100
AcDbVertex
100
AcDb2dVertex
 10
-35.5057775
 20
-116.693557
 30
0.0
  0
VERTEX
  5
C92
330
48E
100
AcDbEntity
  8
0
 62
     7
100
AcDbVertex
100
AcDb2dVertex
 10
-35.5
 20
-117.0
 30
0.0
  0
VERTEX
  5
C93
330
48E
100
AcDbEntity
  8
0
 62
     7
100
AcDbVertex
100
AcDb2dVertex
 10
-35.5057775
 20
-117.306444
 30
0.0
  0
VERTEX
  5
C94
330
48E
100
AcDbEntity
  8
0
 62
     7
100
AcDbVertex
100
AcDb2dVertex
 10
-35.52292399999999
 20
-117.6124959999999
 30
0.0
  0
VERTEX
  5
C95
330
48E
100
AcDbEntity
  8
0
 62
     7
100
AcDbVertex
100
AcDb2dVertex
 10
-35.55116049999999
 20
-117.917768
 30
0.0
  0
VERTEX
  5
C96
330
48E
100
AcDbEntity
  8
0
 62
     7
100
AcDbVertex
100
AcDb2dVertex
 10
-35.590208
 20
-118.2218679999999
 30
0.0
  0
VERTEX
  5
C97
330
48E
100
AcDbEntity
  8
0
 62
     7
100
AcDbVertex
100
AcDb2dVertex
 10
-35.63978749999999
 20
-118.524406
 30
0.0
  0
VERTEX
  5
C98
330
48E
100
AcDbEntity
  8
0
 62
     7
100
AcDbVertex
100
AcDb2dVertex
 10
-35.69961989999999
 20
-118.824992
 30
0.0
  0
VERTEX
  5
C99
330
48E
100
AcDbEntity
  8
0
 62
     7
100
AcDbVertex
100
AcDb2dVertex
 10
-35.7694262
 20
-119.123235
 30
0.0
  0
VERTEX
  5
C9A
330
48E
100
AcDbEntity
  8
0
 62
     7
100
AcDbVertex
100
AcDb2dVertex
 10
-35.8489274
 20
-119.4187439999999
 30
0.0
  0
VERTEX
  5
C9B
330
48E
100
AcDbEntity
  8
0
 62
     7
100
AcDbVertex
100
AcDb2dVertex
 10
-35.93784439999999
 20
-119.711129
 30
0.0
  0
VERTEX
  5
C9C
330
48E
100
AcDbEntity
  8
0
 62
     7
100
AcDbVertex
100
AcDb2dVertex
 10
-36.0358984
 20
-120.0
 30
0.0
  0
SEQEND
  5
C9D
330
48E
100
AcDbEntity
  8
0
 62
     7
  0
POLYLINE
  5
4A5
330
1E
100
AcDbEntity
  8
0
 62
     7
100
AcDb2dPolyline
 66
     1
 10
0.0
 20
0.0
 30
0.0
  0
VERTEX
  5
C9E
330
4A5
100
AcDbEntity
  8
0
 62
     7
100
AcDbVertex
100
AcDb2dVertex
 10
-37.9641016
 20
-108.0
 30
0.0
  0
VERTEX
  5
C9F
330
4A5
100
AcDbEntity
  8
0
 62
     7
100
AcDbVertex
100
AcDb2dVertex
 10
-38.0621556
 20
-108.2888709999999
 30
0.0
  0
VERTEX
  5
CA0
330
4A5
100
AcDbEntity
  8
0
 62
     7
100
AcDbVertex
100
AcDb2dVertex
 10
-38.15107259999999
 20
-108.581257
 30
0.0
  0
VERTEX
  5
CA1
330
4A5
100
AcDbEntity
  8
0
 62
     7
100
AcDbVertex
100
AcDb2dVertex
 10
-38.23057379999999
 20
-108.876766
 30
0.0
  0
VERTEX
  5
CA2
330
4A5
100
AcDbEntity
  8
0
 62
     7
100
AcDbVertex
100
AcDb2dVertex
 10
-38.3003801
 20
-109.175009
 30
0.0
  0
VERTEX
  5
CA3
330
4A5
100
AcDbEntity
  8
0
 62
     7
100
AcDbVertex
100
AcDb2dVertex
 10
-38.3602125
 20
-109.4755949999999
 30
0.0
  0
VERTEX
  5
CA4
330
4A5
100
AcDbEntity
  8
0
 62
     7
100
AcDbVertex
100
AcDb2dVertex
 10
-38.40979199999999
 20
-109.778133
 30
0.0
  0
VERTEX
  5
CA5
330
4A5
100
AcDbEntity
  8
0
 62
     7
100
AcDbVertex
100
AcDb2dVertex
 10
-38.4488395
 20
-110.0822329999999
 30
0.0
  0
VERTEX
  5
CA6
330
4A5
100
AcDbEntity
  8
0
 62
     7
100
AcDbVertex
100
AcDb2dVertex
 10
-38.477076
 20
-110.387505
 30
0.0
  0
VERTEX
  5
CA7
330
4A5
100
AcDbEntity
  8
0
 62
     7
100
AcDbVertex
100
AcDb2dVertex
 10
-38.49422249999999
 20
-110.693557
 30
0.0
  0
VERTEX
  5
CA8
330
4A5
100
AcDbEntity
  8
0
 62
     7
100
AcDbVertex
100
AcDb2dVertex
 10
-38.5
 20
-111.0
 30
0.0
  0
VERTEX
  5
CA9
330
4A5
100
AcDbEntity
  8
0
 62
     7
100
AcDbVertex
100
AcDb2dVertex
 10
-38.49422249999999
 20
-111.306444
 30
0.0
  0
VERTEX
  5
CAA
330
4A5
100
AcDbEntity
  8
0
 62
     7
100
AcDbVertex
100
AcDb2dVertex
 10
-38.477076
 20
-111.612496
 30
0.0
  0
VERTEX
  5
CAB
330
4A5
100
AcDbEntity
  8
0
 62
     7
100
AcDbVertex
100
AcDb2dVertex
 10
-38.4488395
 20
-111.9177679999999
 30
0.0
  0
VERTEX
  5
CAC
330
4A5
100
AcDbEntity
  8
0
 62
     7
100
AcDbVertex
100
AcDb2dVertex
 10
-38.40979199999999
 20
-112.2218679999999
 30
0.0
  0
VERTEX
  5
CAD
330
4A5
100
AcDbEntity
  8
0
 62
     7
100
AcDbVertex
100
AcDb2dVertex
 10
-38.3602125
 20
-112.5244059999999
 30
0.0
  0
VERTEX
  5
CAE
330
4A5
100
AcDbEntity
  8
0
 62
     7
100
AcDbVertex
100
AcDb2dVertex
 10
-38.3003801
 20
-112.824992
 30
0.0
  0
VERTEX
  5
CAF
330
4A5
100
AcDbEntity
  8
0
 62
     7
100
AcDbVertex
100
AcDb2dVertex
 10
-38.23057379999999
 20
-113.123235
 30
0.0
  0
VERTEX
  5
CB0
330
4A5
100
AcDbEntity
  8
0
 62
     7
100
AcDbVertex
100
AcDb2dVertex
 10
-38.15107259999999
 20
-113.4187439999999
 30
0.0
  0
VERTEX
  5
CB1
330
4A5
100
AcDbEntity
  8
0
 62
     7
100
AcDbVertex
100
AcDb2dVertex
 10
-38.0621556
 20
-113.7111289999999
 30
0.0
  0
VERTEX
  5
CB2
330
4A5
100
AcDbEntity
  8
0
 62
     7
100
AcDbVertex
100
AcDb2dVertex
 10
-37.9641016
 20
-114.0
 30
0.0
  0
SEQEND
  5
CB3
330
4A5
100
AcDbEntity
  8
0
 62
     7
  0
POLYLINE
  5
4BC
330
1E
100
AcDbEntity
  8
0
 62
     7
100
AcDb2dPolyline
 66
     1
 10
0.0
 20
0.0
 30
0.0
  0
VERTEX
  5
CB4
330
4BC
100
AcDbEntity
  8
0
 62
     7
100
AcDbVertex
100
AcDb2dVertex
 10
-37.9641016
 20
-114.0
 30
0.0
  0
VERTEX
  5
CB5
330
4BC
100
AcDbEntity
  8
0
 62
     7
100
AcDbVertex
100
AcDb2dVertex
 10
-38.0621556
 20
-114.288871
 30
0.0
  0
VERTEX
  5
CB6
330
4BC
100
AcDbEntity
  8
0
 62
     7
100
AcDbVertex
100
AcDb2dVertex
 10
-38.15107259999999
 20
-114.581257
 30
0.0
  0
VERTEX
  5
CB7
330
4BC
100
AcDbEntity
  8
0
 62
     7
100
AcDbVertex
100
AcDb2dVertex
 10
-38.23057379999999
 20
-114.8767659999999
 30
0.0
  0
VERTEX
  5
CB8
330
4BC
100
AcDbEntity
  8
0
 62
     7
100
AcDbVertex
100
AcDb2dVertex
 10
-38.3003801
 20
-115.1750089999999
 30
0.0
  0
VERTEX
  5
CB9
330
4BC
100
AcDbEntity
  8
0
 62
     7
100
AcDbVertex
100
AcDb2dVertex
 10
-38.3602125
 20
-115.4755949999999
 30
0.0
  0
VERTEX
  5
CBA
330
4BC
100
AcDbEntity
  8
0
 62
     7
100
AcDbVertex
100
AcDb2dVertex
 10
-38.40979199999999
 20
-115.778133
 30
0.0
  0
VERTEX
  5
CBB
330
4BC
100
AcDbEntity
  8
0
 62
     7
100
AcDbVertex
100
AcDb2dVertex
 10
-38.4488395
 20
-116.082233
 30
0.0
  0
VERTEX
  5
CBC
330
4BC
100
AcDbEntity
  8
0
 62
     7
100
AcDbVertex
100
AcDb2dVertex
 10
-38.477076
 20
-116.387505
 30
0.0
  0
VERTEX
  5
CBD
330
4BC
100
AcDbEntity
  8
0
 62
     7
100
AcDbVertex
100
AcDb2dVertex
 10
-38.49422249999999
 20
-116.693557
 30
0.0
  0
VERTEX
  5
CBE
330
4BC
100
AcDbEntity
  8
0
 62
     7
100
AcDbVertex
100
AcDb2dVertex
 10
-38.5
 20
-117.0
 30
0.0
  0
VERTEX
  5
CBF
330
4BC
100
AcDbEntity
  8
0
 62
     7
100
AcDbVertex
100
AcDb2dVertex
 10
-38.49422249999999
 20
-117.306444
 30
0.0
  0
VERTEX
  5
CC0
330
4BC
100
AcDbEntity
  8
0
 62
     7
100
AcDbVertex
100
AcDb2dVertex
 10
-38.477076
 20
-117.6124959999999
 30
0.0
  0
VERTEX
  5
CC1
330
4BC
100
AcDbEntity
  8
0
 62
     7
100
AcDbVertex
100
AcDb2dVertex
 10
-38.4488395
 20
-117.917768
 30
0.0
  0
VERTEX
  5
CC2
330
4BC
100
AcDbEntity
  8
0
 62
     7
100
AcDbVertex
100
AcDb2dVertex
 10
-38.40979199999999
 20
-118.2218679999999
 30
0.0
  0
VERTEX
  5
CC3
330
4BC
100
AcDbEntity
  8
0
 62
     7
100
AcDbVertex
100
AcDb2dVertex
 10
-38.3602125
 20
-118.524406
 30
0.0
  0
VERTEX
  5
CC4
330
4BC
100
AcDbEntity
  8
0
 62
     7
100
AcDbVertex
100
AcDb2dVertex
 10
-38.3003801
 20
-118.824992
 30
0.0
  0
VERTEX
  5
CC5
330
4BC
100
AcDbEntity
  8
0
 62
     7
100
AcDbVertex
100
AcDb2dVertex
 10
-38.23057379999999
 20
-119.123235
 30
0.0
  0
VERTEX
  5
CC6
330
4BC
100
AcDbEntity
  8
0
 62
     7
100
AcDbVertex
100
AcDb2dVertex
 10
-38.15107259999999
 20
-119.4187439999999
 30
0.0
  0
VERTEX
  5
CC7
330
4BC
100
AcDbEntity
  8
0
 62
     7
100
AcDbVertex
100
AcDb2dVertex
 10
-38.0621556
 20
-119.711129
 30
0.0
  0
VERTEX
  5
CC8
330
4BC
100
AcDbEntity
  8
0
 62
     7
100
AcDbVertex
100
AcDb2dVertex
 10
-37.9641016
 20
-120.0
 30
0.0
  0
SEQEND
  5
CC9
330
4BC
100
AcDbEntity
  8
0
 62
     7
  0
LINE
  5
4D3
330
1E
100
AcDbEntity
  8
0
 62
     7
100
AcDbLine
 10
202.0
 20
25.0
 30
0.0
 11
202.0
 21
23.0
 31
0.0
  0
LINE
  5
4D4
330
1E
100
AcDbEntity
  8
0
 62
     7
100
AcDbLine
 10
198.0
 20
25.0
 30
0.0
 11
198.0
 21
23.0
 31
0.0
  0
LINE
  5
4D5
330
1E
100
AcDbEntity
  8
0
  6
CENTER
 62
     2
100
AcDbLine
 10
204.0
 20
25.0
 30
0.0
 11
196.0
 21
25.0
 31
0.0
  0
ARC
  5
4D6
330
1E
100
AcDbEntity
  8
0
 62
     7
100
AcDbCircle
 10
200.0
 20
25.0
 30
0.0
 40
2.0
100
AcDbArc
 50
0.0
 51
180.0
  0
ARC
  5
4D7
330
1E
100
AcDbEntity
  8
0
 62
     7
100
AcDbCircle
 10
200.0
 20
23.0
 30
0.0
 40
2.0
100
AcDbArc
 50
180.0
 51
0.0
  0
LINE
  5
4D8
330
1E
100
AcDbEntity
  8
0
  6
CENTER
 62
     2
100
AcDbLine
 10
204.0
 20
23.0
 30
0.0
 11
196.0
 21
23.0
 31
0.0
  0
CIRCLE
  5
4D9
330
1E
100
AcDbEntity
  8
0
 62
     7
100
AcDbCircle
 10
200.0
 20
-24.0
 30
0.0
 40
2.0
  0
LINE
  5
4DA
330
1E
100
AcDbEntity
  8
0
  6
CENTER
 62
     2
100
AcDbLine
 10
204.0
 20
-24.0
 30
0.0
 11
196.0
 21
-24.0
 31
0.0
  0
LINE
  5
4DB
330
1E
100
AcDbEntity
  8
0
 62
     7
100
AcDbLine
 10
232.1
 20
-62.5
 30
0.0
 11
232.1
 21
-54.5
 31
0.0
  0
LINE
  5
4DC
330
1E
100
AcDbEntity
  8
0
 62
     7
100
AcDbLine
 10
232.1
 20
-62.5
 30
0.0
 11
233.0
 21
-62.5
 31
0.0
  0
LINE
  5
4DD
330
1E
100
AcDbEntity
  8
0
 62
     7
100
AcDbLine
 10
232.1
 20
-54.5
 30
0.0
 11
233.0
 21
-54.5
 31
0.0
  0
LINE
  5
4DE
330
1E
100
AcDbEntity
  8
0
 62
     7
100
AcDbLine
 10
233.1999999999999
 20
-54.7
 30
0.0
 11
233.0
 21
-54.5
 31
0.0
  0
LINE
  5
4DF
330
1E
100
AcDbEntity
  8
0
 62
     7
100
AcDbLine
 10
233.1999999999999
 20
-62.3
 30
0.0
 11
233.0
 21
-62.5
 31
0.0
  0
LINE
  5
4E0
330
1E
100
AcDbEntity
  8
0
 62
     7
100
AcDbLine
 10
233.1999999999999
 20
-54.7
 30
0.0
 11
233.1999999999999
 21
-58.0
 31
0.0
  0
LINE
  5
4E1
330
1E
100
AcDbEntity
  8
0
 62
     7
100
AcDbLine
 10
233.0
 20
-54.5
 30
0.0
 11
233.0
 21
-58.0
 31
0.0
  0
LINE
  5
4E2
330
1E
100
AcDbEntity
  8
0
 62
     7
100
AcDbLine
 10
232.4
 20
-59.0
 30
0.0
 11
233.1999999999999
 21
-59.0
 31
0.0
  0
LINE
  5
4E3
330
1E
100
AcDbEntity
  8
0
 62
     7
100
AcDbLine
 10
232.4
 20
-58.0
 30
0.0
 11
232.4
 21
-59.0
 31
0.0
  0
LINE
  5
4E4
330
1E
100
AcDbEntity
  8
0
 62
     7
100
AcDbLine
 10
232.4
 20
-58.0
 30
0.0
 11
233.1999999999999
 21
-58.0
 31
0.0
  0
LINE
  5
4E5
330
1E
100
AcDbEntity
  8
0
 62
     7
100
AcDbLine
 10
233.0
 20
-59.0
 30
0.0
 11
233.0
 21
-62.5
 31
0.0
  0
LINE
  5
4E6
330
1E
100
AcDbEntity
  8
0
 62
     7
100
AcDbLine
 10
233.1999999999999
 20
-59.0
 30
0.0
 11
233.1999999999999
 21
-62.3
 31
0.0
  0
LINE
  5
4E7
330
1E
100
AcDbEntity
  8
0
 62
     7
100
AcDbLine
 10
231.4999999999999
 20
-54.6
 30
0.0
 11
232.1
 21
-54.6
 31
0.0
  0
LINE
  5
4E8
330
1E
100
AcDbEntity
  8
0
 62
     7
100
AcDbLine
 10
231.4999999999999
 20
-62.4
 30
0.0
 11
232.1
 21
-62.4
 31
0.0
  0
LINE
  5
4E9
330
1E
100
AcDbEntity
  8
0
  6
CENTER
 62
     2
100
AcDbLine
 10
231.4999999999999
 20
-58.5
 30
0.0
 11
235.1999999999999
 21
-58.5
 31
0.0
  0
LINE
  5
4EA
330
1E
100
AcDbEntity
  8
0
 62
     7
100
AcDbLine
 10
225.4999999999999
 20
-68.7
 30
0.0
 11
229.0
 21
-68.7
 31
0.0
  0
LINE
  5
4EB
330
1E
100
AcDbEntity
  8
0
 62
     7
100
AcDbLine
 10
225.4999999999999
 20
-68.9
 30
0.0
 11
228.8
 21
-68.9
 31
0.0
  0
LINE
  5
4EC
330
1E
100
AcDbEntity
  8
0
 62
     7
100
AcDbLine
 10
225.4999999999999
 20
-68.09999999999999
 30
0.0
 11
225.4999999999999
 21
-68.9
 31
0.0
  0
LINE
  5
4ED
330
1E
100
AcDbEntity
  8
0
 62
     7
100
AcDbLine
 10
225.4999999999999
 20
-68.09999999999999
 30
0.0
 11
224.5
 21
-68.09999999999999
 31
0.0
  0
LINE
  5
4EE
330
1E
100
AcDbEntity
  8
0
 62
     7
100
AcDbLine
 10
224.5
 20
-68.09999999999999
 30
0.0
 11
224.5
 21
-68.9
 31
0.0
  0
LINE
  5
4EF
330
1E
100
AcDbEntity
  8
0
 62
     7
100
AcDbLine
 10
179.0
 20
-67.8
 30
0.0
 11
179.0
 21
-68.7
 31
0.0
  0
LINE
  5
4F0
330
1E
100
AcDbEntity
  8
0
 62
     7
100
AcDbLine
 10
178.8
 20
-68.9
 30
0.0
 11
175.5
 21
-68.9
 31
0.0
  0
LINE
  5
4F1
330
1E
100
AcDbEntity
  8
0
 62
     7
100
AcDbLine
 10
178.8
 20
-68.9
 30
0.0
 11
179.0
 21
-68.7
 31
0.0
  0
LINE
  5
4F2
330
1E
100
AcDbEntity
  8
0
 62
     7
100
AcDbLine
 10
175.5
 20
-68.09999999999999
 30
0.0
 11
175.5
 21
-68.9
 31
0.0
  0
LINE
  5
4F3
330
1E
100
AcDbEntity
  8
0
 62
     7
100
AcDbLine
 10
179.0
 20
-68.7
 30
0.0
 11
175.5
 21
-68.7
 31
0.0
  0
LINE
  5
4F4
330
1E
100
AcDbEntity
  8
0
 62
     7
100
AcDbLine
 10
171.0
 20
-67.8
 30
0.0
 11
171.0
 21
-68.7
 31
0.0
  0
LINE
  5
4F5
330
1E
100
AcDbEntity
  8
0
 62
     7
100
AcDbLine
 10
171.1999999999999
 20
-68.9
 30
0.0
 11
171.0
 21
-68.7
 31
0.0
  0
LINE
  5
4F6
330
1E
100
AcDbEntity
  8
0
 62
     7
100
AcDbLine
 10
174.5
 20
-68.09999999999999
 30
0.0
 11
174.5
 21
-68.9
 31
0.0
  0
LINE
  5
4F7
330
1E
100
AcDbEntity
  8
0
 62
     7
100
AcDbLine
 10
174.5
 20
-68.9
 30
0.0
 11
171.1999999999999
 21
-68.9
 31
0.0
  0
LINE
  5
4F8
330
1E
100
AcDbEntity
  8
0
 62
     7
100
AcDbLine
 10
171.0
 20
-68.7
 30
0.0
 11
174.5
 21
-68.7
 31
0.0
  0
LINE
  5
4F9
330
1E
100
AcDbEntity
  8
0
 62
     7
100
AcDbLine
 10
175.5
 20
-68.09999999999999
 30
0.0
 11
174.5
 21
-68.09999999999999
 31
0.0
  0
LINE
  5
4FA
330
1E
100
AcDbEntity
  8
0
 62
     7
100
AcDbLine
 10
179.0
 20
-67.8
 30
0.0
 11
171.0
 21
-67.8
 31
0.0
  0
LINE
  5
4FB
330
1E
100
AcDbEntity
  8
0
 62
     7
100
AcDbLine
 10
178.9
 20
-67.5
 30
0.0
 11
178.9
 21
-67.8
 31
0.0
  0
LINE
  5
4FC
330
1E
100
AcDbEntity
  8
0
 62
     7
100
AcDbLine
 10
171.1
 20
-67.5
 30
0.0
 11
171.1
 21
-67.8
 31
0.0
  0
LINE
  5
4FD
330
1E
100
AcDbEntity
  8
0
 62
     7
100
AcDbLine
 10
221.0999999999999
 20
-67.5
 30
0.0
 11
221.0999999999999
 21
-67.8
 31
0.0
  0
LINE
  5
4FE
330
1E
100
AcDbEntity
  8
0
 62
     7
100
AcDbLine
 10
228.9
 20
-67.5
 30
0.0
 11
228.9
 21
-67.8
 31
0.0
  0
LINE
  5
4FF
330
1E
100
AcDbEntity
  8
0
 62
     7
100
AcDbLine
 10
225.4999999999999
 20
68.7
 30
0.0
 11
229.0
 21
68.7
 31
0.0
  0
LINE
  5
500
330
1E
100
AcDbEntity
  8
0
 62
     7
100
AcDbLine
 10
225.4999999999999
 20
68.9
 30
0.0
 11
228.8
 21
68.9
 31
0.0
  0
LINE
  5
501
330
1E
100
AcDbEntity
  8
0
 62
     7
100
AcDbLine
 10
225.4999999999999
 20
68.09999999999999
 30
0.0
 11
225.4999999999999
 21
68.9
 31
0.0
  0
LINE
  5
502
330
1E
100
AcDbEntity
  8
0
 62
     7
100
AcDbLine
 10
225.4999999999999
 20
68.09999999999999
 30
0.0
 11
224.5
 21
68.09999999999999
 31
0.0
  0
LINE
  5
503
330
1E
100
AcDbEntity
  8
0
 62
     7
100
AcDbLine
 10
224.5
 20
68.09999999999999
 30
0.0
 11
224.5
 21
68.9
 31
0.0
  0
LINE
  5
504
330
1E
100
AcDbEntity
  8
0
 62
     7
100
AcDbLine
 10
179.0
 20
67.8
 30
0.0
 11
171.0
 21
67.8
 31
0.0
  0
LINE
  5
505
330
1E
100
AcDbEntity
  8
0
 62
     7
100
AcDbLine
 10
171.1
 20
67.5
 30
0.0
 11
171.1
 21
67.8
 31
0.0
  0
LINE
  5
506
330
1E
100
AcDbEntity
  8
0
 62
     7
100
AcDbLine
 10
178.9
 20
67.5
 30
0.0
 11
178.9
 21
67.8
 31
0.0
  0
LINE
  5
507
330
1E
100
AcDbEntity
  8
0
 62
     7
100
AcDbLine
 10
175.5
 20
68.09999999999999
 30
0.0
 11
174.5
 21
68.09999999999999
 31
0.0
  0
LINE
  5
508
330
1E
100
AcDbEntity
  8
0
 62
     7
100
AcDbLine
 10
171.0
 20
68.7
 30
0.0
 11
174.5
 21
68.7
 31
0.0
  0
LINE
  5
509
330
1E
100
AcDbEntity
  8
0
 62
     7
100
AcDbLine
 10
174.5
 20
68.9
 30
0.0
 11
171.1999999999999
 21
68.9
 31
0.0
  0
LINE
  5
50A
330
1E
100
AcDbEntity
  8
0
 62
     7
100
AcDbLine
 10
174.5
 20
68.09999999999999
 30
0.0
 11
174.5
 21
68.9
 31
0.0
  0
LINE
  5
50B
330
1E
100
AcDbEntity
  8
0
 62
     7
100
AcDbLine
 10
171.1999999999999
 20
68.9
 30
0.0
 11
171.0
 21
68.7
 31
0.0
  0
LINE
  5
50C
330
1E
100
AcDbEntity
  8
0
 62
     7
100
AcDbLine
 10
179.0
 20
68.7
 30
0.0
 11
175.5
 21
68.7
 31
0.0
  0
LINE
  5
50D
330
1E
100
AcDbEntity
  8
0
 62
     7
100
AcDbLine
 10
175.5
 20
68.09999999999999
 30
0.0
 11
175.5
 21
68.9
 31
0.0
  0
LINE
  5
50E
330
1E
100
AcDbEntity
  8
0
 62
     7
100
AcDbLine
 10
178.8
 20
68.9
 30
0.0
 11
179.0
 21
68.7
 31
0.0
  0
LINE
  5
50F
330
1E
100
AcDbEntity
  8
0
 62
     7
100
AcDbLine
 10
178.8
 20
68.9
 30
0.0
 11
175.5
 21
68.9
 31
0.0
  0
LINE
  5
510
330
1E
100
AcDbEntity
  8
0
 62
     7
100
AcDbLine
 10
179.0
 20
67.8
 30
0.0
 11
179.0
 21
68.7
 31
0.0
  0
LINE
  5
511
330
1E
100
AcDbEntity
  8
0
 62
     7
100
AcDbLine
 10
171.0
 20
67.8
 30
0.0
 11
171.0
 21
68.7
 31
0.0
  0
LINE
  5
512
330
1E
100
AcDbEntity
  8
0
  6
CENTER
 62
     2
100
AcDbLine
 10
175.0
 20
70.9
 30
0.0
 11
175.0
 21
67.5
 31
0.0
  0
LINE
  5
513
330
1E
100
AcDbEntity
  8
0
 62
     7
100
AcDbLine
 10
221.0999999999999
 20
67.5
 30
0.0
 11
221.0999999999999
 21
67.8
 31
0.0
  0
LINE
  5
514
330
1E
100
AcDbEntity
  8
0
 62
     7
100
AcDbLine
 10
228.9
 20
67.5
 30
0.0
 11
228.9
 21
67.8
 31
0.0
  0
LINE
  5
515
330
1E
100
AcDbEntity
  8
0
 62
     7
100
AcDbLine
 10
233.1999999999999
 20
59.0
 30
0.0
 11
233.1999999999999
 21
62.3
 31
0.0
  0
LINE
  5
516
330
1E
100
AcDbEntity
  8
0
 62
     7
100
AcDbLine
 10
233.0
 20
59.0
 30
0.0
 11
233.0
 21
62.5
 31
0.0
  0
LINE
  5
517
330
1E
100
AcDbEntity
  8
0
 62
     7
100
AcDbLine
 10
232.4
 20
58.0
 30
0.0
 11
233.1999999999999
 21
58.0
 31
0.0
  0
LINE
  5
518
330
1E
100
AcDbEntity
  8
0
 62
     7
100
AcDbLine
 10
232.4
 20
58.0
 30
0.0
 11
232.4
 21
59.0
 31
0.0
  0
LINE
  5
519
330
1E
100
AcDbEntity
  8
0
 62
     7
100
AcDbLine
 10
232.4
 20
59.0
 30
0.0
 11
233.1999999999999
 21
59.0
 31
0.0
  0
CIRCLE
  5
51A
330
1E
100
AcDbEntity
  8
0
  6
CENTER
 62
     2
100
AcDbCircle
 10
200.0
 20
-8.0
 30
0.0
 40
1.3
  0
CIRCLE
  5
51B
330
1E
100
AcDbEntity
  8
0
 62
     7
100
AcDbCircle
 10
200.0
 20
8.0
 30
0.0
 40
1.3
  0
CIRCLE
  5
51C
330
1E
100
AcDbEntity
  8
0
 62
     2
100
AcDbCircle
 10
200.0
 20
-36.0
 30
0.0
 40
4.0
  0
CIRCLE
  5
51D
330
1E
100
AcDbEntity
  8
0
 62
     2
100
AcDbCircle
 10
200.0
 20
36.0
 30
0.0
 40
4.0
  0
CIRCLE
  5
51E
330
1E
100
AcDbEntity
  8
0
 62
     7
100
AcDbCircle
 10
200.0
 20
-36.0
 30
0.0
 40
3.299999999999999
  0
LINE
  5
51F
330
1E
100
AcDbEntity
  8
0
  6
CENTER
 62
     2
100
AcDbLine
 10
205.2999999999999
 20
-36.0
 30
0.0
 11
194.6999999999999
 21
-36.0
 31
0.0
  0
CIRCLE
  5
520
330
1E
100
AcDbEntity
  8
0
 62
     7
100
AcDbCircle
 10
200.0
 20
36.0
 30
0.0
 40
3.299999999999999
  0
LINE
  5
521
330
1E
100
AcDbEntity
  8
0
  6
CENTER
 62
     2
100
AcDbLine
 10
205.2999999999999
 20
36.0
 30
0.0
 11
194.6999999999999
 21
36.0
 31
0.0
  0
CIRCLE
  5
522
330
1E
100
AcDbEntity
  8
0
 62
     7
100
AcDbCircle
 10
200.0
 20
0.0
 30
0.0
 40
14.5
  0
CIRCLE
  5
523
330
1E
100
AcDbEntity
  8
0
 62
     7
100
AcDbCircle
 10
200.0
 20
0.0
 30
0.0
 40
15.0
  0
LINE
  5
524
330
1E
100
AcDbEntity
  8
0
 62
     7
100
AcDbLine
 10
221.0
 20
-68.7
 30
0.0
 11
224.5
 21
-68.7
 31
0.0
  0
LINE
  5
525
330
1E
100
AcDbEntity
  8
0
 62
     7
100
AcDbLine
 10
221.1999999999999
 20
-68.9
 30
0.0
 11
224.5
 21
-68.9
 31
0.0
  0
LINE
  5
526
330
1E
100
AcDbEntity
  8
0
 62
     7
100
AcDbLine
 10
221.1999999999999
 20
-68.9
 30
0.0
 11
221.0
 21
-68.7
 31
0.0
  0
LINE
  5
527
330
1E
100
AcDbEntity
  8
0
 62
     7
100
AcDbLine
 10
228.8
 20
-68.9
 30
0.0
 11
229.0
 21
-68.7
 31
0.0
  0
LINE
  5
528
330
1E
100
AcDbEntity
  8
0
 62
     7
100
AcDbLine
 10
229.0
 20
-67.8
 30
0.0
 11
229.0
 21
-68.7
 31
0.0
  0
LINE
  5
529
330
1E
100
AcDbEntity
  8
0
 62
     7
100
AcDbLine
 10
221.0
 20
-67.8
 30
0.0
 11
221.0
 21
-68.7
 31
0.0
  0
LINE
  5
52A
330
1E
100
AcDbEntity
  8
0
 62
     7
100
AcDbLine
 10
221.0
 20
-67.8
 30
0.0
 11
229.0
 21
-67.8
 31
0.0
  0
LINE
  5
52B
330
1E
100
AcDbEntity
  8
0
 62
     7
100
AcDbLine
 10
233.0
 20
54.5
 30
0.0
 11
233.0
 21
58.0
 31
0.0
  0
LINE
  5
52C
330
1E
100
AcDbEntity
  8
0
 62
     7
100
AcDbLine
 10
233.1999999999999
 20
54.7
 30
0.0
 11
233.1999999999999
 21
58.0
 31
0.0
  0
LINE
  5
52D
330
1E
100
AcDbEntity
  8
0
 62
     7
100
AcDbLine
 10
233.1999999999999
 20
62.3
 30
0.0
 11
233.0
 21
62.5
 31
0.0
  0
LINE
  5
52E
330
1E
100
AcDbEntity
  8
0
 62
     7
100
AcDbLine
 10
233.1999999999999
 20
54.7
 30
0.0
 11
233.0
 21
54.5
 31
0.0
  0
LINE
  5
52F
330
1E
100
AcDbEntity
  8
0
 62
     7
100
AcDbLine
 10
232.1
 20
54.5
 30
0.0
 11
233.0
 21
54.5
 31
0.0
  0
LINE
  5
530
330
1E
100
AcDbEntity
  8
0
 62
     7
100
AcDbLine
 10
232.1
 20
62.5
 30
0.0
 11
233.0
 21
62.5
 31
0.0
  0
LINE
  5
531
330
1E
100
AcDbEntity
  8
0
 62
     7
100
AcDbLine
 10
231.4999999999999
 20
54.6
 30
0.0
 11
232.1
 21
54.6
 31
0.0
  0
LINE
  5
532
330
1E
100
AcDbEntity
  8
0
 62
     7
100
AcDbLine
 10
231.4999999999999
 20
62.4
 30
0.0
 11
232.1
 21
62.4
 31
0.0
  0
LINE
  5
533
330
1E
100
AcDbEntity
  8
0
 62
     7
100
AcDbLine
 10
232.1
 20
62.5
 30
0.0
 11
232.1
 21
54.5
 31
0.0
  0
LINE
  5
534
330
1E
100
AcDbEntity
  8
0
  6
CENTER
 62
     2
100
AcDbLine
 10
231.4999999999999
 20
58.5
 30
0.0
 11
235.1999999999999
 21
58.5
 31
0.0
  0
LINE
  5
535
330
1E
100
AcDbEntity
  8
0
 62
     7
100
AcDbLine
 10
221.0
 20
67.8
 30
0.0
 11
229.0
 21
67.8
 31
0.0
  0
LINE
  5
536
330
1E
100
AcDbEntity
  8
0
 62
     7
100
AcDbLine
 10
221.0
 20
67.8
 30
0.0
 11
221.0
 21
68.7
 31
0.0
  0
LINE
  5
537
330
1E
100
AcDbEntity
  8
0
 62
     7
100
AcDbLine
 10
229.0
 20
67.8
 30
0.0
 11
229.0
 21
68.7
 31
0.0
  0
LINE
  5
538
330
1E
100
AcDbEntity
  8
0
 62
     7
100
AcDbLine
 10
221.1999999999999
 20
68.9
 30
0.0
 11
224.5
 21
68.9
 31
0.0
  0
LINE
  5
539
330
1E
100
AcDbEntity
  8
0
 62
     7
100
AcDbLine
 10
228.8
 20
68.9
 30
0.0
 11
229.0
 21
68.7
 31
0.0
  0
LINE
  5
53A
330
1E
100
AcDbEntity
  8
0
 62
     7
100
AcDbLine
 10
221.1999999999999
 20
68.9
 30
0.0
 11
221.0
 21
68.7
 31
0.0
  0
LINE
  5
53B
330
1E
100
AcDbEntity
  8
0
 62
     7
100
AcDbLine
 10
221.0
 20
68.7
 30
0.0
 11
224.5
 21
68.7
 31
0.0
  0
CIRCLE
  5
53C
330
1E
100
AcDbEntity
  8
0
 62
     7
100
AcDbCircle
 10
178.0
 20
-57.5
 30
0.0
 40
3.0
  0
CIRCLE
  5
53D
330
1E
100
AcDbEntity
  8
0
 62
     7
100
AcDbCircle
 10
178.0
 20
-57.5
 30
0.0
 40
1.25
  0
LINE
  5
53E
330
1E
100
AcDbEntity
  8
0
  6
CENTER
 62
     2
100
AcDbLine
 10
178.0
 20
-62.5
 30
0.0
 11
178.0
 21
-52.5
 31
0.0
  0
LINE
  5
53F
330
1E
100
AcDbEntity
  8
0
  6
CENTER
 62
     2
100
AcDbLine
 10
183.0
 20
-57.5
 30
0.0
 11
173.0
 21
-57.5
 31
0.0
  0
CIRCLE
  5
540
330
1E
100
AcDbEntity
  8
0
 62
     7
100
AcDbCircle
 10
222.0
 20
57.5
 30
0.0
 40
1.25
  0
CIRCLE
  5
541
330
1E
100
AcDbEntity
  8
0
 62
     7
100
AcDbCircle
 10
222.0
 20
57.5
 30
0.0
 40
3.0
  0
LINE
  5
542
330
1E
100
AcDbEntity
  8
0
  6
CENTER
 62
     2
100
AcDbLine
 10
225.0
 20
70.9
 30
0.0
 11
225.0
 21
67.5
 31
0.0
  0
LINE
  5
543
330
1E
100
AcDbEntity
  8
0
  6
CENTER
 62
     2
100
AcDbLine
 10
216.5
 20
57.5
 30
0.0
 11
226.5
 21
57.5
 31
0.0
  0
LINE
  5
544
330
1E
100
AcDbEntity
  8
0
  6
CENTER
 62
     2
100
AcDbLine
 10
222.0
 20
62.5
 30
0.0
 11
222.0
 21
52.5
 31
0.0
  0
LINE
  5
545
330
1E
100
AcDbEntity
  8
0
 62
     7
100
AcDbLine
 10
218.0
 20
-67.5
 30
0.0
 11
218.0
 21
67.5
 31
0.0
  0
LINE
  5
546
330
1E
100
AcDbEntity
  8
0
 62
     7
100
AcDbLine
 10
182.0
 20
-67.5
 30
0.0
 11
182.0
 21
67.5
 31
0.0
  0
LINE
  5
547
330
1E
100
AcDbEntity
  8
0
 62
     7
100
AcDbLine
 10
217.5
 20
-67.5
 30
0.0
 11
217.5
 21
67.5
 31
0.0
  0
LINE
  5
548
330
1E
100
AcDbEntity
  8
0
 62
     7
100
AcDbLine
 10
182.5
 20
-67.5
 30
0.0
 11
182.5
 21
67.5
 31
0.0
  0
LINE
  5
549
330
1E
100
AcDbEntity
  8
0
 62
     7
100
AcDbLine
 10
230.0
 20
67.5
 30
0.0
 11
230.0
 21
-67.5
 31
0.0
  0
LINE
  5
54A
330
1E
100
AcDbEntity
  8
0
 62
     7
100
AcDbLine
 10
170.0
 20
-67.5
 30
0.0
 11
170.0
 21
67.5
 31
0.0
  0
LINE
  5
54B
330
1E
100
AcDbEntity
  8
0
 62
     7
100
AcDbLine
 10
168.5
 20
67.5
 30
0.0
 11
168.5
 21
-67.5
 31
0.0
  0
LINE
  5
54C
330
1E
100
AcDbEntity
  8
0
 62
     7
100
AcDbLine
 10
231.4999999999999
 20
-67.5
 30
0.0
 11
168.5
 21
-67.5
 31
0.0
  0
LINE
  5
54D
330
1E
100
AcDbEntity
  8
0
 62
     7
100
AcDbLine
 10
231.4999999999999
 20
67.5
 30
0.0
 11
231.4999999999999
 21
-67.5
 31
0.0
  0
LINE
  5
54E
330
1E
100
AcDbEntity
  8
0
 62
     7
100
AcDbLine
 10
231.4999999999999
 20
67.5
 30
0.0
 11
168.5
 21
67.5
 31
0.0
  0
LINE
  5
54F
330
1E
100
AcDbEntity
  8
0
 62
     7
100
AcDbLine
 10
167.964102
 20
28.9282032
 30
0.0
 11
166.0358979999999
 21
28.9282032
 31
0.0
  0
LINE
  5
550
330
1E
100
AcDbEntity
  8
0
 62
     7
100
AcDbLine
 10
167.964102
 20
15.0717968
 30
0.0
 11
166.0358979999999
 21
15.0717968
 31
0.0
  0
LINE
  5
551
330
1E
100
AcDbEntity
  8
0
 62
     7
100
AcDbLine
 10
166.0358979999999
 20
18.5358984
 30
0.0
 11
167.964102
 21
18.5358984
 31
0.0
  0
LINE
  5
552
330
1E
100
AcDbEntity
  8
0
 62
     7
100
AcDbLine
 10
166.0358979999999
 20
25.4641016
 30
0.0
 11
167.964102
 21
25.4641016
 31
0.0
  0
LINE
  5
553
330
1E
100
AcDbEntity
  8
0
 62
     7
100
AcDbLine
 10
165.5
 20
28.0
 30
0.0
 11
165.5
 21
16.0
 31
0.0
  0
LINE
  5
554
330
1E
100
AcDbEntity
  8
0
 62
     7
100
AcDbLine
 10
165.5
 20
28.0
 30
0.0
 11
166.0358979999999
 21
28.9282032
 31
0.0
  0
LINE
  5
555
330
1E
100
AcDbEntity
  8
0
 62
     7
100
AcDbLine
 10
165.5
 20
16.0
 30
0.0
 11
166.0358979999999
 21
15.0717968
 31
0.0
  0
LINE
  5
556
330
1E
100
AcDbEntity
  8
0
 62
     7
100
AcDbLine
 10
168.5
 20
28.0
 30
0.0
 11
167.964102
 21
28.9282032
 31
0.0
  0
LINE
  5
557
330
1E
100
AcDbEntity
  8
0
 62
     7
100
AcDbLine
 10
168.5
 20
16.0
 30
0.0
 11
167.964102
 21
15.0717968
 31
0.0
  0
LINE
  5
558
330
1E
100
AcDbEntity
  8
0
 62
     7
100
AcDbLine
 10
168.5
 20
-28.0
 30
0.0
 11
167.964102
 21
-28.9282032
 31
0.0
  0
LINE
  5
559
330
1E
100
AcDbEntity
  8
0
 62
     7
100
AcDbLine
 10
168.5
 20
-16.0
 30
0.0
 11
167.964102
 21
-15.0717968
 31
0.0
  0
LINE
  5
55A
330
1E
100
AcDbEntity
  8
0
 62
     7
100
AcDbLine
 10
165.5
 20
-16.0
 30
0.0
 11
166.0358979999999
 21
-15.0717968
 31
0.0
  0
LINE
  5
55B
330
1E
100
AcDbEntity
  8
0
 62
     7
100
AcDbLine
 10
165.5
 20
-28.0
 30
0.0
 11
166.0358979999999
 21
-28.9282032
 31
0.0
  0
LINE
  5
55C
330
1E
100
AcDbEntity
  8
0
 62
     7
100
AcDbLine
 10
165.5
 20
-28.0
 30
0.0
 11
165.5
 21
-16.0
 31
0.0
  0
LINE
  5
55D
330
1E
100
AcDbEntity
  8
0
 62
     7
100
AcDbLine
 10
166.0358979999999
 20
-25.4641016
 30
0.0
 11
167.964102
 21
-25.4641016
 31
0.0
  0
LINE
  5
55E
330
1E
100
AcDbEntity
  8
0
 62
     7
100
AcDbLine
 10
166.0358979999999
 20
-18.5358984
 30
0.0
 11
167.964102
 21
-18.5358984
 31
0.0
  0
LINE
  5
55F
330
1E
100
AcDbEntity
  8
0
 62
     7
100
AcDbLine
 10
167.964102
 20
-15.0717968
 30
0.0
 11
166.0358979999999
 21
-15.0717968
 31
0.0
  0
LINE
  5
560
330
1E
100
AcDbEntity
  8
0
 62
     7
100
AcDbLine
 10
167.964102
 20
-28.9282032
 30
0.0
 11
166.0358979999999
 21
-28.9282032
 31
0.0
  0
LINE
  5
561
330
1E
100
AcDbEntity
  8
0
  6
CENTER
 62
     2
100
AcDbLine
 10
235.4999999999999
 20
0.0
 30
0.0
 11
164.5
 21
0.0
 31
0.0
  0
LINE
  5
562
330
1E
100
AcDbEntity
  8
0
 62
     2
100
AcDbLine
 10
165.5
 20
26.5
 30
0.0
 11
148.75
 21
26.5
 31
0.0
  0
LINE
  5
563
330
1E
100
AcDbEntity
  8
0
 62
     7
100
AcDbLine
 10
165.5
 20
27.0
 30
0.0
 11
149.2499999999999
 21
27.0
 31
0.0
  0
LINE
  5
564
330
1E
100
AcDbEntity
  8
0
  6
CENTER
 62
     2
100
AcDbLine
 10
168.5
 20
22.0
 30
0.0
 11
141.5
 21
22.0
 31
0.0
  0
LINE
  5
565
330
1E
100
AcDbEntity
  8
0
 62
     2
100
AcDbLine
 10
165.5
 20
17.5
 30
0.0
 11
148.75
 21
17.5
 31
0.0
  0
LINE
  5
566
330
1E
100
AcDbEntity
  8
0
 62
     7
100
AcDbLine
 10
165.5
 20
17.0
 30
0.0
 11
149.2499999999999
 21
17.0
 31
0.0
  0
LINE
  5
567
330
1E
100
AcDbEntity
  8
0
 62
     7
100
AcDbLine
 10
149.2499999999999
 20
19.82055049999999
 30
0.0
 11
149.2499999999999
 21
17.0
 31
0.0
  0
LINE
  5
568
330
1E
100
AcDbEntity
  8
0
 62
     2
100
AcDbLine
 10
152.5
 20
24.1794495
 30
0.0
 11
149.2499999999999
 21
19.82055049999999
 31
0.0
  0
LINE
  5
569
330
1E
100
AcDbEntity
  8
0
 62
     2
100
AcDbLine
 10
149.2499999999999
 20
24.1794495
 30
0.0
 11
152.5
 21
19.82055049999999
 31
0.0
  0
LINE
  5
56A
330
1E
100
AcDbEntity
  8
0
 62
     7
100
AcDbLine
 10
152.5
 20
19.82055049999999
 30
0.0
 11
149.2499999999999
 21
19.82055049999999
 31
0.0
  0
LINE
  5
56B
330
1E
100
AcDbEntity
  8
0
 62
     7
100
AcDbLine
 10
152.5
 20
24.1794495
 30
0.0
 11
149.2499999999999
 21
24.1794495
 31
0.0
  0
LINE
  5
56C
330
1E
100
AcDbEntity
  8
0
 62
     7
100
AcDbLine
 10
152.5
 20
19.82055049999999
 30
0.0
 11
152.5
 21
24.1794495
 31
0.0
  0
LINE
  5
56D
330
1E
100
AcDbEntity
  8
0
 62
     7
100
AcDbLine
 10
144.0
 20
26.25
 30
0.0
 11
144.0
 21
17.75
 31
0.0
  0
LINE
  5
56E
330
1E
100
AcDbEntity
  8
0
 62
     7
100
AcDbLine
 10
144.0
 20
17.75
 30
0.0
 11
143.5
 21
18.25
 31
0.0
  0
LINE
  5
56F
330
1E
100
AcDbEntity
  8
0
 62
     7
100
AcDbLine
 10
144.0
 20
26.25
 30
0.0
 11
143.5
 21
25.75
 31
0.0
  0
LINE
  5
570
330
1E
100
AcDbEntity
  8
0
 62
     7
100
AcDbLine
 10
148.5
 20
17.75
 30
0.0
 11
144.0
 21
17.75
 31
0.0
  0
LINE
  5
571
330
1E
100
AcDbEntity
  8
0
 62
     7
100
AcDbLine
 10
148.5
 20
26.25
 30
0.0
 11
144.0
 21
26.25
 31
0.0
  0
LINE
  5
572
330
1E
100
AcDbEntity
  8
0
 62
     7
100
AcDbLine
 10
148.5
 20
17.75
 30
0.0
 11
148.5
 21
26.25
 31
0.0
  0
LINE
  5
573
330
1E
100
AcDbEntity
  8
0
 62
     7
100
AcDbLine
 10
143.5
 20
18.25
 30
0.0
 11
143.5
 21
25.75
 31
0.0
  0
LINE
  5
574
330
1E
100
AcDbEntity
  8
0
 62
     7
100
AcDbLine
 10
148.5
 20
26.25
 30
0.0
 11
149.2499999999999
 21
27.0
 31
0.0
  0
LINE
  5
575
330
1E
100
AcDbEntity
  8
0
 62
     7
100
AcDbLine
 10
148.5
 20
17.75
 30
0.0
 11
149.2499999999999
 21
17.0
 31
0.0
  0
LINE
  5
576
330
1E
100
AcDbEntity
  8
0
 62
     7
100
AcDbLine
 10
149.2499999999999
 20
27.0
 30
0.0
 11
149.2499999999999
 21
24.1794495
 31
0.0
  0
LINE
  5
577
330
1E
100
AcDbEntity
  8
0
  6
CENTER
 62
     2
100
AcDbLine
 10
200.0
 20
-71.5
 30
0.0
 11
200.0
 21
71.5
 31
0.0
  0
LINE
  5
578
330
1E
100
AcDbEntity
  8
0
  6
CENTER
 62
     2
100
AcDbLine
 10
175.0
 20
-67.5
 30
0.0
 11
175.0
 21
-70.9
 31
0.0
  0
LINE
  5
579
330
1E
100
AcDbEntity
  8
0
  6
CENTER
 62
     2
100
AcDbLine
 10
225.0
 20
-67.5
 30
0.0
 11
225.0
 21
-70.9
 31
0.0
  0
LINE
  5
57A
330
1E
100
AcDbEntity
  8
0
 62
     2
100
AcDbLine
 10
165.5
 20
-26.5
 30
0.0
 11
148.75
 21
-26.5
 31
0.0
  0
LINE
  5
57B
330
1E
100
AcDbEntity
  8
0
 62
     7
100
AcDbLine
 10
165.5
 20
-27.0
 30
0.0
 11
149.2499999999999
 21
-27.0
 31
0.0
  0
LINE
  5
57C
330
1E
100
AcDbEntity
  8
0
  6
CENTER
 62
     2
100
AcDbLine
 10
168.5
 20
-22.0
 30
0.0
 11
141.5
 21
-22.0
 31
0.0
  0
LINE
  5
57D
330
1E
100
AcDbEntity
  8
0
 62
     2
100
AcDbLine
 10
165.5
 20
-17.5
 30
0.0
 11
148.75
 21
-17.5
 31
0.0
  0
LINE
  5
57E
330
1E
100
AcDbEntity
  8
0
 62
     7
100
AcDbLine
 10
165.5
 20
-17.0
 30
0.0
 11
149.2499999999999
 21
-17.0
 31
0.0
  0
LINE
  5
57F
330
1E
100
AcDbEntity
  8
0
 62
     7
100
AcDbLine
 10
149.2499999999999
 20
-27.0
 30
0.0
 11
149.2499999999999
 21
-24.1794495
 31
0.0
  0
LINE
  5
580
330
1E
100
AcDbEntity
  8
0
 62
     7
100
AcDbLine
 10
148.5
 20
-17.75
 30
0.0
 11
149.2499999999999
 21
-17.0
 31
0.0
  0
LINE
  5
581
330
1E
100
AcDbEntity
  8
0
 62
     7
100
AcDbLine
 10
148.5
 20
-26.25
 30
0.0
 11
149.2499999999999
 21
-27.0
 31
0.0
  0
LINE
  5
582
330
1E
100
AcDbEntity
  8
0
 62
     7
100
AcDbLine
 10
143.5
 20
-18.25
 30
0.0
 11
143.5
 21
-25.75
 31
0.0
  0
LINE
  5
583
330
1E
100
AcDbEntity
  8
0
 62
     7
100
AcDbLine
 10
148.5
 20
-17.75
 30
0.0
 11
148.5
 21
-26.25
 31
0.0
  0
LINE
  5
584
330
1E
100
AcDbEntity
  8
0
 62
     7
100
AcDbLine
 10
148.5
 20
-26.25
 30
0.0
 11
144.0
 21
-26.25
 31
0.0
  0
LINE
  5
585
330
1E
100
AcDbEntity
  8
0
 62
     7
100
AcDbLine
 10
148.5
 20
-17.75
 30
0.0
 11
144.0
 21
-17.75
 31
0.0
  0
LINE
  5
586
330
1E
100
AcDbEntity
  8
0
 62
     7
100
AcDbLine
 10
144.0
 20
-26.25
 30
0.0
 11
143.5
 21
-25.75
 31
0.0
  0
LINE
  5
587
330
1E
100
AcDbEntity
  8
0
 62
     7
100
AcDbLine
 10
144.0
 20
-17.75
 30
0.0
 11
143.5
 21
-18.25
 31
0.0
  0
LINE
  5
588
330
1E
100
AcDbEntity
  8
0
 62
     7
100
AcDbLine
 10
144.0
 20
-26.25
 30
0.0
 11
144.0
 21
-17.75
 31
0.0
  0
LINE
  5
589
330
1E
100
AcDbEntity
  8
0
 62
     7
100
AcDbLine
 10
152.5
 20
-19.82055049999999
 30
0.0
 11
152.5
 21
-24.1794495
 31
0.0
  0
LINE
  5
58A
330
1E
100
AcDbEntity
  8
0
 62
     7
100
AcDbLine
 10
152.5
 20
-24.1794495
 30
0.0
 11
149.2499999999999
 21
-24.1794495
 31
0.0
  0
LINE
  5
58B
330
1E
100
AcDbEntity
  8
0
 62
     7
100
AcDbLine
 10
152.5
 20
-19.82055049999999
 30
0.0
 11
149.2499999999999
 21
-19.82055049999999
 31
0.0
  0
LINE
  5
58C
330
1E
100
AcDbEntity
  8
0
 62
     2
100
AcDbLine
 10
149.2499999999999
 20
-24.1794495
 30
0.0
 11
152.5
 21
-19.82055049999999
 31
0.0
  0
LINE
  5
58D
330
1E
100
AcDbEntity
  8
0
 62
     2
100
AcDbLine
 10
152.5
 20
-24.1794495
 30
0.0
 11
149.2499999999999
 21
-19.82055049999999
 31
0.0
  0
LINE
  5
58E
330
1E
100
AcDbEntity
  8
0
 62
     7
100
AcDbLine
 10
149.2499999999999
 20
-19.82055049999999
 30
0.0
 11
149.2499999999999
 21
-17.0
 31
0.0
  0
POLYLINE
  5
58F
330
1E
100
AcDbEntity
  8
0
 62
     7
100
AcDb2dPolyline
 66
     1
 10
0.0
 20
0.0
 30
0.0
  0
VERTEX
  5
CCA
330
58F
100
AcDbEntity
  8
0
 62
     7
100
AcDbVertex
100
AcDb2dVertex
 10
166.0358979999999
 20
28.9282032
 30
0.0
  0
VERTEX
  5
CCB
330
58F
100
AcDbEntity
  8
0
 62
     7
100
AcDbVertex
100
AcDb2dVertex
 10
165.943616
 20
28.7712688
 30
0.0
  0
VERTEX
  5
CCC
330
58F
100
AcDbEntity
  8
0
 62
     7
100
AcDbVertex
100
AcDb2dVertex
 10
165.8580479999999
 20
28.6091962
 30
0.0
  0
VERTEX
  5
CCD
330
58F
100
AcDbEntity
  8
0
 62
     7
100
AcDbVertex
100
AcDb2dVertex
 10
165.7799009999999
 20
28.4425565
 30
0.0
  0
VERTEX
  5
CCE
330
58F
100
AcDbEntity
  8
0
 62
     7
100
AcDbVertex
100
AcDb2dVertex
 10
165.7098809999999
 20
28.27192039999999
 30
0.0
  0
VERTEX
  5
CCF
330
58F
100
AcDbEntity
  8
0
 62
     7
100
AcDbVertex
100
AcDb2dVertex
 10
165.648694
 20
28.097859
 30
0.0
  0
VERTEX
  5
CD0
330
58F
100
AcDbEntity
  8
0
 62
     7
100
AcDbVertex
100
AcDb2dVertex
 10
165.597048
 20
27.9209431
 30
0.0
  0
VERTEX
  5
CD1
330
58F
100
AcDbEntity
  8
0
 62
     7
100
AcDbVertex
100
AcDb2dVertex
 10
165.55565
 20
27.74174359999999
 30
0.0
  0
VERTEX
  5
CD2
330
58F
100
AcDbEntity
  8
0
 62
     7
100
AcDbVertex
100
AcDb2dVertex
 10
165.525204
 20
27.5608313
 30
0.0
  0
VERTEX
  5
CD3
330
58F
100
AcDbEntity
  8
0
 62
     7
100
AcDbVertex
100
AcDb2dVertex
 10
165.506419
 20
27.3787773
 30
0.0
  0
VERTEX
  5
CD4
330
58F
100
AcDbEntity
  8
0
 62
     7
100
AcDbVertex
100
AcDb2dVertex
 10
165.5
 20
27.19615239999999
 30
0.0
  0
VERTEX
  5
CD5
330
58F
100
AcDbEntity
  8
0
 62
     7
100
AcDbVertex
100
AcDb2dVertex
 10
165.506419
 20
27.0135275
 30
0.0
  0
VERTEX
  5
CD6
330
58F
100
AcDbEntity
  8
0
 62
     7
100
AcDbVertex
100
AcDb2dVertex
 10
165.525204
 20
26.8314735
 30
0.0
  0
VERTEX
  5
CD7
330
58F
100
AcDbEntity
  8
0
 62
     7
100
AcDbVertex
100
AcDb2dVertex
 10
165.55565
 20
26.65056129999999
 30
0.0
  0
VERTEX
  5
CD8
330
58F
100
AcDbEntity
  8
0
 62
     7
100
AcDbVertex
100
AcDb2dVertex
 10
165.597048
 20
26.4713618
 30
0.0
  0
VERTEX
  5
CD9
330
58F
100
AcDbEntity
  8
0
 62
     7
100
AcDbVertex
100
AcDb2dVertex
 10
165.648694
 20
26.29444579999999
 30
0.0
  0
VERTEX
  5
CDA
330
58F
100
AcDbEntity
  8
0
 62
     7
100
AcDbVertex
100
AcDb2dVertex
 10
165.7098809999999
 20
26.1203844
 30
0.0
  0
VERTEX
  5
CDB
330
58F
100
AcDbEntity
  8
0
 62
     7
100
AcDbVertex
100
AcDb2dVertex
 10
165.7799009999999
 20
25.9497484
 30
0.0
  0
VERTEX
  5
CDC
330
58F
100
AcDbEntity
  8
0
 62
     7
100
AcDbVertex
100
AcDb2dVertex
 10
165.8580479999999
 20
25.7831086
 30
0.0
  0
VERTEX
  5
CDD
330
58F
100
AcDbEntity
  8
0
 62
     7
100
AcDbVertex
100
AcDb2dVertex
 10
165.943616
 20
25.6210361
 30
0.0
  0
VERTEX
  5
CDE
330
58F
100
AcDbEntity
  8
0
 62
     7
100
AcDbVertex
100
AcDb2dVertex
 10
166.0358979999999
 20
25.4641016
 30
0.0
  0
SEQEND
  5
CDF
330
58F
100
AcDbEntity
  8
0
 62
     7
  0
POLYLINE
  5
5A6
330
1E
100
AcDbEntity
  8
0
 62
     7
100
AcDb2dPolyline
 66
     1
 10
0.0
 20
0.0
 30
0.0
  0
VERTEX
  5
CE0
330
5A6
100
AcDbEntity
  8
0
 62
     7
100
AcDbVertex
100
AcDb2dVertex
 10
166.0358979999999
 20
25.4641016
 30
0.0
  0
VERTEX
  5
CE1
330
5A6
100
AcDbEntity
  8
0
 62
     7
100
AcDbVertex
100
AcDb2dVertex
 10
165.93697
 20
25.12755929999999
 30
0.0
  0
VERTEX
  5
CE2
330
5A6
100
AcDbEntity
  8
0
 62
     7
100
AcDbVertex
100
AcDb2dVertex
 10
165.847546
 20
24.7879009
 30
0.0
  0
VERTEX
  5
CE3
330
5A6
100
AcDbEntity
  8
0
 62
     7
100
AcDbVertex
100
AcDb2dVertex
 10
165.7678389999999
 20
24.4454725
 30
0.0
  0
VERTEX
  5
CE4
330
5A6
100
AcDbEntity
  8
0
 62
     7
100
AcDbVertex
100
AcDb2dVertex
 10
165.6980659999999
 20
24.1006204
 30
0.0
  0
VERTEX
  5
CE5
330
5A6
100
AcDbEntity
  8
0
 62
     7
100
AcDbVertex
100
AcDb2dVertex
 10
165.6384379999999
 20
23.75369089999999
 30
0.0
  0
VERTEX
  5
CE6
330
5A6
100
AcDbEntity
  8
0
 62
     7
100
AcDbVertex
100
AcDb2dVertex
 10
165.5891719999999
 20
23.40503019999999
 30
0.0
  0
VERTEX
  5
CE7
330
5A6
100
AcDbEntity
  8
0
 62
     7
100
AcDbVertex
100
AcDb2dVertex
 10
165.550481
 20
23.05498449999999
 30
0.0
  0
VERTEX
  5
CE8
330
5A6
100
AcDbEntity
  8
0
 62
     7
100
AcDbVertex
100
AcDb2dVertex
 10
165.522579
 20
22.7039001
 30
0.0
  0
VERTEX
  5
CE9
330
5A6
100
AcDbEntity
  8
0
 62
     7
100
AcDbVertex
100
AcDb2dVertex
 10
165.50568
 20
22.3521231
 30
0.0
  0
VERTEX
  5
CEA
330
5A6
100
AcDbEntity
  8
0
 62
     7
100
AcDbVertex
100
AcDb2dVertex
 10
165.5
 20
22.0
 30
0.0
  0
VERTEX
  5
CEB
330
5A6
100
AcDbEntity
  8
0
 62
     7
100
AcDbVertex
100
AcDb2dVertex
 10
165.50568
 20
21.64787689999999
 30
0.0
  0
VERTEX
  5
CEC
330
5A6
100
AcDbEntity
  8
0
 62
     7
100
AcDbVertex
100
AcDb2dVertex
 10
165.522579
 20
21.2960999
 30
0.0
  0
VERTEX
  5
CED
330
5A6
100
AcDbEntity
  8
0
 62
     7
100
AcDbVertex
100
AcDb2dVertex
 10
165.550481
 20
20.94501549999999
 30
0.0
  0
VERTEX
  5
CEE
330
5A6
100
AcDbEntity
  8
0
 62
     7
100
AcDbVertex
100
AcDb2dVertex
 10
165.5891719999999
 20
20.5949698
 30
0.0
  0
VERTEX
  5
CEF
330
5A6
100
AcDbEntity
  8
0
 62
     7
100
AcDbVertex
100
AcDb2dVertex
 10
165.6384379999999
 20
20.2463091
 30
0.0
  0
VERTEX
  5
CF0
330
5A6
100
AcDbEntity
  8
0
 62
     7
100
AcDbVertex
100
AcDb2dVertex
 10
165.6980659999999
 20
19.89937959999999
 30
0.0
  0
VERTEX
  5
CF1
330
5A6
100
AcDbEntity
  8
0
 62
     7
100
AcDbVertex
100
AcDb2dVertex
 10
165.7678389999999
 20
19.5545275
 30
0.0
  0
VERTEX
  5
CF2
330
5A6
100
AcDbEntity
  8
0
 62
     7
100
AcDbVertex
100
AcDb2dVertex
 10
165.847546
 20
19.21209909999999
 30
0.0
  0
VERTEX
  5
CF3
330
5A6
100
AcDbEntity
  8
0
 62
     7
100
AcDbVertex
100
AcDb2dVertex
 10
165.93697
 20
18.8724407
 30
0.0
  0
VERTEX
  5
CF4
330
5A6
100
AcDbEntity
  8
0
 62
     7
100
AcDbVertex
100
AcDb2dVertex
 10
166.0358979999999
 20
18.5358984
 30
0.0
  0
SEQEND
  5
CF5
330
5A6
100
AcDbEntity
  8
0
 62
     7
  0
POLYLINE
  5
5BD
330
1E
100
AcDbEntity
  8
0
 62
     7
100
AcDb2dPolyline
 66
     1
 10
0.0
 20
0.0
 30
0.0
  0
VERTEX
  5
CF6
330
5BD
100
AcDbEntity
  8
0
 62
     7
100
AcDbVertex
100
AcDb2dVertex
 10
166.0358979999999
 20
18.5358984
 30
0.0
  0
VERTEX
  5
CF7
330
5BD
100
AcDbEntity
  8
0
 62
     7
100
AcDbVertex
100
AcDb2dVertex
 10
165.943616
 20
18.3789639
 30
0.0
  0
VERTEX
  5
CF8
330
5BD
100
AcDbEntity
  8
0
 62
     7
100
AcDbVertex
100
AcDb2dVertex
 10
165.8580479999999
 20
18.21689139999999
 30
0.0
  0
VERTEX
  5
CF9
330
5BD
100
AcDbEntity
  8
0
 62
     7
100
AcDbVertex
100
AcDb2dVertex
 10
165.7799009999999
 20
18.05025159999999
 30
0.0
  0
VERTEX
  5
CFA
330
5BD
100
AcDbEntity
  8
0
 62
     7
100
AcDbVertex
100
AcDb2dVertex
 10
165.7098809999999
 20
17.8796156
 30
0.0
  0
VERTEX
  5
CFB
330
5BD
100
AcDbEntity
  8
0
 62
     7
100
AcDbVertex
100
AcDb2dVertex
 10
165.648694
 20
17.70555419999999
 30
0.0
  0
VERTEX
  5
CFC
330
5BD
100
AcDbEntity
  8
0
 62
     7
100
AcDbVertex
100
AcDb2dVertex
 10
165.597048
 20
17.52863819999999
 30
0.0
  0
VERTEX
  5
CFD
330
5BD
100
AcDbEntity
  8
0
 62
     7
100
AcDbVertex
100
AcDb2dVertex
 10
165.55565
 20
17.3494387
 30
0.0
  0
VERTEX
  5
CFE
330
5BD
100
AcDbEntity
  8
0
 62
     7
100
AcDbVertex
100
AcDb2dVertex
 10
165.525204
 20
17.1685265
 30
0.0
  0
VERTEX
  5
CFF
330
5BD
100
AcDbEntity
  8
0
 62
     7
100
AcDbVertex
100
AcDb2dVertex
 10
165.506419
 20
16.9864725
 30
0.0
  0
VERTEX
  5
D00
330
5BD
100
AcDbEntity
  8
0
 62
     7
100
AcDbVertex
100
AcDb2dVertex
 10
165.5
 20
16.8038476
 30
0.0
  0
VERTEX
  5
D01
330
5BD
100
AcDbEntity
  8
0
 62
     7
100
AcDbVertex
100
AcDb2dVertex
 10
165.506419
 20
16.62122269999999
 30
0.0
  0
VERTEX
  5
D02
330
5BD
100
AcDbEntity
  8
0
 62
     7
100
AcDbVertex
100
AcDb2dVertex
 10
165.525204
 20
16.43916869999999
 30
0.0
  0
VERTEX
  5
D03
330
5BD
100
AcDbEntity
  8
0
 62
     7
100
AcDbVertex
100
AcDb2dVertex
 10
165.55565
 20
16.2582564
 30
0.0
  0
VERTEX
  5
D04
330
5BD
100
AcDbEntity
  8
0
 62
     7
100
AcDbVertex
100
AcDb2dVertex
 10
165.597048
 20
16.0790569
 30
0.0
  0
VERTEX
  5
D05
330
5BD
100
AcDbEntity
  8
0
 62
     7
100
AcDbVertex
100
AcDb2dVertex
 10
165.648694
 20
15.902141
 30
0.0
  0
VERTEX
  5
D06
330
5BD
100
AcDbEntity
  8
0
 62
     7
100
AcDbVertex
100
AcDb2dVertex
 10
165.7098809999999
 20
15.7280796
 30
0.0
  0
VERTEX
  5
D07
330
5BD
100
AcDbEntity
  8
0
 62
     7
100
AcDbVertex
100
AcDb2dVertex
 10
165.7799009999999
 20
15.5574435
 30
0.0
  0
VERTEX
  5
D08
330
5BD
100
AcDbEntity
  8
0
 62
     7
100
AcDbVertex
100
AcDb2dVertex
 10
165.8580479999999
 20
15.3908038
 30
0.0
  0
VERTEX
  5
D09
330
5BD
100
AcDbEntity
  8
0
 62
     7
100
AcDbVertex
100
AcDb2dVertex
 10
165.943616
 20
15.2287312
 30
0.0
  0
VERTEX
  5
D0A
330
5BD
100
AcDbEntity
  8
0
 62
     7
100
AcDbVertex
100
AcDb2dVertex
 10
166.0358979999999
 20
15.0717968
 30
0.0
  0
SEQEND
  5
D0B
330
5BD
100
AcDbEntity
  8
0
 62
     7
  0
POLYLINE
  5
5D4
330
1E
100
AcDbEntity
  8
0
 62
     7
100
AcDb2dPolyline
 66
     1
 10
0.0
 20
0.0
 30
0.0
  0
VERTEX
  5
D0C
330
5D4
100
AcDbEntity
  8
0
 62
     7
100
AcDbVertex
100
AcDb2dVertex
 10
167.964102
 20
28.9282032
 30
0.0
  0
VERTEX
  5
D0D
330
5D4
100
AcDbEntity
  8
0
 62
     7
100
AcDbVertex
100
AcDb2dVertex
 10
168.056384
 20
28.7712688
 30
0.0
  0
VERTEX
  5
D0E
330
5D4
100
AcDbEntity
  8
0
 62
     7
100
AcDbVertex
100
AcDb2dVertex
 10
168.141952
 20
28.6091962
 30
0.0
  0
VERTEX
  5
D0F
330
5D4
100
AcDbEntity
  8
0
 62
     7
100
AcDbVertex
100
AcDb2dVertex
 10
168.220099
 20
28.4425565
 30
0.0
  0
VERTEX
  5
D10
330
5D4
100
AcDbEntity
  8
0
 62
     7
100
AcDbVertex
100
AcDb2dVertex
 10
168.290119
 20
28.27192039999999
 30
0.0
  0
VERTEX
  5
D11
330
5D4
100
AcDbEntity
  8
0
 62
     7
100
AcDbVertex
100
AcDb2dVertex
 10
168.3513059999999
 20
28.097859
 30
0.0
  0
VERTEX
  5
D12
330
5D4
100
AcDbEntity
  8
0
 62
     7
100
AcDbVertex
100
AcDb2dVertex
 10
168.4029519999999
 20
27.9209431
 30
0.0
  0
VERTEX
  5
D13
330
5D4
100
AcDbEntity
  8
0
 62
     7
100
AcDbVertex
100
AcDb2dVertex
 10
168.4443499999999
 20
27.74174359999999
 30
0.0
  0
VERTEX
  5
D14
330
5D4
100
AcDbEntity
  8
0
 62
     7
100
AcDbVertex
100
AcDb2dVertex
 10
168.4747959999999
 20
27.5608313
 30
0.0
  0
VERTEX
  5
D15
330
5D4
100
AcDbEntity
  8
0
 62
     7
100
AcDbVertex
100
AcDb2dVertex
 10
168.4935809999999
 20
27.3787773
 30
0.0
  0
VERTEX
  5
D16
330
5D4
100
AcDbEntity
  8
0
 62
     7
100
AcDbVertex
100
AcDb2dVertex
 10
168.5
 20
27.19615239999999
 30
0.0
  0
VERTEX
  5
D17
330
5D4
100
AcDbEntity
  8
0
 62
     7
100
AcDbVertex
100
AcDb2dVertex
 10
168.4935809999999
 20
27.0135275
 30
0.0
  0
VERTEX
  5
D18
330
5D4
100
AcDbEntity
  8
0
 62
     7
100
AcDbVertex
100
AcDb2dVertex
 10
168.4747959999999
 20
26.8314735
 30
0.0
  0
VERTEX
  5
D19
330
5D4
100
AcDbEntity
  8
0
 62
     7
100
AcDbVertex
100
AcDb2dVertex
 10
168.4443499999999
 20
26.65056129999999
 30
0.0
  0
VERTEX
  5
D1A
330
5D4
100
AcDbEntity
  8
0
 62
     7
100
AcDbVertex
100
AcDb2dVertex
 10
168.4029519999999
 20
26.4713618
 30
0.0
  0
VERTEX
  5
D1B
330
5D4
100
AcDbEntity
  8
0
 62
     7
100
AcDbVertex
100
AcDb2dVertex
 10
168.3513059999999
 20
26.29444579999999
 30
0.0
  0
VERTEX
  5
D1C
330
5D4
100
AcDbEntity
  8
0
 62
     7
100
AcDbVertex
100
AcDb2dVertex
 10
168.290119
 20
26.1203844
 30
0.0
  0
VERTEX
  5
D1D
330
5D4
100
AcDbEntity
  8
0
 62
     7
100
AcDbVertex
100
AcDb2dVertex
 10
168.220099
 20
25.9497484
 30
0.0
  0
VERTEX
  5
D1E
330
5D4
100
AcDbEntity
  8
0
 62
     7
100
AcDbVertex
100
AcDb2dVertex
 10
168.141952
 20
25.7831086
 30
0.0
  0
VERTEX
  5
D1F
330
5D4
100
AcDbEntity
  8
0
 62
     7
100
AcDbVertex
100
AcDb2dVertex
 10
168.056384
 20
25.6210361
 30
0.0
  0
VERTEX
  5
D20
330
5D4
100
AcDbEntity
  8
0
 62
     7
100
AcDbVertex
100
AcDb2dVertex
 10
167.964102
 20
25.4641016
 30
0.0
  0
SEQEND
  5
D21
330
5D4
100
AcDbEntity
  8
0
 62
     7
  0
POLYLINE
  5
5EB
330
1E
100
AcDbEntity
  8
0
 62
     7
100
AcDb2dPolyline
 66
     1
 10
0.0
 20
0.0
 30
0.0
  0
VERTEX
  5
D22
330
5EB
100
AcDbEntity
  8
0
 62
     7
100
AcDbVertex
100
AcDb2dVertex
 10
167.964102
 20
25.4641016
 30
0.0
  0
VERTEX
  5
D23
330
5EB
100
AcDbEntity
  8
0
 62
     7
100
AcDbVertex
100
AcDb2dVertex
 10
168.0630299999999
 20
25.12755929999999
 30
0.0
  0
VERTEX
  5
D24
330
5EB
100
AcDbEntity
  8
0
 62
     7
100
AcDbVertex
100
AcDb2dVertex
 10
168.152454
 20
24.7879009
 30
0.0
  0
VERTEX
  5
D25
330
5EB
100
AcDbEntity
  8
0
 62
     7
100
AcDbVertex
100
AcDb2dVertex
 10
168.232161
 20
24.4454725
 30
0.0
  0
VERTEX
  5
D26
330
5EB
100
AcDbEntity
  8
0
 62
     7
100
AcDbVertex
100
AcDb2dVertex
 10
168.301934
 20
24.1006204
 30
0.0
  0
VERTEX
  5
D27
330
5EB
100
AcDbEntity
  8
0
 62
     7
100
AcDbVertex
100
AcDb2dVertex
 10
168.361562
 20
23.75369089999999
 30
0.0
  0
VERTEX
  5
D28
330
5EB
100
AcDbEntity
  8
0
 62
     7
100
AcDbVertex
100
AcDb2dVertex
 10
168.410828
 20
23.40503019999999
 30
0.0
  0
VERTEX
  5
D29
330
5EB
100
AcDbEntity
  8
0
 62
     7
100
AcDbVertex
100
AcDb2dVertex
 10
168.4495189999999
 20
23.05498449999999
 30
0.0
  0
VERTEX
  5
D2A
330
5EB
100
AcDbEntity
  8
0
 62
     7
100
AcDbVertex
100
AcDb2dVertex
 10
168.477421
 20
22.7039001
 30
0.0
  0
VERTEX
  5
D2B
330
5EB
100
AcDbEntity
  8
0
 62
     7
100
AcDbVertex
100
AcDb2dVertex
 10
168.49432
 20
22.3521231
 30
0.0
  0
VERTEX
  5
D2C
330
5EB
100
AcDbEntity
  8
0
 62
     7
100
AcDbVertex
100
AcDb2dVertex
 10
168.5
 20
22.0
 30
0.0
  0
VERTEX
  5
D2D
330
5EB
100
AcDbEntity
  8
0
 62
     7
100
AcDbVertex
100
AcDb2dVertex
 10
168.49432
 20
21.64787689999999
 30
0.0
  0
VERTEX
  5
D2E
330
5EB
100
AcDbEntity
  8
0
 62
     7
100
AcDbVertex
100
AcDb2dVertex
 10
168.477421
 20
21.2960999
 30
0.0
  0
VERTEX
  5
D2F
330
5EB
100
AcDbEntity
  8
0
 62
     7
100
AcDbVertex
100
AcDb2dVertex
 10
168.4495189999999
 20
20.94501549999999
 30
0.0
  0
VERTEX
  5
D30
330
5EB
100
AcDbEntity
  8
0
 62
     7
100
AcDbVertex
100
AcDb2dVertex
 10
168.410828
 20
20.5949698
 30
0.0
  0
VERTEX
  5
D31
330
5EB
100
AcDbEntity
  8
0
 62
     7
100
AcDbVertex
100
AcDb2dVertex
 10
168.361562
 20
20.2463091
 30
0.0
  0
VERTEX
  5
D32
330
5EB
100
AcDbEntity
  8
0
 62
     7
100
AcDbVertex
100
AcDb2dVertex
 10
168.301934
 20
19.89937959999999
 30
0.0
  0
VERTEX
  5
D33
330
5EB
100
AcDbEntity
  8
0
 62
     7
100
AcDbVertex
100
AcDb2dVertex
 10
168.232161
 20
19.5545275
 30
0.0
  0
VERTEX
  5
D34
330
5EB
100
AcDbEntity
  8
0
 62
     7
100
AcDbVertex
100
AcDb2dVertex
 10
168.152454
 20
19.21209909999999
 30
0.0
  0
VERTEX
  5
D35
330
5EB
100
AcDbEntity
  8
0
 62
     7
100
AcDbVertex
100
AcDb2dVertex
 10
168.0630299999999
 20
18.8724407
 30
0.0
  0
VERTEX
  5
D36
330
5EB
100
AcDbEntity
  8
0
 62
     7
100
AcDbVertex
100
AcDb2dVertex
 10
167.964102
 20
18.5358984
 30
0.0
  0
SEQEND
  5
D37
330
5EB
100
AcDbEntity
  8
0
 62
     7
  0
POLYLINE
  5
602
330
1E
100
AcDbEntity
  8
0
 62
     7
100
AcDb2dPolyline
 66
     1
 10
0.0
 20
0.0
 30
0.0
  0
VERTEX
  5
D38
330
602
100
AcDbEntity
  8
0
 62
     7
100
AcDbVertex
100
AcDb2dVertex
 10
167.964102
 20
18.5358984
 30
0.0
  0
VERTEX
  5
D39
330
602
100
AcDbEntity
  8
0
 62
     7
100
AcDbVertex
100
AcDb2dVertex
 10
168.056384
 20
18.3789639
 30
0.0
  0
VERTEX
  5
D3A
330
602
100
AcDbEntity
  8
0
 62
     7
100
AcDbVertex
100
AcDb2dVertex
 10
168.141952
 20
18.21689139999999
 30
0.0
  0
VERTEX
  5
D3B
330
602
100
AcDbEntity
  8
0
 62
     7
100
AcDbVertex
100
AcDb2dVertex
 10
168.220099
 20
18.05025159999999
 30
0.0
  0
VERTEX
  5
D3C
330
602
100
AcDbEntity
  8
0
 62
     7
100
AcDbVertex
100
AcDb2dVertex
 10
168.290119
 20
17.8796156
 30
0.0
  0
VERTEX
  5
D3D
330
602
100
AcDbEntity
  8
0
 62
     7
100
AcDbVertex
100
AcDb2dVertex
 10
168.3513059999999
 20
17.70555419999999
 30
0.0
  0
VERTEX
  5
D3E
330
602
100
AcDbEntity
  8
0
 62
     7
100
AcDbVertex
100
AcDb2dVertex
 10
168.4029519999999
 20
17.52863819999999
 30
0.0
  0
VERTEX
  5
D3F
330
602
100
AcDbEntity
  8
0
 62
     7
100
AcDbVertex
100
AcDb2dVertex
 10
168.4443499999999
 20
17.3494387
 30
0.0
  0
VERTEX
  5
D40
330
602
100
AcDbEntity
  8
0
 62
     7
100
AcDbVertex
100
AcDb2dVertex
 10
168.4747959999999
 20
17.1685265
 30
0.0
  0
VERTEX
  5
D41
330
602
100
AcDbEntity
  8
0
 62
     7
100
AcDbVertex
100
AcDb2dVertex
 10
168.4935809999999
 20
16.9864725
 30
0.0
  0
VERTEX
  5
D42
330
602
100
AcDbEntity
  8
0
 62
     7
100
AcDbVertex
100
AcDb2dVertex
 10
168.5
 20
16.8038476
 30
0.0
  0
VERTEX
  5
D43
330
602
100
AcDbEntity
  8
0
 62
     7
100
AcDbVertex
100
AcDb2dVertex
 10
168.4935809999999
 20
16.62122269999999
 30
0.0
  0
VERTEX
  5
D44
330
602
100
AcDbEntity
  8
0
 62
     7
100
AcDbVertex
100
AcDb2dVertex
 10
168.4747959999999
 20
16.43916869999999
 30
0.0
  0
VERTEX
  5
D45
330
602
100
AcDbEntity
  8
0
 62
     7
100
AcDbVertex
100
AcDb2dVertex
 10
168.4443499999999
 20
16.2582564
 30
0.0
  0
VERTEX
  5
D46
330
602
100
AcDbEntity
  8
0
 62
     7
100
AcDbVertex
100
AcDb2dVertex
 10
168.4029519999999
 20
16.0790569
 30
0.0
  0
VERTEX
  5
D47
330
602
100
AcDbEntity
  8
0
 62
     7
100
AcDbVertex
100
AcDb2dVertex
 10
168.3513059999999
 20
15.902141
 30
0.0
  0
VERTEX
  5
D48
330
602
100
AcDbEntity
  8
0
 62
     7
100
AcDbVertex
100
AcDb2dVertex
 10
168.290119
 20
15.7280796
 30
0.0
  0
VERTEX
  5
D49
330
602
100
AcDbEntity
  8
0
 62
     7
100
AcDbVertex
100
AcDb2dVertex
 10
168.220099
 20
15.5574435
 30
0.0
  0
VERTEX
  5
D4A
330
602
100
AcDbEntity
  8
0
 62
     7
100
AcDbVertex
100
AcDb2dVertex
 10
168.141952
 20
15.3908038
 30
0.0
  0
VERTEX
  5
D4B
330
602
100
AcDbEntity
  8
0
 62
     7
100
AcDbVertex
100
AcDb2dVertex
 10
168.056384
 20
15.2287312
 30
0.0
  0
VERTEX
  5
D4C
330
602
100
AcDbEntity
  8
0
 62
     7
100
AcDbVertex
100
AcDb2dVertex
 10
167.964102
 20
15.0717968
 30
0.0
  0
SEQEND
  5
D4D
330
602
100
AcDbEntity
  8
0
 62
     7
  0
POLYLINE
  5
619
330
1E
100
AcDbEntity
  8
0
 62
     7
100
AcDb2dPolyline
 66
     1
 10
0.0
 20
0.0
 30
0.0
  0
VERTEX
  5
D4E
330
619
100
AcDbEntity
  8
0
 62
     7
100
AcDbVertex
100
AcDb2dVertex
 10
167.964102
 20
-28.9282032
 30
0.0
  0
VERTEX
  5
D4F
330
619
100
AcDbEntity
  8
0
 62
     7
100
AcDbVertex
100
AcDb2dVertex
 10
168.056384
 20
-28.7712688
 30
0.0
  0
VERTEX
  5
D50
330
619
100
AcDbEntity
  8
0
 62
     7
100
AcDbVertex
100
AcDb2dVertex
 10
168.141952
 20
-28.6091962
 30
0.0
  0
VERTEX
  5
D51
330
619
100
AcDbEntity
  8
0
 62
     7
100
AcDbVertex
100
AcDb2dVertex
 10
168.220099
 20
-28.4425565
 30
0.0
  0
VERTEX
  5
D52
330
619
100
AcDbEntity
  8
0
 62
     7
100
AcDbVertex
100
AcDb2dVertex
 10
168.290119
 20
-28.27192039999999
 30
0.0
  0
VERTEX
  5
D53
330
619
100
AcDbEntity
  8
0
 62
     7
100
AcDbVertex
100
AcDb2dVertex
 10
168.3513059999999
 20
-28.097859
 30
0.0
  0
VERTEX
  5
D54
330
619
100
AcDbEntity
  8
0
 62
     7
100
AcDbVertex
100
AcDb2dVertex
 10
168.4029519999999
 20
-27.9209431
 30
0.0
  0
VERTEX
  5
D55
330
619
100
AcDbEntity
  8
0
 62
     7
100
AcDbVertex
100
AcDb2dVertex
 10
168.4443499999999
 20
-27.74174359999999
 30
0.0
  0
VERTEX
  5
D56
330
619
100
AcDbEntity
  8
0
 62
     7
100
AcDbVertex
100
AcDb2dVertex
 10
168.4747959999999
 20
-27.5608313
 30
0.0
  0
VERTEX
  5
D57
330
619
100
AcDbEntity
  8
0
 62
     7
100
AcDbVertex
100
AcDb2dVertex
 10
168.4935809999999
 20
-27.3787773
 30
0.0
  0
VERTEX
  5
D58
330
619
100
AcDbEntity
  8
0
 62
     7
100
AcDbVertex
100
AcDb2dVertex
 10
168.5
 20
-27.19615239999999
 30
0.0
  0
VERTEX
  5
D59
330
619
100
AcDbEntity
  8
0
 62
     7
100
AcDbVertex
100
AcDb2dVertex
 10
168.4935809999999
 20
-27.0135275
 30
0.0
  0
VERTEX
  5
D5A
330
619
100
AcDbEntity
  8
0
 62
     7
100
AcDbVertex
100
AcDb2dVertex
 10
168.4747959999999
 20
-26.8314735
 30
0.0
  0
VERTEX
  5
D5B
330
619
100
AcDbEntity
  8
0
 62
     7
100
AcDbVertex
100
AcDb2dVertex
 10
168.4443499999999
 20
-26.65056129999999
 30
0.0
  0
VERTEX
  5
D5C
330
619
100
AcDbEntity
  8
0
 62
     7
100
AcDbVertex
100
AcDb2dVertex
 10
168.4029519999999
 20
-26.4713618
 30
0.0
  0
VERTEX
  5
D5D
330
619
100
AcDbEntity
  8
0
 62
     7
100
AcDbVertex
100
AcDb2dVertex
 10
168.3513059999999
 20
-26.29444579999999
 30
0.0
  0
VERTEX
  5
D5E
330
619
100
AcDbEntity
  8
0
 62
     7
100
AcDbVertex
100
AcDb2dVertex
 10
168.290119
 20
-26.1203844
 30
0.0
  0
VERTEX
  5
D5F
330
619
100
AcDbEntity
  8
0
 62
     7
100
AcDbVertex
100
AcDb2dVertex
 10
168.220099
 20
-25.9497484
 30
0.0
  0
VERTEX
  5
D60
330
619
100
AcDbEntity
  8
0
 62
     7
100
AcDbVertex
100
AcDb2dVertex
 10
168.141952
 20
-25.7831086
 30
0.0
  0
VERTEX
  5
D61
330
619
100
AcDbEntity
  8
0
 62
     7
100
AcDbVertex
100
AcDb2dVertex
 10
168.056384
 20
-25.6210361
 30
0.0
  0
VERTEX
  5
D62
330
619
100
AcDbEntity
  8
0
 62
     7
100
AcDbVertex
100
AcDb2dVertex
 10
167.964102
 20
-25.4641016
 30
0.0
  0
SEQEND
  5
D63
330
619
100
AcDbEntity
  8
0
 62
     7
  0
POLYLINE
  5
630
330
1E
100
AcDbEntity
  8
0
 62
     7
100
AcDb2dPolyline
 66
     1
 10
0.0
 20
0.0
 30
0.0
  0
VERTEX
  5
D64
330
630
100
AcDbEntity
  8
0
 62
     7
100
AcDbVertex
100
AcDb2dVertex
 10
167.964102
 20
-25.4641016
 30
0.0
  0
VERTEX
  5
D65
330
630
100
AcDbEntity
  8
0
 62
     7
100
AcDbVertex
100
AcDb2dVertex
 10
168.0630299999999
 20
-25.12755929999999
 30
0.0
  0
VERTEX
  5
D66
330
630
100
AcDbEntity
  8
0
 62
     7
100
AcDbVertex
100
AcDb2dVertex
 10
168.152454
 20
-24.7879009
 30
0.0
  0
VERTEX
  5
D67
330
630
100
AcDbEntity
  8
0
 62
     7
100
AcDbVertex
100
AcDb2dVertex
 10
168.232161
 20
-24.4454725
 30
0.0
  0
VERTEX
  5
D68
330
630
100
AcDbEntity
  8
0
 62
     7
100
AcDbVertex
100
AcDb2dVertex
 10
168.301934
 20
-24.1006204
 30
0.0
  0
VERTEX
  5
D69
330
630
100
AcDbEntity
  8
0
 62
     7
100
AcDbVertex
100
AcDb2dVertex
 10
168.361562
 20
-23.75369089999999
 30
0.0
  0
VERTEX
  5
D6A
330
630
100
AcDbEntity
  8
0
 62
     7
100
AcDbVertex
100
AcDb2dVertex
 10
168.410828
 20
-23.40503019999999
 30
0.0
  0
VERTEX
  5
D6B
330
630
100
AcDbEntity
  8
0
 62
     7
100
AcDbVertex
100
AcDb2dVertex
 10
168.4495189999999
 20
-23.05498449999999
 30
0.0
  0
VERTEX
  5
D6C
330
630
100
AcDbEntity
  8
0
 62
     7
100
AcDbVertex
100
AcDb2dVertex
 10
168.477421
 20
-22.7039001
 30
0.0
  0
VERTEX
  5
D6D
330
630
100
AcDbEntity
  8
0
 62
     7
100
AcDbVertex
100
AcDb2dVertex
 10
168.49432
 20
-22.3521231
 30
0.0
  0
VERTEX
  5
D6E
330
630
100
AcDbEntity
  8
0
 62
     7
100
AcDbVertex
100
AcDb2dVertex
 10
168.5
 20
-22.0
 30
0.0
  0
VERTEX
  5
D6F
330
630
100
AcDbEntity
  8
0
 62
     7
100
AcDbVertex
100
AcDb2dVertex
 10
168.49432
 20
-21.64787689999999
 30
0.0
  0
VERTEX
  5
D70
330
630
100
AcDbEntity
  8
0
 62
     7
100
AcDbVertex
100
AcDb2dVertex
 10
168.477421
 20
-21.2960999
 30
0.0
  0
VERTEX
  5
D71
330
630
100
AcDbEntity
  8
0
 62
     7
100
AcDbVertex
100
AcDb2dVertex
 10
168.4495189999999
 20
-20.94501549999999
 30
0.0
  0
VERTEX
  5
D72
330
630
100
AcDbEntity
  8
0
 62
     7
100
AcDbVertex
100
AcDb2dVertex
 10
168.410828
 20
-20.5949698
 30
0.0
  0
VERTEX
  5
D73
330
630
100
AcDbEntity
  8
0
 62
     7
100
AcDbVertex
100
AcDb2dVertex
 10
168.361562
 20
-20.2463091
 30
0.0
  0
VERTEX
  5
D74
330
630
100
AcDbEntity
  8
0
 62
     7
100
AcDbVertex
100
AcDb2dVertex
 10
168.301934
 20
-19.89937959999999
 30
0.0
  0
VERTEX
  5
D75
330
630
100
AcDbEntity
  8
0
 62
     7
100
AcDbVertex
100
AcDb2dVertex
 10
168.232161
 20
-19.5545275
 30
0.0
  0
VERTEX
  5
D76
330
630
100
AcDbEntity
  8
0
 62
     7
100
AcDbVertex
100
AcDb2dVertex
 10
168.152454
 20
-19.21209909999999
 30
0.0
  0
VERTEX
  5
D77
330
630
100
AcDbEntity
  8
0
 62
     7
100
AcDbVertex
100
AcDb2dVertex
 10
168.0630299999999
 20
-18.8724407
 30
0.0
  0
VERTEX
  5
D78
330
630
100
AcDbEntity
  8
0
 62
     7
100
AcDbVertex
100
AcDb2dVertex
 10
167.964102
 20
-18.5358984
 30
0.0
  0
SEQEND
  5
D79
330
630
100
AcDbEntity
  8
0
 62
     7
  0
POLYLINE
  5
647
330
1E
100
AcDbEntity
  8
0
 62
     7
100
AcDb2dPolyline
 66
     1
 10
0.0
 20
0.0
 30
0.0
  0
VERTEX
  5
D7A
330
647
100
AcDbEntity
  8
0
 62
     7
100
AcDbVertex
100
AcDb2dVertex
 10
167.964102
 20
-18.5358984
 30
0.0
  0
VERTEX
  5
D7B
330
647
100
AcDbEntity
  8
0
 62
     7
100
AcDbVertex
100
AcDb2dVertex
 10
168.056384
 20
-18.3789639
 30
0.0
  0
VERTEX
  5
D7C
330
647
100
AcDbEntity
  8
0
 62
     7
100
AcDbVertex
100
AcDb2dVertex
 10
168.141952
 20
-18.21689139999999
 30
0.0
  0
VERTEX
  5
D7D
330
647
100
AcDbEntity
  8
0
 62
     7
100
AcDbVertex
100
AcDb2dVertex
 10
168.220099
 20
-18.05025159999999
 30
0.0
  0
VERTEX
  5
D7E
330
647
100
AcDbEntity
  8
0
 62
     7
100
AcDbVertex
100
AcDb2dVertex
 10
168.290119
 20
-17.8796156
 30
0.0
  0
VERTEX
  5
D7F
330
647
100
AcDbEntity
  8
0
 62
     7
100
AcDbVertex
100
AcDb2dVertex
 10
168.3513059999999
 20
-17.70555419999999
 30
0.0
  0
VERTEX
  5
D80
330
647
100
AcDbEntity
  8
0
 62
     7
100
AcDbVertex
100
AcDb2dVertex
 10
168.4029519999999
 20
-17.52863819999999
 30
0.0
  0
VERTEX
  5
D81
330
647
100
AcDbEntity
  8
0
 62
     7
100
AcDbVertex
100
AcDb2dVertex
 10
168.4443499999999
 20
-17.3494387
 30
0.0
  0
VERTEX
  5
D82
330
647
100
AcDbEntity
  8
0
 62
     7
100
AcDbVertex
100
AcDb2dVertex
 10
168.4747959999999
 20
-17.1685265
 30
0.0
  0
VERTEX
  5
D83
330
647
100
AcDbEntity
  8
0
 62
     7
100
AcDbVertex
100
AcDb2dVertex
 10
168.4935809999999
 20
-16.9864725
 30
0.0
  0
VERTEX
  5
D84
330
647
100
AcDbEntity
  8
0
 62
     7
100
AcDbVertex
100
AcDb2dVertex
 10
168.5
 20
-16.8038476
 30
0.0
  0
VERTEX
  5
D85
330
647
100
AcDbEntity
  8
0
 62
     7
100
AcDbVertex
100
AcDb2dVertex
 10
168.4935809999999
 20
-16.62122269999999
 30
0.0
  0
VERTEX
  5
D86
330
647
100
AcDbEntity
  8
0
 62
     7
100
AcDbVertex
100
AcDb2dVertex
 10
168.4747959999999
 20
-16.43916869999999
 30
0.0
  0
VERTEX
  5
D87
330
647
100
AcDbEntity
  8
0
 62
     7
100
AcDbVertex
100
AcDb2dVertex
 10
168.4443499999999
 20
-16.2582564
 30
0.0
  0
VERTEX
  5
D88
330
647
100
AcDbEntity
  8
0
 62
     7
100
AcDbVertex
100
AcDb2dVertex
 10
168.4029519999999
 20
-16.0790569
 30
0.0
  0
VERTEX
  5
D89
330
647
100
AcDbEntity
  8
0
 62
     7
100
AcDbVertex
100
AcDb2dVertex
 10
168.3513059999999
 20
-15.902141
 30
0.0
  0
VERTEX
  5
D8A
330
647
100
AcDbEntity
  8
0
 62
     7
100
AcDbVertex
100
AcDb2dVertex
 10
168.290119
 20
-15.7280796
 30
0.0
  0
VERTEX
  5
D8B
330
647
100
AcDbEntity
  8
0
 62
     7
100
AcDbVertex
100
AcDb2dVertex
 10
168.220099
 20
-15.5574435
 30
0.0
  0
VERTEX
  5
D8C
330
647
100
AcDbEntity
  8
0
 62
     7
100
AcDbVertex
100
AcDb2dVertex
 10
168.141952
 20
-15.3908038
 30
0.0
  0
VERTEX
  5
D8D
330
647
100
AcDbEntity
  8
0
 62
     7
100
AcDbVertex
100
AcDb2dVertex
 10
168.056384
 20
-15.2287312
 30
0.0
  0
VERTEX
  5
D8E
330
647
100
AcDbEntity
  8
0
 62
     7
100
AcDbVertex
100
AcDb2dVertex
 10
167.964102
 20
-15.0717968
 30
0.0
  0
SEQEND
  5
D8F
330
647
100
AcDbEntity
  8
0
 62
     7
  0
POLYLINE
  5
65E
330
1E
100
AcDbEntity
  8
0
 62
     7
100
AcDb2dPolyline
 66
     1
 10
0.0
 20
0.0
 30
0.0
  0
VERTEX
  5
D90
330
65E
100
AcDbEntity
  8
0
 62
     7
100
AcDbVertex
100
AcDb2dVertex
 10
166.0358979999999
 20
-18.5358984
 30
0.0
  0
VERTEX
  5
D91
330
65E
100
AcDbEntity
  8
0
 62
     7
100
AcDbVertex
100
AcDb2dVertex
 10
165.943616
 20
-18.3789639
 30
0.0
  0
VERTEX
  5
D92
330
65E
100
AcDbEntity
  8
0
 62
     7
100
AcDbVertex
100
AcDb2dVertex
 10
165.8580479999999
 20
-18.21689139999999
 30
0.0
  0
VERTEX
  5
D93
330
65E
100
AcDbEntity
  8
0
 62
     7
100
AcDbVertex
100
AcDb2dVertex
 10
165.7799009999999
 20
-18.05025159999999
 30
0.0
  0
VERTEX
  5
D94
330
65E
100
AcDbEntity
  8
0
 62
     7
100
AcDbVertex
100
AcDb2dVertex
 10
165.7098809999999
 20
-17.8796156
 30
0.0
  0
VERTEX
  5
D95
330
65E
100
AcDbEntity
  8
0
 62
     7
100
AcDbVertex
100
AcDb2dVertex
 10
165.648694
 20
-17.70555419999999
 30
0.0
  0
VERTEX
  5
D96
330
65E
100
AcDbEntity
  8
0
 62
     7
100
AcDbVertex
100
AcDb2dVertex
 10
165.597048
 20
-17.52863819999999
 30
0.0
  0
VERTEX
  5
D97
330
65E
100
AcDbEntity
  8
0
 62
     7
100
AcDbVertex
100
AcDb2dVertex
 10
165.55565
 20
-17.3494387
 30
0.0
  0
VERTEX
  5
D98
330
65E
100
AcDbEntity
  8
0
 62
     7
100
AcDbVertex
100
AcDb2dVertex
 10
165.525204
 20
-17.1685265
 30
0.0
  0
VERTEX
  5
D99
330
65E
100
AcDbEntity
  8
0
 62
     7
100
AcDbVertex
100
AcDb2dVertex
 10
165.506419
 20
-16.9864725
 30
0.0
  0
VERTEX
  5
D9A
330
65E
100
AcDbEntity
  8
0
 62
     7
100
AcDbVertex
100
AcDb2dVertex
 10
165.5
 20
-16.8038476
 30
0.0
  0
VERTEX
  5
D9B
330
65E
100
AcDbEntity
  8
0
 62
     7
100
AcDbVertex
100
AcDb2dVertex
 10
165.506419
 20
-16.62122269999999
 30
0.0
  0
VERTEX
  5
D9C
330
65E
100
AcDbEntity
  8
0
 62
     7
100
AcDbVertex
100
AcDb2dVertex
 10
165.525204
 20
-16.43916869999999
 30
0.0
  0
VERTEX
  5
D9D
330
65E
100
AcDbEntity
  8
0
 62
     7
100
AcDbVertex
100
AcDb2dVertex
 10
165.55565
 20
-16.2582564
 30
0.0
  0
VERTEX
  5
D9E
330
65E
100
AcDbEntity
  8
0
 62
     7
100
AcDbVertex
100
AcDb2dVertex
 10
165.597048
 20
-16.0790569
 30
0.0
  0
VERTEX
  5
D9F
330
65E
100
AcDbEntity
  8
0
 62
     7
100
AcDbVertex
100
AcDb2dVertex
 10
165.648694
 20
-15.902141
 30
0.0
  0
VERTEX
  5
DA0
330
65E
100
AcDbEntity
  8
0
 62
     7
100
AcDbVertex
100
AcDb2dVertex
 10
165.7098809999999
 20
-15.7280796
 30
0.0
  0
VERTEX
  5
DA1
330
65E
100
AcDbEntity
  8
0
 62
     7
100
AcDbVertex
100
AcDb2dVertex
 10
165.7799009999999
 20
-15.5574435
 30
0.0
  0
VERTEX
  5
DA2
330
65E
100
AcDbEntity
  8
0
 62
     7
100
AcDbVertex
100
AcDb2dVertex
 10
165.8580479999999
 20
-15.3908038
 30
0.0
  0
VERTEX
  5
DA3
330
65E
100
AcDbEntity
  8
0
 62
     7
100
AcDbVertex
100
AcDb2dVertex
 10
165.943616
 20
-15.2287312
 30
0.0
  0
VERTEX
  5
DA4
330
65E
100
AcDbEntity
  8
0
 62
     7
100
AcDbVertex
100
AcDb2dVertex
 10
166.0358979999999
 20
-15.0717968
 30
0.0
  0
SEQEND
  5
DA5
330
65E
100
AcDbEntity
  8
0
 62
     7
  0
POLYLINE
  5
675
330
1E
100
AcDbEntity
  8
0
 62
     7
100
AcDb2dPolyline
 66
     1
 10
0.0
 20
0.0
 30
0.0
  0
VERTEX
  5
DA6
330
675
100
AcDbEntity
  8
0
 62
     7
100
AcDbVertex
100
AcDb2dVertex
 10
166.0358979999999
 20
-25.4641016
 30
0.0
  0
VERTEX
  5
DA7
330
675
100
AcDbEntity
  8
0
 62
     7
100
AcDbVertex
100
AcDb2dVertex
 10
165.93697
 20
-25.12755929999999
 30
0.0
  0
VERTEX
  5
DA8
330
675
100
AcDbEntity
  8
0
 62
     7
100
AcDbVertex
100
AcDb2dVertex
 10
165.847546
 20
-24.7879009
 30
0.0
  0
VERTEX
  5
DA9
330
675
100
AcDbEntity
  8
0
 62
     7
100
AcDbVertex
100
AcDb2dVertex
 10
165.7678389999999
 20
-24.4454725
 30
0.0
  0
VERTEX
  5
DAA
330
675
100
AcDbEntity
  8
0
 62
     7
100
AcDbVertex
100
AcDb2dVertex
 10
165.6980659999999
 20
-24.1006204
 30
0.0
  0
VERTEX
  5
DAB
330
675
100
AcDbEntity
  8
0
 62
     7
100
AcDbVertex
100
AcDb2dVertex
 10
165.6384379999999
 20
-23.75369089999999
 30
0.0
  0
VERTEX
  5
DAC
330
675
100
AcDbEntity
  8
0
 62
     7
100
AcDbVertex
100
AcDb2dVertex
 10
165.5891719999999
 20
-23.40503019999999
 30
0.0
  0
VERTEX
  5
DAD
330
675
100
AcDbEntity
  8
0
 62
     7
100
AcDbVertex
100
AcDb2dVertex
 10
165.550481
 20
-23.05498449999999
 30
0.0
  0
VERTEX
  5
DAE
330
675
100
AcDbEntity
  8
0
 62
     7
100
AcDbVertex
100
AcDb2dVertex
 10
165.522579
 20
-22.7039001
 30
0.0
  0
VERTEX
  5
DAF
330
675
100
AcDbEntity
  8
0
 62
     7
100
AcDbVertex
100
AcDb2dVertex
 10
165.50568
 20
-22.3521231
 30
0.0
  0
VERTEX
  5
DB0
330
675
100
AcDbEntity
  8
0
 62
     7
100
AcDbVertex
100
AcDb2dVertex
 10
165.5
 20
-22.0
 30
0.0
  0
VERTEX
  5
DB1
330
675
100
AcDbEntity
  8
0
 62
     7
100
AcDbVertex
100
AcDb2dVertex
 10
165.50568
 20
-21.64787689999999
 30
0.0
  0
VERTEX
  5
DB2
330
675
100
AcDbEntity
  8
0
 62
     7
100
AcDbVertex
100
AcDb2dVertex
 10
165.522579
 20
-21.2960999
 30
0.0
  0
VERTEX
  5
DB3
330
675
100
AcDbEntity
  8
0
 62
     7
100
AcDbVertex
100
AcDb2dVertex
 10
165.550481
 20
-20.94501549999999
 30
0.0
  0
VERTEX
  5
DB4
330
675
100
AcDbEntity
  8
0
 62
     7
100
AcDbVertex
100
AcDb2dVertex
 10
165.5891719999999
 20
-20.5949698
 30
0.0
  0
VERTEX
  5
DB5
330
675
100
AcDbEntity
  8
0
 62
     7
100
AcDbVertex
100
AcDb2dVertex
 10
165.6384379999999
 20
-20.2463091
 30
0.0
  0
VERTEX
  5
DB6
330
675
100
AcDbEntity
  8
0
 62
     7
100
AcDbVertex
100
AcDb2dVertex
 10
165.6980659999999
 20
-19.89937959999999
 30
0.0
  0
VERTEX
  5
DB7
330
675
100
AcDbEntity
  8
0
 62
     7
100
AcDbVertex
100
AcDb2dVertex
 10
165.7678389999999
 20
-19.5545275
 30
0.0
  0
VERTEX
  5
DB8
330
675
100
AcDbEntity
  8
0
 62
     7
100
AcDbVertex
100
AcDb2dVertex
 10
165.847546
 20
-19.21209909999999
 30
0.0
  0
VERTEX
  5
DB9
330
675
100
AcDbEntity
  8
0
 62
     7
100
AcDbVertex
100
AcDb2dVertex
 10
165.93697
 20
-18.8724407
 30
0.0
  0
VERTEX
  5
DBA
330
675
100
AcDbEntity
  8
0
 62
     7
100
AcDbVertex
100
AcDb2dVertex
 10
166.0358979999999
 20
-18.5358984
 30
0.0
  0
SEQEND
  5
DBB
330
675
100
AcDbEntity
  8
0
 62
     7
  0
POLYLINE
  5
68C
330
1E
100
AcDbEntity
  8
0
 62
     7
100
AcDb2dPolyline
 66
     1
 10
0.0
 20
0.0
 30
0.0
  0
VERTEX
  5
DBC
330
68C
100
AcDbEntity
  8
0
 62
     7
100
AcDbVertex
100
AcDb2dVertex
 10
166.0358979999999
 20
-28.9282032
 30
0.0
  0
VERTEX
  5
DBD
330
68C
100
AcDbEntity
  8
0
 62
     7
100
AcDbVertex
100
AcDb2dVertex
 10
165.943616
 20
-28.7712688
 30
0.0
  0
VERTEX
  5
DBE
330
68C
100
AcDbEntity
  8
0
 62
     7
100
AcDbVertex
100
AcDb2dVertex
 10
165.8580479999999
 20
-28.6091962
 30
0.0
  0
VERTEX
  5
DBF
330
68C
100
AcDbEntity
  8
0
 62
     7
100
AcDbVertex
100
AcDb2dVertex
 10
165.7799009999999
 20
-28.4425565
 30
0.0
  0
VERTEX
  5
DC0
330
68C
100
AcDbEntity
  8
0
 62
     7
100
AcDbVertex
100
AcDb2dVertex
 10
165.7098809999999
 20
-28.27192039999999
 30
0.0
  0
VERTEX
  5
DC1
330
68C
100
AcDbEntity
  8
0
 62
     7
100
AcDbVertex
100
AcDb2dVertex
 10
165.648694
 20
-28.097859
 30
0.0
  0
VERTEX
  5
DC2
330
68C
100
AcDbEntity
  8
0
 62
     7
100
AcDbVertex
100
AcDb2dVertex
 10
165.597048
 20
-27.9209431
 30
0.0
  0
VERTEX
  5
DC3
330
68C
100
AcDbEntity
  8
0
 62
     7
100
AcDbVertex
100
AcDb2dVertex
 10
165.55565
 20
-27.74174359999999
 30
0.0
  0
VERTEX
  5
DC4
330
68C
100
AcDbEntity
  8
0
 62
     7
100
AcDbVertex
100
AcDb2dVertex
 10
165.525204
 20
-27.5608313
 30
0.0
  0
VERTEX
  5
DC5
330
68C
100
AcDbEntity
  8
0
 62
     7
100
AcDbVertex
100
AcDb2dVertex
 10
165.506419
 20
-27.3787773
 30
0.0
  0
VERTEX
  5
DC6
330
68C
100
AcDbEntity
  8
0
 62
     7
100
AcDbVertex
100
AcDb2dVertex
 10
165.5
 20
-27.19615239999999
 30
0.0
  0
VERTEX
  5
DC7
330
68C
100
AcDbEntity
  8
0
 62
     7
100
AcDbVertex
100
AcDb2dVertex
 10
165.506419
 20
-27.0135275
 30
0.0
  0
VERTEX
  5
DC8
330
68C
100
AcDbEntity
  8
0
 62
     7
100
AcDbVertex
100
AcDb2dVertex
 10
165.525204
 20
-26.8314735
 30
0.0
  0
VERTEX
  5
DC9
330
68C
100
AcDbEntity
  8
0
 62
     7
100
AcDbVertex
100
AcDb2dVertex
 10
165.55565
 20
-26.65056129999999
 30
0.0
  0
VERTEX
  5
DCA
330
68C
100
AcDbEntity
  8
0
 62
     7
100
AcDbVertex
100
AcDb2dVertex
 10
165.597048
 20
-26.4713618
 30
0.0
  0
VERTEX
  5
DCB
330
68C
100
AcDbEntity
  8
0
 62
     7
100
AcDbVertex
100
AcDb2dVertex
 10
165.648694
 20
-26.29444579999999
 30
0.0
  0
VERTEX
  5
DCC
330
68C
100
AcDbEntity
  8
0
 62
     7
100
AcDbVertex
100
AcDb2dVertex
 10
165.7098809999999
 20
-26.1203844
 30
0.0
  0
VERTEX
  5
DCD
330
68C
100
AcDbEntity
  8
0
 62
     7
100
AcDbVertex
100
AcDb2dVertex
 10
165.7799009999999
 20
-25.9497484
 30
0.0
  0
VERTEX
  5
DCE
330
68C
100
AcDbEntity
  8
0
 62
     7
100
AcDbVertex
100
AcDb2dVertex
 10
165.8580479999999
 20
-25.7831086
 30
0.0
  0
VERTEX
  5
DCF
330
68C
100
AcDbEntity
  8
0
 62
     7
100
AcDbVertex
100
AcDb2dVertex
 10
165.943616
 20
-25.6210361
 30
0.0
  0
VERTEX
  5
DD0
330
68C
100
AcDbEntity
  8
0
 62
     7
100
AcDbVertex
100
AcDb2dVertex
 10
166.0358979999999
 20
-25.4641016
 30
0.0
  0
SEQEND
  5
DD1
330
68C
100
AcDbEntity
  8
0
 62
     7
  0
POLYLINE
  5
6A3
330
1E
100
AcDbEntity
  8
0
 62
     7
100
AcDb2dPolyline
 66
     1
 10
0.0
 20
0.0
 30
0.0
  0
VERTEX
  5
DD2
330
6A3
100
AcDbEntity
  8
0
 62
     7
100
AcDbVertex
100
AcDb2dVertex
 10
149.2499999999999
 20
24.1794495
 30
0.0
  0
VERTEX
  5
DD3
330
6A3
100
AcDbEntity
  8
0
 62
     7
100
AcDbVertex
100
AcDb2dVertex
 10
149.1604669999999
 20
23.9740818
 30
0.0
  0
VERTEX
  5
DD4
330
6A3
100
AcDbEntity
  8
0
 62
     7
100
AcDbVertex
100
AcDb2dVertex
 10
149.0786389999999
 20
23.7647423
 30
0.0
  0
VERTEX
  5
DD5
330
6A3
100
AcDbEntity
  8
0
 62
     7
100
AcDbVertex
100
AcDb2dVertex
 10
149.0049219999999
 20
23.55187239999999
 30
0.0
  0
VERTEX
  5
DD6
330
6A3
100
AcDbEntity
  8
0
 62
     7
100
AcDbVertex
100
AcDb2dVertex
 10
148.939719
 20
23.3359133
 30
0.0
  0
VERTEX
  5
DD7
330
6A3
100
AcDbEntity
  8
0
 62
     7
100
AcDbVertex
100
AcDb2dVertex
 10
148.883437
 20
23.11730639999999
 30
0.0
  0
VERTEX
  5
DD8
330
6A3
100
AcDbEntity
  8
0
 62
     7
100
AcDbVertex
100
AcDb2dVertex
 10
148.83648
 20
22.896493
 30
0.0
  0
VERTEX
  5
DD9
330
6A3
100
AcDbEntity
  8
0
 62
     7
100
AcDbVertex
100
AcDb2dVertex
 10
148.7992519999999
 20
22.67391429999999
 30
0.0
  0
VERTEX
  5
DDA
330
6A3
100
AcDbEntity
  8
0
 62
     7
100
AcDbVertex
100
AcDb2dVertex
 10
148.77216
 20
22.4500117
 30
0.0
  0
VERTEX
  5
DDB
330
6A3
100
AcDbEntity
  8
0
 62
     7
100
AcDbVertex
100
AcDb2dVertex
 10
148.7556069999999
 20
22.2252265
 30
0.0
  0
VERTEX
  5
DDC
330
6A3
100
AcDbEntity
  8
0
 62
     7
100
AcDbVertex
100
AcDb2dVertex
 10
148.75
 20
22.0
 30
0.0
  0
VERTEX
  5
DDD
330
6A3
100
AcDbEntity
  8
0
 62
     7
100
AcDbVertex
100
AcDb2dVertex
 10
148.7556069999999
 20
21.77477349999999
 30
0.0
  0
VERTEX
  5
DDE
330
6A3
100
AcDbEntity
  8
0
 62
     7
100
AcDbVertex
100
AcDb2dVertex
 10
148.77216
 20
21.54998829999999
 30
0.0
  0
VERTEX
  5
DDF
330
6A3
100
AcDbEntity
  8
0
 62
     7
100
AcDbVertex
100
AcDb2dVertex
 10
148.7992519999999
 20
21.32608569999999
 30
0.0
  0
VERTEX
  5
DE0
330
6A3
100
AcDbEntity
  8
0
 62
     7
100
AcDbVertex
100
AcDb2dVertex
 10
148.83648
 20
21.103507
 30
0.0
  0
VERTEX
  5
DE1
330
6A3
100
AcDbEntity
  8
0
 62
     7
100
AcDbVertex
100
AcDb2dVertex
 10
148.883437
 20
20.8826936
 30
0.0
  0
VERTEX
  5
DE2
330
6A3
100
AcDbEntity
  8
0
 62
     7
100
AcDbVertex
100
AcDb2dVertex
 10
148.939719
 20
20.66408669999999
 30
0.0
  0
VERTEX
  5
DE3
330
6A3
100
AcDbEntity
  8
0
 62
     7
100
AcDbVertex
100
AcDb2dVertex
 10
149.0049219999999
 20
20.4481276
 30
0.0
  0
VERTEX
  5
DE4
330
6A3
100
AcDbEntity
  8
0
 62
     7
100
AcDbVertex
100
AcDb2dVertex
 10
149.0786389999999
 20
20.2352577
 30
0.0
  0
VERTEX
  5
DE5
330
6A3
100
AcDbEntity
  8
0
 62
     7
100
AcDbVertex
100
AcDb2dVertex
 10
149.1604669999999
 20
20.0259182
 30
0.0
  0
VERTEX
  5
DE6
330
6A3
100
AcDbEntity
  8
0
 62
     7
100
AcDbVertex
100
AcDb2dVertex
 10
149.2499999999999
 20
19.82055049999999
 30
0.0
  0
SEQEND
  5
DE7
330
6A3
100
AcDbEntity
  8
0
 62
     7
  0
POLYLINE
  5
6BA
330
1E
100
AcDbEntity
  8
0
 62
     7
100
AcDb2dPolyline
 66
     1
 10
0.0
 20
0.0
 30
0.0
  0
VERTEX
  5
DE8
330
6BA
100
AcDbEntity
  8
0
 62
     7
100
AcDbVertex
100
AcDb2dVertex
 10
152.5
 20
24.1794495
 30
0.0
  0
VERTEX
  5
DE9
330
6BA
100
AcDbEntity
  8
0
 62
     7
100
AcDbVertex
100
AcDb2dVertex
 10
152.589533
 20
23.9740818
 30
0.0
  0
VERTEX
  5
DEA
330
6BA
100
AcDbEntity
  8
0
 62
     7
100
AcDbVertex
100
AcDb2dVertex
 10
152.671361
 20
23.7647423
 30
0.0
  0
VERTEX
  5
DEB
330
6BA
100
AcDbEntity
  8
0
 62
     7
100
AcDbVertex
100
AcDb2dVertex
 10
152.745078
 20
23.55187239999999
 30
0.0
  0
VERTEX
  5
DEC
330
6BA
100
AcDbEntity
  8
0
 62
     7
100
AcDbVertex
100
AcDb2dVertex
 10
152.810281
 20
23.3359133
 30
0.0
  0
VERTEX
  5
DED
330
6BA
100
AcDbEntity
  8
0
 62
     7
100
AcDbVertex
100
AcDb2dVertex
 10
152.8665629999999
 20
23.11730639999999
 30
0.0
  0
VERTEX
  5
DEE
330
6BA
100
AcDbEntity
  8
0
 62
     7
100
AcDbVertex
100
AcDb2dVertex
 10
152.9135199999999
 20
22.896493
 30
0.0
  0
VERTEX
  5
DEF
330
6BA
100
AcDbEntity
  8
0
 62
     7
100
AcDbVertex
100
AcDb2dVertex
 10
152.950748
 20
22.67391429999999
 30
0.0
  0
VERTEX
  5
DF0
330
6BA
100
AcDbEntity
  8
0
 62
     7
100
AcDbVertex
100
AcDb2dVertex
 10
152.9778399999999
 20
22.4500117
 30
0.0
  0
VERTEX
  5
DF1
330
6BA
100
AcDbEntity
  8
0
 62
     7
100
AcDbVertex
100
AcDb2dVertex
 10
152.9943929999999
 20
22.2252265
 30
0.0
  0
VERTEX
  5
DF2
330
6BA
100
AcDbEntity
  8
0
 62
     7
100
AcDbVertex
100
AcDb2dVertex
 10
153.0
 20
22.0
 30
0.0
  0
VERTEX
  5
DF3
330
6BA
100
AcDbEntity
  8
0
 62
     7
100
AcDbVertex
100
AcDb2dVertex
 10
152.9943929999999
 20
21.77477349999999
 30
0.0
  0
VERTEX
  5
DF4
330
6BA
100
AcDbEntity
  8
0
 62
     7
100
AcDbVertex
100
AcDb2dVertex
 10
152.9778399999999
 20
21.54998829999999
 30
0.0
  0
VERTEX
  5
DF5
330
6BA
100
AcDbEntity
  8
0
 62
     7
100
AcDbVertex
100
AcDb2dVertex
 10
152.950748
 20
21.32608569999999
 30
0.0
  0
VERTEX
  5
DF6
330
6BA
100
AcDbEntity
  8
0
 62
     7
100
AcDbVertex
100
AcDb2dVertex
 10
152.9135199999999
 20
21.103507
 30
0.0
  0
VERTEX
  5
DF7
330
6BA
100
AcDbEntity
  8
0
 62
     7
100
AcDbVertex
100
AcDb2dVertex
 10
152.8665629999999
 20
20.8826936
 30
0.0
  0
VERTEX
  5
DF8
330
6BA
100
AcDbEntity
  8
0
 62
     7
100
AcDbVertex
100
AcDb2dVertex
 10
152.810281
 20
20.66408669999999
 30
0.0
  0
VERTEX
  5
DF9
330
6BA
100
AcDbEntity
  8
0
 62
     7
100
AcDbVertex
100
AcDb2dVertex
 10
152.745078
 20
20.4481276
 30
0.0
  0
VERTEX
  5
DFA
330
6BA
100
AcDbEntity
  8
0
 62
     7
100
AcDbVertex
100
AcDb2dVertex
 10
152.671361
 20
20.2352577
 30
0.0
  0
VERTEX
  5
DFB
330
6BA
100
AcDbEntity
  8
0
 62
     7
100
AcDbVertex
100
AcDb2dVertex
 10
152.589533
 20
20.0259182
 30
0.0
  0
VERTEX
  5
DFC
330
6BA
100
AcDbEntity
  8
0
 62
     7
100
AcDbVertex
100
AcDb2dVertex
 10
152.5
 20
19.82055049999999
 30
0.0
  0
SEQEND
  5
DFD
330
6BA
100
AcDbEntity
  8
0
 62
     7
  0
POLYLINE
  5
6D1
330
1E
100
AcDbEntity
  8
0
 62
     7
100
AcDb2dPolyline
 66
     1
 10
0.0
 20
0.0
 30
0.0
  0
VERTEX
  5
DFE
330
6D1
100
AcDbEntity
  8
0
 62
     7
100
AcDbVertex
100
AcDb2dVertex
 10
152.5
 20
-24.1794495
 30
0.0
  0
VERTEX
  5
DFF
330
6D1
100
AcDbEntity
  8
0
 62
     7
100
AcDbVertex
100
AcDb2dVertex
 10
152.589533
 20
-23.9740818
 30
0.0
  0
VERTEX
  5
E00
330
6D1
100
AcDbEntity
  8
0
 62
     7
100
AcDbVertex
100
AcDb2dVertex
 10
152.671361
 20
-23.7647423
 30
0.0
  0
VERTEX
  5
E01
330
6D1
100
AcDbEntity
  8
0
 62
     7
100
AcDbVertex
100
AcDb2dVertex
 10
152.745078
 20
-23.55187239999999
 30
0.0
  0
VERTEX
  5
E02
330
6D1
100
AcDbEntity
  8
0
 62
     7
100
AcDbVertex
100
AcDb2dVertex
 10
152.810281
 20
-23.3359133
 30
0.0
  0
VERTEX
  5
E03
330
6D1
100
AcDbEntity
  8
0
 62
     7
100
AcDbVertex
100
AcDb2dVertex
 10
152.8665629999999
 20
-23.11730639999999
 30
0.0
  0
VERTEX
  5
E04
330
6D1
100
AcDbEntity
  8
0
 62
     7
100
AcDbVertex
100
AcDb2dVertex
 10
152.9135199999999
 20
-22.896493
 30
0.0
  0
VERTEX
  5
E05
330
6D1
100
AcDbEntity
  8
0
 62
     7
100
AcDbVertex
100
AcDb2dVertex
 10
152.950748
 20
-22.67391429999999
 30
0.0
  0
VERTEX
  5
E06
330
6D1
100
AcDbEntity
  8
0
 62
     7
100
AcDbVertex
100
AcDb2dVertex
 10
152.9778399999999
 20
-22.4500117
 30
0.0
  0
VERTEX
  5
E07
330
6D1
100
AcDbEntity
  8
0
 62
     7
100
AcDbVertex
100
AcDb2dVertex
 10
152.9943929999999
 20
-22.2252265
 30
0.0
  0
VERTEX
  5
E08
330
6D1
100
AcDbEntity
  8
0
 62
     7
100
AcDbVertex
100
AcDb2dVertex
 10
153.0
 20
-22.0
 30
0.0
  0
VERTEX
  5
E09
330
6D1
100
AcDbEntity
  8
0
 62
     7
100
AcDbVertex
100
AcDb2dVertex
 10
152.9943929999999
 20
-21.77477349999999
 30
0.0
  0
VERTEX
  5
E0A
330
6D1
100
AcDbEntity
  8
0
 62
     7
100
AcDbVertex
100
AcDb2dVertex
 10
152.9778399999999
 20
-21.54998829999999
 30
0.0
  0
VERTEX
  5
E0B
330
6D1
100
AcDbEntity
  8
0
 62
     7
100
AcDbVertex
100
AcDb2dVertex
 10
152.950748
 20
-21.32608569999999
 30
0.0
  0
VERTEX
  5
E0C
330
6D1
100
AcDbEntity
  8
0
 62
     7
100
AcDbVertex
100
AcDb2dVertex
 10
152.9135199999999
 20
-21.103507
 30
0.0
  0
VERTEX
  5
E0D
330
6D1
100
AcDbEntity
  8
0
 62
     7
100
AcDbVertex
100
AcDb2dVertex
 10
152.8665629999999
 20
-20.8826936
 30
0.0
  0
VERTEX
  5
E0E
330
6D1
100
AcDbEntity
  8
0
 62
     7
100
AcDbVertex
100
AcDb2dVertex
 10
152.810281
 20
-20.66408669999999
 30
0.0
  0
VERTEX
  5
E0F
330
6D1
100
AcDbEntity
  8
0
 62
     7
100
AcDbVertex
100
AcDb2dVertex
 10
152.745078
 20
-20.4481276
 30
0.0
  0
VERTEX
  5
E10
330
6D1
100
AcDbEntity
  8
0
 62
     7
100
AcDbVertex
100
AcDb2dVertex
 10
152.671361
 20
-20.2352577
 30
0.0
  0
VERTEX
  5
E11
330
6D1
100
AcDbEntity
  8
0
 62
     7
100
AcDbVertex
100
AcDb2dVertex
 10
152.589533
 20
-20.0259182
 30
0.0
  0
VERTEX
  5
E12
330
6D1
100
AcDbEntity
  8
0
 62
     7
100
AcDbVertex
100
AcDb2dVertex
 10
152.5
 20
-19.82055049999999
 30
0.0
  0
SEQEND
  5
E13
330
6D1
100
AcDbEntity
  8
0
 62
     7
  0
POLYLINE
  5
6E8
330
1E
100
AcDbEntity
  8
0
 62
     7
100
AcDb2dPolyline
 66
     1
 10
0.0
 20
0.0
 30
0.0
  0
VERTEX
  5
E14
330
6E8
100
AcDbEntity
  8
0
 62
     7
100
AcDbVertex
100
AcDb2dVertex
 10
149.2499999999999
 20
-24.1794495
 30
0.0
  0
VERTEX
  5
E15
330
6E8
100
AcDbEntity
  8
0
 62
     7
100
AcDbVertex
100
AcDb2dVertex
 10
149.1604669999999
 20
-23.9740818
 30
0.0
  0
VERTEX
  5
E16
330
6E8
100
AcDbEntity
  8
0
 62
     7
100
AcDbVertex
100
AcDb2dVertex
 10
149.0786389999999
 20
-23.7647423
 30
0.0
  0
VERTEX
  5
E17
330
6E8
100
AcDbEntity
  8
0
 62
     7
100
AcDbVertex
100
AcDb2dVertex
 10
149.0049219999999
 20
-23.55187239999999
 30
0.0
  0
VERTEX
  5
E18
330
6E8
100
AcDbEntity
  8
0
 62
     7
100
AcDbVertex
100
AcDb2dVertex
 10
148.939719
 20
-23.3359133
 30
0.0
  0
VERTEX
  5
E19
330
6E8
100
AcDbEntity
  8
0
 62
     7
100
AcDbVertex
100
AcDb2dVertex
 10
148.883437
 20
-23.11730639999999
 30
0.0
  0
VERTEX
  5
E1A
330
6E8
100
AcDbEntity
  8
0
 62
     7
100
AcDbVertex
100
AcDb2dVertex
 10
148.83648
 20
-22.896493
 30
0.0
  0
VERTEX
  5
E1B
330
6E8
100
AcDbEntity
  8
0
 62
     7
100
AcDbVertex
100
AcDb2dVertex
 10
148.7992519999999
 20
-22.67391429999999
 30
0.0
  0
VERTEX
  5
E1C
330
6E8
100
AcDbEntity
  8
0
 62
     7
100
AcDbVertex
100
AcDb2dVertex
 10
148.77216
 20
-22.4500117
 30
0.0
  0
VERTEX
  5
E1D
330
6E8
100
AcDbEntity
  8
0
 62
     7
100
AcDbVertex
100
AcDb2dVertex
 10
148.7556069999999
 20
-22.2252265
 30
0.0
  0
VERTEX
  5
E1E
330
6E8
100
AcDbEntity
  8
0
 62
     7
100
AcDbVertex
100
AcDb2dVertex
 10
148.75
 20
-22.0
 30
0.0
  0
VERTEX
  5
E1F
330
6E8
100
AcDbEntity
  8
0
 62
     7
100
AcDbVertex
100
AcDb2dVertex
 10
148.7556069999999
 20
-21.77477349999999
 30
0.0
  0
VERTEX
  5
E20
330
6E8
100
AcDbEntity
  8
0
 62
     7
100
AcDbVertex
100
AcDb2dVertex
 10
148.77216
 20
-21.54998829999999
 30
0.0
  0
VERTEX
  5
E21
330
6E8
100
AcDbEntity
  8
0
 62
     7
100
AcDbVertex
100
AcDb2dVertex
 10
148.7992519999999
 20
-21.32608569999999
 30
0.0
  0
VERTEX
  5
E22
330
6E8
100
AcDbEntity
  8
0
 62
     7
100
AcDbVertex
100
AcDb2dVertex
 10
148.83648
 20
-21.103507
 30
0.0
  0
VERTEX
  5
E23
330
6E8
100
AcDbEntity
  8
0
 62
     7
100
AcDbVertex
100
AcDb2dVertex
 10
148.883437
 20
-20.8826936
 30
0.0
  0
VERTEX
  5
E24
330
6E8
100
AcDbEntity
  8
0
 62
     7
100
AcDbVertex
100
AcDb2dVertex
 10
148.939719
 20
-20.66408669999999
 30
0.0
  0
VERTEX
  5
E25
330
6E8
100
AcDbEntity
  8
0
 62
     7
100
AcDbVertex
100
AcDb2dVertex
 10
149.0049219999999
 20
-20.4481276
 30
0.0
  0
VERTEX
  5
E26
330
6E8
100
AcDbEntity
  8
0
 62
     7
100
AcDbVertex
100
AcDb2dVertex
 10
149.0786389999999
 20
-20.2352577
 30
0.0
  0
VERTEX
  5
E27
330
6E8
100
AcDbEntity
  8
0
 62
     7
100
AcDbVertex
100
AcDb2dVertex
 10
149.1604669999999
 20
-20.0259182
 30
0.0
  0
VERTEX
  5
E28
330
6E8
100
AcDbEntity
  8
0
 62
     7
100
AcDbVertex
100
AcDb2dVertex
 10
149.2499999999999
 20
-19.82055049999999
 30
0.0
  0
SEQEND
  5
E29
330
6E8
100
AcDbEntity
  8
0
 62
     7
  0
TEXT
  5
6FF
330
1E
100
AcDbEntity
  8
0
 62
     7
100
AcDbText
 10
-229.800283
 20
178.35
 30
0.0
 40
6.30000019
  1
RAT
 41
1.000000149999999
  7
MONOTXT
100
AcDbText
  0
TEXT
  5
700
330
1E
100
AcDbEntity
  8
0
 62
     7
100
AcDbText
 10
-267.6002899999999
 20
186.3499999999999
 30
0.0
 40
6.30000019
  1
ROTARY ACTUATOR
 41
1.04166682
  7
MONOTXT
100
AcDbText
  0
LINE
  5
701
330
1E
100
AcDbEntity
  8
0
 62
     7
100
AcDbLine
 10
282.099854
 20
195.5
 30
0.0
 11
282.099854
 21
-195.0
 31
0.0
  0
LINE
  5
702
330
1E
100
AcDbEntity
  8
0
 62
     7
100
AcDbLine
 10
-281.25
 20
195.5
 30
0.0
 11
282.099854
 21
195.5
 31
0.0
  0
LINE
  5
703
330
1E
100
AcDbEntity
  8
0
 62
     7
100
AcDbLine
 10
-281.25
 20
195.5
 30
0.0
 11
-281.25
 21
-195.0
 31
0.0
  0
LINE
  5
704
330
1E
100
AcDbEntity
  8
0
 62
     7
100
AcDbLine
 10
-281.25
 20
-195.0
 30
0.0
 11
282.099854
 21
-195.0
 31
0.0
  0
LINE
  5
705
330
1E
100
AcDbEntity
  8
0
 62
     7
100
AcDbLine
 10
162.099976
 20
-175.0
 30
0.0
 11
162.099976
 21
-195.0
 31
0.0
  0
LINE
  5
706
330
1E
100
AcDbEntity
  8
0
 62
     7
100
AcDbLine
 10
162.099976
 20
-175.0
 30
0.0
 11
282.099854
 21
-175.0
 31
0.0
  0
LINE
  5
707
330
1E
100
AcDbEntity
  8
0
 62
     7
100
AcDbLine
 10
162.099976
 20
175.5
 30
0.0
 11
282.099854
 21
175.5
 31
0.0
  0
LINE
  5
708
330
1E
100
AcDbEntity
  8
0
 62
     7
100
AcDbLine
 10
-281.25
 20
175.5
 30
0.0
 11
-161.25
 21
175.5
 31
0.0
  0
LINE
  5
709
330
1E
100
AcDbEntity
  8
0
 62
     7
100
AcDbLine
 10
162.099976
 20
195.5
 30
0.0
 11
162.099976
 21
175.5
 31
0.0
  0
LINE
  5
70A
330
1E
100
AcDbEntity
  8
0
 62
     7
100
AcDbLine
 10
-161.25
 20
195.5
 30
0.0
 11
-161.25
 21
175.5
 31
0.0
  0
TEXT
  5
70B
330
1E
100
AcDbEntity
  8
0
 62
     7
100
AcDbText
 10
197.7996899999999
 20
182.3499999999999
 30
0.0
 40
6.30000019
  1
Ver. 1.0
 41
1.08108124
  7
MONOTXT
100
AcDbText
  0
TEXT
  5
70C
330
1E
100
AcDbEntity
  8
0
 62
     7
100
AcDbText
 10
169.885276
 20
-189.4999999999999
 30
0.0
 40
9.0
  1
KOGANEI CORP.
 41
1.04838732
  7
MONOTXT
100
AcDbText
  0
TEXT
  5
70D
330
1E
100
AcDbEntity
  8
0
 62
     7
100
AcDbText
 10
-267.600562
 20
157.3499999999999
 30
0.0
 40
6.30000019
  1
MODEL:RAT30-180-SS2
 41
1.000000149999999
  7
MONOTXT
100
AcDbText
  0
ENDSEC
  0
SECTION
  2
OBJECTS
  0
DICTIONARY
  5
C
330
0
100
AcDbDictionary
  3
ACAD_GROUP
350
D
  3
ACAD_MLINESTYLE
350
16
  3
ACAD_PLOTSETTINGS
350
18
  3
ACAD_LAYOUT
350
19
1001
ACAD
1000
TREAT_AS_HARD
1070
     0
  0
DICTIONARY
  5
AB8
330
1E
100
AcDbDictionary
  3
ACAD_LAYOUTSELFREF
350
AB9
  0
DICTIONARY
  5
AB6
330
1A
100
AcDbDictionary
  3
ACAD_LAYOUTSELFREF
350
AB7
  0
DICTIONARY
  5
D
102
{ACAD_REACTORS
330
C
102
}
330
C
100
AcDbDictionary
1001
ACAD
1000
TREAT_AS_HARD
1070
     0
  0
DICTIONARY
  5
16
102
{ACAD_REACTORS
330
C
102
}
330
C
100
AcDbDictionary
  3
STANDARD
350
17
1001
ACAD
1000
TREAT_AS_HARD
1070
     0
  0
DICTIONARY
  5
18
102
{ACAD_REACTORS
330
C
102
}
330
C
100
AcDbDictionary
1001
ACAD
1000
TREAT_AS_HARD
1070
     0
  0
DICTIONARY
  5
19
102
{ACAD_REACTORS
330
C
102
}
330
C
100
AcDbDictionary
1001
ACAD
1000
TREAT_AS_HARD
1070
     0
  0
XRECORD
  5
AB9
102
{ACAD_REACTORS
330
AB8
102
}
330
AB8
100
AcDbXrecord
340
1E
  0
XRECORD
  5
AB7
102
{ACAD_REACTORS
330
AB6
102
}
330
AB6
100
AcDbXrecord
340
1A
  0
MLINESTYLE
  5
17
102
{ACAD_REACTORS
330
16
102
}
330
16
100
AcDbMlineStyle
  2
STANDARD
 70
     0
  3

 62
   256
 51
90.0
 52
90.0
 71
     2
 49
0.5
 62
   256
  6
BYLAYER
 49
-0.5
 62
   256
  6
BYLAYER
  0
ENDSEC
  0
EOF
