  0
SECTION
  2
HEADER
  9
$ACADVER
  1
AC1012
  9
$DWGCODEPAGE
  3
dos932
  9
$INSBASE
 10
0.0
 20
0.0
 30
0.0
  9
$EXTMIN
 10
-281.2681908225806
 20
-195.0129162660985
 30
-0.0015258207003583
  9
$EXTMAX
 10
283.1495755000714
 20
195.5129180845152
 30
0.0000000349246037
  9
$LIMMIN
 10
-281.2509999999999
 20
-195.0009999999999
  9
$LIMMAX
 10
282.100854
 20
195.501
  9
$ORTHOMODE
 70
     0
  9
$REGENMODE
 70
     1
  9
$FILLMODE
 70
     1
  9
$QTEXTMODE
 70
     0
  9
$MIRRTEXT
 70
     1
  9
$DRAGMODE
 70
     2
  9
$LTSCALE
 40
9.38916423
  9
$OSMODE
 70
    37
  9
$ATTMODE
 70
     1
  9
$TEXTSIZE
 40
0.2
  9
$TRACEWID
 40
0.05
  9
$TEXTSTYLE
  7
STANDARD
  9
$CLAYER
  8
0
  9
$CELTYPE
  6
CONTINUOUS
  9
$CECOLOR
 62
   256
  9
$CELTSCALE
 40
1.0
  9
$DELOBJ
 70
     1
  9
$DISPSILH
 70
     0
  9
$DIMSCALE
 40
1.0
  9
$DIMASZ
 40
0.18
  9
$DIMEXO
 40
0.0625
  9
$DIMDLI
 40
0.38
  9
$DIMRND
 40
0.0
  9
$DIMDLE
 40
0.0
  9
$DIMEXE
 40
0.18
  9
$DIMTP
 40
0.0
  9
$DIMTM
 40
0.0
  9
$DIMTXT
 40
0.18
  9
$DIMCEN
 40
0.09
  9
$DIMTSZ
 40
0.0
  9
$DIMTOL
 70
     0
  9
$DIMLIM
 70
     0
  9
$DIMTIH
 70
     1
  9
$DIMTOH
 70
     1
  9
$DIMSE1
 70
     0
  9
$DIMSE2
 70
     0
  9
$DIMTAD
 70
     0
  9
$DIMZIN
 70
     0
  9
$DIMBLK
  1

  9
$DIMASO
 70
     1
  9
$DIMSHO
 70
     1
  9
$DIMPOST
  1

  9
$DIMAPOST
  1

  9
$DIMALT
 70
     0
  9
$DIMALTD
 70
     2
  9
$DIMALTF
 40
25.4
  9
$DIMLFAC
 40
1.0
  9
$DIMTOFL
 70
     0
  9
$DIMTVP
 40
0.0
  9
$DIMTIX
 70
     0
  9
$DIMSOXD
 70
     0
  9
$DIMSAH
 70
     0
  9
$DIMBLK1
  1

  9
$DIMBLK2
  1

  9
$DIMSTYLE
  2
STANDARD
  9
$DIMCLRD
 70
     0
  9
$DIMCLRE
 70
     0
  9
$DIMCLRT
 70
     0
  9
$DIMTFAC
 40
1.0
  9
$DIMGAP
 40
0.09
  9
$DIMJUST
 70
     0
  9
$DIMSD1
 70
     0
  9
$DIMSD2
 70
     0
  9
$DIMTOLJ
 70
     1
  9
$DIMTZIN
 70
     0
  9
$DIMALTZ
 70
     0
  9
$DIMALTTZ
 70
     0
  9
$DIMFIT
 70
     3
  9
$DIMUPT
 70
     0
  9
$DIMUNIT
 70
     2
  9
$DIMDEC
 70
     4
  9
$DIMTDEC
 70
     4
  9
$DIMALTU
 70
     2
  9
$DIMALTTD
 70
     2
  9
$DIMTXSTY
  7
STANDARD
  9
$DIMAUNIT
 70
     0
  9
$LUNITS
 70
     2
  9
$LUPREC
 70
     4
  9
$SKETCHINC
 40
0.1
  9
$FILLETRAD
 40
0.0
  9
$AUNITS
 70
     0
  9
$AUPREC
 70
     0
  9
$MENU
  1
.
  9
$ELEVATION
 40
0.0
  9
$PELEVATION
 40
0.0
  9
$THICKNESS
 40
0.0
  9
$LIMCHECK
 70
     0
  9
$BLIPMODE
 70
     0
  9
$CHAMFERA
 40
0.0
  9
$CHAMFERB
 40
0.0
  9
$CHAMFERC
 40
0.0
  9
$CHAMFERD
 40
0.0
  9
$SKPOLY
 70
     0
  9
$TDCREATE
 40
2451905.685747013
  9
$TDUPDATE
 40
2451905.685763703
  9
$TDINDWG
 40
0.0000171528
  9
$TDUSRTIMER
 40
0.0000171528
  9
$USRTIMER
 70
     1
  9
$ANGBASE
 50
0.0
  9
$ANGDIR
 70
     0
  9
$PDMODE
 70
     0
  9
$PDSIZE
 40
0.0
  9
$PLINEWID
 40
0.0
  9
$COORDS
 70
     0
  9
$SPLFRAME
 70
     0
  9
$SPLINETYPE
 70
     6
  9
$SPLINESEGS
 70
     8
  9
$ATTDIA
 70
     0
  9
$ATTREQ
 70
     1
  9
$HANDLING
 70
 10241
  9
$HANDSEED
  5
5AE
  9
$SURFTAB1
 70
     6
  9
$SURFTAB2
 70
     6
  9
$SURFTYPE
 70
     6
  9
$SURFU
 70
     6
  9
$SURFV
 70
     6
  9
$UCSNAME
  2

  9
$UCSORG
 10
0.0
 20
0.0
 30
0.0
  9
$UCSXDIR
 10
1.0
 20
0.0
 30
0.0
  9
$UCSYDIR
 10
0.0
 20
1.0
 30
0.0
  9
$PUCSNAME
  2

  9
$PUCSORG
 10
0.0
 20
0.0
 30
0.0
  9
$PUCSXDIR
 10
1.0
 20
0.0
 30
0.0
  9
$PUCSYDIR
 10
0.0
 20
1.0
 30
0.0
  9
$USERI1
 70
     0
  9
$USERI2
 70
     0
  9
$USERI3
 70
     0
  9
$USERI4
 70
     0
  9
$USERI5
 70
     0
  9
$USERR1
 40
0.0
  9
$USERR2
 40
0.0
  9
$USERR3
 40
0.0
  9
$USERR4
 40
0.0
  9
$USERR5
 40
0.0
  9
$WORLDVIEW
 70
     1
  9
$SHADEDGE
 70
     3
  9
$SHADEDIF
 70
    70
  9
$TILEMODE
 70
     1
  9
$MAXACTVP
 70
    64
  9
$PINSBASE
 10
0.0
 20
0.0
 30
0.0
  9
$PLIMCHECK
 70
     0
  9
$PEXTMIN
 10
1.000000000000000E+20
 20
1.000000000000000E+20
 30
1.000000000000000E+20
  9
$PEXTMAX
 10
-1.000000000000000E+20
 20
-1.000000000000000E+20
 30
-1.000000000000000E+20
  9
$PLIMMIN
 10
0.0
 20
0.0
  9
$PLIMMAX
 10
12.0
 20
9.0
  9
$UNITMODE
 70
     0
  9
$VISRETAIN
 70
     1
  9
$PLINEGEN
 70
     0
  9
$PSLTSCALE
 70
     1
  9
$TREEDEPTH
 70
  3020
  9
$PICKSTYLE
 70
     1
  9
$CMLSTYLE
  2
STANDARD
  9
$CMLJUST
 70
     0
  9
$CMLSCALE
 40
1.0
  9
$SAVEIMAGES
 70
     1
  0
ENDSEC
  0
SECTION
  2
CLASSES
  0
CLASS
  1
ACDBDICTIONARYWDFLT
  2
AcDbDictionaryWithDefault
  3
AutoCAD 2000
 90
    32768
280
     0
281
     0
  0
CLASS
  1
ACDBPLACEHOLDER
  2
AcDbPlaceHolder
  3
AutoCAD 2000
 90
    32768
280
     0
281
     0
  0
CLASS
  1
LAYOUT
  2
AcDbLayout
  3
AutoCAD 2000
 90
    32768
280
     0
281
     0
  0
CLASS
  1
LONG_TRANSACTION
  2
AcDbLongTransaction
  3
AutoCAD 2000
 90
    32768
280
     0
281
     0
  0
CLASS
  1
LWPOLYLINE
  2
AcDbPolyline
  3
AutoCAD 2000
 90
    32768
280
     0
281
     1
  0
CLASS
  1
HATCH
  2
AcDbHatch
  3
AutoCAD 2000
 90
    32768
280
     0
281
     1
  0
CLASS
  1
XRECORD
  2
AcDbXrecord
  3
AutoCAD 2000
 90
    32768
280
     0
281
     0
  0
ENDSEC
  0
SECTION
  2
TABLES
  0
TABLE
  2
VPORT
  5
8
330
0
100
AcDbSymbolTable
 70
     3
  0
VPORT
  5
4F9
330
8
100
AcDbSymbolTableRecord
100
AcDbViewportTableRecord
  2
*ACTIVE
 70
     0
 10
0.0
 20
0.0
 11
1.0
 21
1.0
 12
0.9406923387454497
 22
0.2500009092083815
 13
0.0
 23
0.0
 14
1.0
 24
1.0
 15
0.0
 25
0.0
 16
0.0
 26
0.0
 36
1.0
 17
0.0
 27
0.0
 37
0.0
 40
394.8410369401233
 41
1.750922509225092
 42
50.0
 43
0.0
 44
0.0
 50
0.0
 51
0.0
 71
     0
 72
   100
 73
     1
 74
     1
 75
     0
 76
     0
 77
     0
 78
     0
  0
ENDTAB
  0
TABLE
  2
LTYPE
  5
5
330
0
100
AcDbSymbolTable
 70
     5
  0
LTYPE
  5
13
330
5
100
AcDbSymbolTableRecord
100
AcDbLinetypeTableRecord
  2
BYBLOCK
 70
     0
  3

 72
    65
 73
     0
 40
0.0
  0
LTYPE
  5
14
330
5
100
AcDbSymbolTableRecord
100
AcDbLinetypeTableRecord
  2
BYLAYER
 70
     0
  3

 72
    65
 73
     0
 40
0.0
  0
LTYPE
  5
15
330
5
100
AcDbSymbolTableRecord
100
AcDbLinetypeTableRecord
  2
CONTINUOUS
 70
     0
  3
Solid-Line
 72
    65
 73
     0
 40
0.0
  0
LTYPE
  5
22
330
5
100
AcDbSymbolTableRecord
100
AcDbLinetypeTableRecord
  2
DASHED
 70
     0
  3
DASHED
 72
    65
 73
     2
 40
0.75
 49
0.5
 74
     0
 49
-0.25
 74
     0
  0
LTYPE
  5
23
330
5
100
AcDbSymbolTableRecord
100
AcDbLinetypeTableRecord
  2
HIDDEN
 70
     0
  3
HIDDEN
 72
    65
 73
     2
 40
0.375
 49
0.25
 74
     0
 49
-0.125
 74
     0
  0
LTYPE
  5
24
330
5
100
AcDbSymbolTableRecord
100
AcDbLinetypeTableRecord
  2
CENTER
 70
     0
  3
CENTER
 72
    65
 73
     4
 40
2.0
 49
1.25
 74
     0
 49
-0.25
 74
     0
 49
0.25
 74
     0
 49
-0.25
 74
     0
  0
LTYPE
  5
25
330
5
100
AcDbSymbolTableRecord
100
AcDbLinetypeTableRecord
  2
PHANTOM
 70
     0
  3
PHANTOM
 72
    65
 73
     6
 40
2.5
 49
1.25
 74
     0
 49
-0.25
 74
     0
 49
0.25
 74
     0
 49
-0.25
 74
     0
 49
0.25
 74
     0
 49
-0.25
 74
     0
  0
ENDTAB
  0
TABLE
  2
LAYER
  5
2
330
0
100
AcDbSymbolTable
 70
     1
  0
LAYER
  5
10
330
2
100
AcDbSymbolTableRecord
100
AcDbLayerTableRecord
  2
0
 70
     0
 62
     7
  6
CONTINUOUS
  0
ENDTAB
  0
TABLE
  2
STYLE
  5
3
330
0
100
AcDbSymbolTable
 70
     3
  0
STYLE
  5
11
330
3
100
AcDbSymbolTableRecord
100
AcDbTextStyleTableRecord
  2
STANDARD
 70
     0
 40
0.0
 41
1.0
 50
0.0
 71
     0
 42
0.2
  3
txt
  4

  0
STYLE
  5
26
330
3
100
AcDbSymbolTableRecord
100
AcDbTextStyleTableRecord
  2
MONOTXT
 70
     0
 40
0.0
 41
1.0
 50
0.0
 71
     0
 42
0.2
  3
monotxt
  4

  0
STYLE
  5
27
330
3
100
AcDbSymbolTableRecord
100
AcDbTextStyleTableRecord
  2
BIGFONT
 70
     0
 40
0.0
 41
1.0
 50
0.0
 71
     0
 42
0.2
  3
txt
  4
bigfont
  0
ENDTAB
  0
TABLE
  2
VIEW
  5
6
330
0
100
AcDbSymbolTable
 70
     0
  0
ENDTAB
  0
TABLE
  2
UCS
  5
7
330
0
100
AcDbSymbolTable
 70
     0
  0
ENDTAB
  0
TABLE
  2
APPID
  5
9
330
0
100
AcDbSymbolTable
 70
     1
  0
APPID
  5
12
330
9
100
AcDbSymbolTableRecord
100
AcDbRegAppTableRecord
  2
ACAD
 70
     0
  0
ENDTAB
  0
TABLE
  2
DIMSTYLE
  5
A
330
0
100
AcDbSymbolTable
 70
     1
  0
DIMSTYLE
105
412
330
A
100
AcDbSymbolTableRecord
100
AcDbDimStyleTableRecord
  2
STANDARD
 70
     0
  3

  4

  5

  6

  7

 40
1.0
 41
0.18
 42
0.0625
 43
0.38
 44
0.18
 45
0.0
 46
0.0
 47
0.0
 48
0.0
140
0.18
141
0.09
142
0.0
143
25.4
144
1.0
145
0.0
146
1.0
147
0.09
 71
     0
 72
     0
 73
     1
 74
     1
 75
     0
 76
     0
 77
     0
 78
     0
170
     0
171
     2
172
     0
173
     0
174
     0
175
     0
176
     0
177
     0
178
     0
270
     2
271
     4
272
     4
273
     2
274
     2
340
11
275
     0
280
     0
281
     0
282
     0
283
     1
284
     0
285
     0
286
     0
287
     3
288
     0
  0
ENDTAB
  0
TABLE
  2
BLOCK_RECORD
  5
1
330
0
100
AcDbSymbolTable
 70
     0
  0
BLOCK_RECORD
  5
1E
102
{ACAD_XDICTIONARY
360
4FC
102
}
330
1
100
AcDbSymbolTableRecord
100
AcDbBlockTableRecord
  2
*MODEL_SPACE
  0
BLOCK_RECORD
  5
1A
102
{ACAD_XDICTIONARY
360
4FA
102
}
330
1
100
AcDbSymbolTableRecord
100
AcDbBlockTableRecord
  2
*PAPER_SPACE
  0
ENDTAB
  0
ENDSEC
  0
SECTION
  2
BLOCKS
  0
BLOCK
  5
1F
330
1E
100
AcDbEntity
  8
0
100
AcDbBlockBegin
  2
*MODEL_SPACE
 70
     0
 10
0.0
 20
0.0
 30
0.0
  3
*MODEL_SPACE
  1

  0
ENDBLK
  5
20
330
1E
100
AcDbEntity
  8
0
100
AcDbBlockEnd
  0
BLOCK
  5
1B
330
1A
100
AcDbEntity
 67
     1
  8
0
100
AcDbBlockBegin
  2
*PAPER_SPACE
 70
     0
 10
0.0
 20
0.0
 30
0.0
  3
*PAPER_SPACE
  1

  0
ENDBLK
  5
1C
330
1A
100
AcDbEntity
 67
     1
  8
0
100
AcDbBlockEnd
  0
ENDSEC
  0
SECTION
  2
ENTITIES
  0
LINE
  5
2C
330
1E
100
AcDbEntity
  8
0
 62
     7
100
AcDbLine
 10
-174.0
 20
25.0
 30
0.0
 11
-183.0
 21
25.0
 31
0.0
  0
LINE
  5
2D
330
1E
100
AcDbEntity
  8
0
 62
     7
100
AcDbLine
 10
-174.0
 20
-25.0
 30
0.0
 11
-183.0
 21
-25.0
 31
0.0
  0
LINE
  5
2E
330
1E
100
AcDbEntity
  8
0
 62
     7
100
AcDbLine
 10
-173.0
 20
22.5
 30
0.0
 11
-174.0
 21
22.5
 31
0.0
  0
LINE
  5
2F
330
1E
100
AcDbEntity
  8
0
 62
     7
100
AcDbLine
 10
-173.0
 20
-22.5
 30
0.0
 11
-174.0
 21
-22.5
 31
0.0
  0
LINE
  5
30
330
1E
100
AcDbEntity
  8
0
 62
     7
100
AcDbLine
 10
-169.0
 20
24.5
 30
0.0
 11
-173.0
 21
24.5
 31
0.0
  0
LINE
  5
31
330
1E
100
AcDbEntity
  8
0
 62
     7
100
AcDbLine
 10
-169.0
 20
-24.5
 30
0.0
 11
-173.0
 21
-24.5
 31
0.0
  0
LINE
  5
32
330
1E
100
AcDbEntity
  8
0
  6
CENTER
 62
     2
100
AcDbLine
 10
-189.0
 20
-41.39999999999999
 30
0.0
 11
-189.0
 21
-38.0
 31
0.0
  0
LINE
  5
33
330
1E
100
AcDbEntity
  8
0
 62
     7
100
AcDbLine
 10
-185.0999999999999
 20
-38.0
 30
0.0
 11
-185.0999999999999
 21
-38.3
 31
0.0
  0
LINE
  5
34
330
1E
100
AcDbEntity
  8
0
 62
     7
100
AcDbLine
 10
-192.9
 20
-38.0
 30
0.0
 11
-192.9
 21
-38.3
 31
0.0
  0
LINE
  5
35
330
1E
100
AcDbEntity
  8
0
 62
     7
100
AcDbLine
 10
-185.0
 20
-38.3
 30
0.0
 11
-193.0
 21
-38.3
 31
0.0
  0
LINE
  5
36
330
1E
100
AcDbEntity
  8
0
 62
     7
100
AcDbLine
 10
-192.8
 20
-39.39999999999999
 30
0.0
 11
-185.1999999999999
 21
-39.39999999999999
 31
0.0
  0
LINE
  5
37
330
1E
100
AcDbEntity
  8
0
 62
     7
100
AcDbLine
 10
-192.8
 20
-39.39999999999999
 30
0.0
 11
-193.0
 21
-39.2
 31
0.0
  0
LINE
  5
38
330
1E
100
AcDbEntity
  8
0
 62
     7
100
AcDbLine
 10
-193.0
 20
-38.3
 30
0.0
 11
-193.0
 21
-39.2
 31
0.0
  0
LINE
  5
39
330
1E
100
AcDbEntity
  8
0
 62
     7
100
AcDbLine
 10
-193.0
 20
-39.2
 30
0.0
 11
-185.0
 21
-39.2
 31
0.0
  0
LINE
  5
3A
330
1E
100
AcDbEntity
  8
0
 62
     7
100
AcDbLine
 10
-185.1999999999999
 20
-39.39999999999999
 30
0.0
 11
-185.0
 21
-39.2
 31
0.0
  0
LINE
  5
3B
330
1E
100
AcDbEntity
  8
0
 62
     7
100
AcDbLine
 10
-185.0
 20
-38.3
 30
0.0
 11
-185.0
 21
-39.2
 31
0.0
  0
LINE
  5
3C
330
1E
100
AcDbEntity
  8
0
 62
     7
100
AcDbLine
 10
-207.1
 20
-38.0
 30
0.0
 11
-207.1
 21
-38.3
 31
0.0
  0
LINE
  5
3D
330
1E
100
AcDbEntity
  8
0
 62
     7
100
AcDbLine
 10
-214.9
 20
-38.0
 30
0.0
 11
-214.9
 21
-38.3
 31
0.0
  0
LINE
  5
3E
330
1E
100
AcDbEntity
  8
0
 62
     7
100
AcDbLine
 10
-207.0
 20
-38.3
 30
0.0
 11
-215.0
 21
-38.3
 31
0.0
  0
LINE
  5
3F
330
1E
100
AcDbEntity
  8
0
 62
     7
100
AcDbLine
 10
-215.0
 20
-39.2
 30
0.0
 11
-207.0
 21
-39.2
 31
0.0
  0
LINE
  5
40
330
1E
100
AcDbEntity
  8
0
 62
     7
100
AcDbLine
 10
-214.8
 20
-39.39999999999999
 30
0.0
 11
-215.0
 21
-39.2
 31
0.0
  0
LINE
  5
41
330
1E
100
AcDbEntity
  8
0
 62
     7
100
AcDbLine
 10
-215.0
 20
-38.3
 30
0.0
 11
-215.0
 21
-39.2
 31
0.0
  0
LINE
  5
42
330
1E
100
AcDbEntity
  8
0
 62
     7
100
AcDbLine
 10
-207.2
 20
-39.39999999999999
 30
0.0
 11
-207.0
 21
-39.2
 31
0.0
  0
LINE
  5
43
330
1E
100
AcDbEntity
  8
0
 62
     7
100
AcDbLine
 10
-214.8
 20
-39.39999999999999
 30
0.0
 11
-207.2
 21
-39.39999999999999
 31
0.0
  0
LINE
  5
44
330
1E
100
AcDbEntity
  8
0
 62
     7
100
AcDbLine
 10
-207.0
 20
-38.3
 30
0.0
 11
-207.0
 21
-39.2
 31
0.0
  0
LINE
  5
45
330
1E
100
AcDbEntity
  8
0
  6
CENTER
 62
     2
100
AcDbLine
 10
-211.0
 20
-41.39999999999999
 30
0.0
 11
-211.0
 21
-38.0
 31
0.0
  0
LINE
  5
46
330
1E
100
AcDbEntity
  8
0
 62
     7
100
AcDbLine
 10
-185.0
 20
38.3
 30
0.0
 11
-185.0
 21
39.2
 31
0.0
  0
LINE
  5
47
330
1E
100
AcDbEntity
  8
0
 62
     7
100
AcDbLine
 10
-185.1999999999999
 20
39.39999999999999
 30
0.0
 11
-185.0
 21
39.2
 31
0.0
  0
LINE
  5
48
330
1E
100
AcDbEntity
  8
0
 62
     7
100
AcDbLine
 10
-193.0
 20
39.2
 30
0.0
 11
-185.0
 21
39.2
 31
0.0
  0
LINE
  5
49
330
1E
100
AcDbEntity
  8
0
 62
     7
100
AcDbLine
 10
-193.0
 20
38.3
 30
0.0
 11
-193.0
 21
39.2
 31
0.0
  0
LINE
  5
4A
330
1E
100
AcDbEntity
  8
0
 62
     7
100
AcDbLine
 10
-192.8
 20
39.39999999999999
 30
0.0
 11
-193.0
 21
39.2
 31
0.0
  0
LINE
  5
4B
330
1E
100
AcDbEntity
  8
0
 62
     7
100
AcDbLine
 10
-192.8
 20
39.39999999999999
 30
0.0
 11
-185.1999999999999
 21
39.39999999999999
 31
0.0
  0
LINE
  5
4C
330
1E
100
AcDbEntity
  8
0
 62
     7
100
AcDbLine
 10
-185.0
 20
38.3
 30
0.0
 11
-193.0
 21
38.3
 31
0.0
  0
LINE
  5
4D
330
1E
100
AcDbEntity
  8
0
 62
     7
100
AcDbLine
 10
-192.9
 20
38.0
 30
0.0
 11
-192.9
 21
38.3
 31
0.0
  0
LINE
  5
4E
330
1E
100
AcDbEntity
  8
0
 62
     7
100
AcDbLine
 10
-185.0999999999999
 20
38.0
 30
0.0
 11
-185.0999999999999
 21
38.3
 31
0.0
  0
LINE
  5
4F
330
1E
100
AcDbEntity
  8
0
  6
CENTER
 62
     2
100
AcDbLine
 10
-189.0
 20
41.39999999999999
 30
0.0
 11
-189.0
 21
38.0
 31
0.0
  0
LINE
  5
50
330
1E
100
AcDbEntity
  8
0
 62
     7
100
AcDbLine
 10
-207.0
 20
38.3
 30
0.0
 11
-207.0
 21
39.2
 31
0.0
  0
LINE
  5
51
330
1E
100
AcDbEntity
  8
0
 62
     7
100
AcDbLine
 10
-214.8
 20
39.39999999999999
 30
0.0
 11
-207.2
 21
39.39999999999999
 31
0.0
  0
LINE
  5
52
330
1E
100
AcDbEntity
  8
0
 62
     7
100
AcDbLine
 10
-207.2
 20
39.39999999999999
 30
0.0
 11
-207.0
 21
39.2
 31
0.0
  0
LINE
  5
53
330
1E
100
AcDbEntity
  8
0
 62
     7
100
AcDbLine
 10
-215.0
 20
38.3
 30
0.0
 11
-215.0
 21
39.2
 31
0.0
  0
LINE
  5
54
330
1E
100
AcDbEntity
  8
0
 62
     7
100
AcDbLine
 10
-214.8
 20
39.39999999999999
 30
0.0
 11
-215.0
 21
39.2
 31
0.0
  0
LINE
  5
55
330
1E
100
AcDbEntity
  8
0
 62
     7
100
AcDbLine
 10
-215.0
 20
39.2
 30
0.0
 11
-207.0
 21
39.2
 31
0.0
  0
LINE
  5
56
330
1E
100
AcDbEntity
  8
0
 62
     7
100
AcDbLine
 10
-207.0
 20
38.3
 30
0.0
 11
-215.0
 21
38.3
 31
0.0
  0
LINE
  5
57
330
1E
100
AcDbEntity
  8
0
 62
     7
100
AcDbLine
 10
-214.9
 20
38.0
 30
0.0
 11
-214.9
 21
38.3
 31
0.0
  0
LINE
  5
58
330
1E
100
AcDbEntity
  8
0
 62
     7
100
AcDbLine
 10
-207.1
 20
38.0
 30
0.0
 11
-207.1
 21
38.3
 31
0.0
  0
LINE
  5
59
330
1E
100
AcDbEntity
  8
0
  6
CENTER
 62
     2
100
AcDbLine
 10
-211.0
 20
41.39999999999999
 30
0.0
 11
-211.0
 21
38.0
 31
0.0
  0
LINE
  5
5A
330
1E
100
AcDbEntity
  8
0
  6
CENTER
 62
     2
100
AcDbLine
 10
-204.7499999999999
 20
26.5
 30
0.0
 11
-217.2499999999999
 21
26.5
 31
0.0
  0
LINE
  5
5B
330
1E
100
AcDbEntity
  8
0
 62
     7
100
AcDbLine
 10
-207.031373
 20
27.0
 30
0.0
 11
-214.968627
 21
27.0
 31
0.0
  0
LINE
  5
5C
330
1E
100
AcDbEntity
  8
0
 62
     7
100
AcDbLine
 10
-207.031373
 20
26.0
 30
0.0
 11
-214.968627
 21
26.0
 31
0.0
  0
CIRCLE
  5
5D
330
1E
100
AcDbEntity
  8
0
 62
     7
100
AcDbCircle
 10
-211.0
 20
26.5
 30
0.0
 40
4.0
  0
LINE
  5
5E
330
1E
100
AcDbEntity
  8
0
  6
CENTER
 62
     2
100
AcDbLine
 10
-211.0
 20
32.75
 30
0.0
 11
-211.0
 21
20.24999999999999
 31
0.0
  0
LINE
  5
5F
330
1E
100
AcDbEntity
  8
0
 62
     7
100
AcDbLine
 10
-173.0
 20
24.5
 30
0.0
 11
-173.0
 21
-24.5
 31
0.0
  0
LINE
  5
60
330
1E
100
AcDbEntity
  8
0
 62
     7
100
AcDbLine
 10
-192.9686269999999
 20
-26.0
 30
0.0
 11
-185.031373
 21
-26.0
 31
0.0
  0
LINE
  5
61
330
1E
100
AcDbEntity
  8
0
 62
     7
100
AcDbLine
 10
-192.9686269999999
 20
-27.0
 30
0.0
 11
-185.031373
 21
-27.0
 31
0.0
  0
CIRCLE
  5
62
330
1E
100
AcDbEntity
  8
0
 62
     7
100
AcDbCircle
 10
-189.0
 20
-26.5
 30
0.0
 40
4.0
  0
LINE
  5
63
330
1E
100
AcDbEntity
  8
0
  6
CENTER
 62
     2
100
AcDbLine
 10
-189.0
 20
-32.75
 30
0.0
 11
-189.0
 21
-20.24999999999999
 31
0.0
  0
LINE
  5
64
330
1E
100
AcDbEntity
  8
0
  6
CENTER
 62
     2
100
AcDbLine
 10
-195.25
 20
-26.5
 30
0.0
 11
-182.75
 21
-26.5
 31
0.0
  0
LINE
  5
65
330
1E
100
AcDbEntity
  8
0
 62
     7
100
AcDbLine
 10
-215.5
 20
38.0
 30
0.0
 11
-215.5
 21
-38.0
 31
0.0
  0
LINE
  5
66
330
1E
100
AcDbEntity
  8
0
 62
     7
100
AcDbLine
 10
-217.0
 20
38.0
 30
0.0
 11
-217.0
 21
-38.0
 31
0.0
  0
LINE
  5
67
330
1E
100
AcDbEntity
  8
0
 62
     7
100
AcDbLine
 10
-197.5999999999999
 20
-38.0
 30
0.0
 11
-197.5999999999999
 21
38.0
 31
0.0
  0
LINE
  5
68
330
1E
100
AcDbEntity
  8
0
 62
     7
100
AcDbLine
 10
-194.4
 20
-38.0
 30
0.0
 11
-194.4
 21
38.0
 31
0.0
  0
LINE
  5
69
330
1E
100
AcDbEntity
  8
0
 62
     7
100
AcDbLine
 10
-202.4
 20
-38.0
 30
0.0
 11
-202.4
 21
38.0
 31
0.0
  0
LINE
  5
6A
330
1E
100
AcDbEntity
  8
0
 62
     7
100
AcDbLine
 10
-205.6
 20
-38.0
 30
0.0
 11
-205.6
 21
38.0
 31
0.0
  0
LINE
  5
6B
330
1E
100
AcDbEntity
  8
0
 62
     7
100
AcDbLine
 10
-184.4999999999999
 20
38.0
 30
0.0
 11
-184.4999999999999
 21
-38.0
 31
0.0
  0
LINE
  5
6C
330
1E
100
AcDbEntity
  8
0
 62
     7
100
AcDbLine
 10
-183.0
 20
38.0
 30
0.0
 11
-183.0
 21
-38.0
 31
0.0
  0
LINE
  5
6D
330
1E
100
AcDbEntity
  8
0
 62
     7
100
AcDbLine
 10
-183.0
 20
-38.0
 30
0.0
 11
-217.0
 21
-38.0
 31
0.0
  0
LINE
  5
6E
330
1E
100
AcDbEntity
  8
0
 62
     7
100
AcDbLine
 10
-183.0
 20
38.0
 30
0.0
 11
-217.0
 21
38.0
 31
0.0
  0
LINE
  5
6F
330
1E
100
AcDbEntity
  8
0
  6
CENTER
 62
     2
100
AcDbLine
 10
-200.0
 20
-42.0
 30
0.0
 11
-200.0
 21
42.0
 31
0.0
  0
LINE
  5
70
330
1E
100
AcDbEntity
  8
0
 62
     7
100
AcDbLine
 10
-174.0
 20
25.0
 30
0.0
 11
-174.0
 21
-25.0
 31
0.0
  0
LINE
  5
71
330
1E
100
AcDbEntity
  8
0
 62
     7
100
AcDbLine
 10
-169.0
 20
-24.5
 30
0.0
 11
-169.0
 21
24.5
 31
0.0
  0
LINE
  5
72
330
1E
100
AcDbEntity
  8
0
  6
CENTER
 62
     2
100
AcDbLine
 10
-165.0
 20
0.0
 30
0.0
 11
-221.0
 21
0.0
 31
0.0
  0
LINE
  5
73
330
1E
100
AcDbEntity
  8
0
  6
CENTER
 62
     2
100
AcDbLine
 10
-85.25
 20
-28.5
 30
0.0
 11
-91.75
 21
-28.5
 31
0.0
  0
LINE
  5
74
330
1E
100
AcDbEntity
  8
0
  6
CENTER
 62
     2
100
AcDbLine
 10
-74.0
 20
-18.5
 30
0.0
 11
-66.0
 21
-18.5
 31
0.0
  0
LINE
  5
75
330
1E
100
AcDbEntity
  8
0
 62
     7
100
AcDbLine
 10
-68.0
 20
-16.5
 30
0.0
 11
-68.0
 21
-18.5
 31
0.0
  0
LINE
  5
76
330
1E
100
AcDbEntity
  8
0
 62
     7
100
AcDbLine
 10
-72.0
 20
-16.5
 30
0.0
 11
-72.0
 21
-18.5
 31
0.0
  0
ARC
  5
77
330
1E
100
AcDbEntity
  8
0
 62
     7
100
AcDbCircle
 10
-70.0
 20
-18.5
 30
0.0
 40
2.0
100
AcDbArc
 50
180.0
 51
0.0
  0
ARC
  5
78
330
1E
100
AcDbEntity
  8
0
 62
     7
100
AcDbCircle
 10
-70.0
 20
-16.5
 30
0.0
 40
2.0
100
AcDbArc
 50
0.0
 51
180.0
  0
LINE
  5
79
330
1E
100
AcDbEntity
  8
0
  6
CENTER
 62
     2
100
AcDbLine
 10
-74.0
 20
-16.5
 30
0.0
 11
-66.0
 21
-16.5
 31
0.0
  0
LINE
  5
7A
330
1E
100
AcDbEntity
  8
0
 62
     7
100
AcDbLine
 10
-70.0
 20
-25.0
 30
0.0
 11
-43.50000029999999
 21
-25.0
 31
0.0
  0
LINE
  5
7B
330
1E
100
AcDbEntity
  8
0
 62
     7
100
AcDbLine
 10
-70.0
 20
25.0
 30
0.0
 11
-43.50000029999999
 21
25.0
 31
0.0
  0
CIRCLE
  5
7C
330
1E
100
AcDbEntity
  8
0
 62
     7
100
AcDbCircle
 10
-70.0
 20
0.0
 30
0.0
 40
24.5
  0
ARC
  5
7D
330
1E
100
AcDbEntity
  8
0
 62
     7
100
AcDbCircle
 10
-70.0
 20
0.0
 30
0.0
 40
25.0
100
AcDbArc
 50
90.00000020000001
 51
270.0
  0
LINE
  5
7E
330
1E
100
AcDbEntity
  8
0
  6
CENTER
 62
     2
100
AcDbLine
 10
-50.5
 20
-38.0
 30
0.0
 11
-50.5
 21
-41.39999999999999
 31
0.0
  0
LINE
  5
7F
330
1E
100
AcDbEntity
  8
0
 62
     7
100
AcDbLine
 10
-54.5
 20
-38.3
 30
0.0
 11
-46.5
 21
-38.3
 31
0.0
  0
LINE
  5
80
330
1E
100
AcDbEntity
  8
0
 62
     7
100
AcDbLine
 10
-51.0
 20
-38.6
 30
0.0
 11
-50.0
 21
-38.6
 31
0.0
  0
LINE
  5
81
330
1E
100
AcDbEntity
  8
0
 62
     7
100
AcDbLine
 10
-46.5
 20
-39.2
 30
0.0
 11
-50.0
 21
-39.2
 31
0.0
  0
LINE
  5
82
330
1E
100
AcDbEntity
  8
0
 62
     7
100
AcDbLine
 10
-50.0
 20
-39.39999999999999
 30
0.0
 11
-46.7
 21
-39.39999999999999
 31
0.0
  0
LINE
  5
83
330
1E
100
AcDbEntity
  8
0
 62
     7
100
AcDbLine
 10
-50.0
 20
-38.6
 30
0.0
 11
-50.0
 21
-39.39999999999999
 31
0.0
  0
LINE
  5
84
330
1E
100
AcDbEntity
  8
0
 62
     7
100
AcDbLine
 10
-46.7
 20
-39.39999999999999
 30
0.0
 11
-46.5
 21
-39.2
 31
0.0
  0
LINE
  5
85
330
1E
100
AcDbEntity
  8
0
 62
     7
100
AcDbLine
 10
-46.5
 20
-38.3
 30
0.0
 11
-46.5
 21
-39.2
 31
0.0
  0
LINE
  5
86
330
1E
100
AcDbEntity
  8
0
 62
     7
100
AcDbLine
 10
-54.5
 20
-39.2
 30
0.0
 11
-51.0
 21
-39.2
 31
0.0
  0
LINE
  5
87
330
1E
100
AcDbEntity
  8
0
 62
     7
100
AcDbLine
 10
-51.0
 20
-38.6
 30
0.0
 11
-51.0
 21
-39.39999999999999
 31
0.0
  0
LINE
  5
88
330
1E
100
AcDbEntity
  8
0
 62
     7
100
AcDbLine
 10
-54.29999999999999
 20
-39.39999999999999
 30
0.0
 11
-54.5
 21
-39.2
 31
0.0
  0
LINE
  5
89
330
1E
100
AcDbEntity
  8
0
 62
     7
100
AcDbLine
 10
-54.29999999999999
 20
-39.39999999999999
 30
0.0
 11
-51.0
 21
-39.39999999999999
 31
0.0
  0
LINE
  5
8A
330
1E
100
AcDbEntity
  8
0
 62
     7
100
AcDbLine
 10
-54.5
 20
-38.3
 30
0.0
 11
-54.5
 21
-39.2
 31
0.0
  0
LINE
  5
8B
330
1E
100
AcDbEntity
  8
0
 62
     7
100
AcDbLine
 10
-54.4
 20
-38.0
 30
0.0
 11
-54.4
 21
-38.3
 31
0.0
  0
LINE
  5
8C
330
1E
100
AcDbEntity
  8
0
 62
     7
100
AcDbLine
 10
-46.6
 20
-38.0
 30
0.0
 11
-46.6
 21
-38.3
 31
0.0
  0
LINE
  5
8D
330
1E
100
AcDbEntity
  8
0
  6
CENTER
 62
     2
100
AcDbLine
 10
-89.50000000000001
 20
-38.0
 30
0.0
 11
-89.50000000000001
 21
-41.39999999999999
 31
0.0
  0
LINE
  5
8E
330
1E
100
AcDbEntity
  8
0
 62
     7
100
AcDbLine
 10
-85.6
 20
-38.0
 30
0.0
 11
-85.6
 21
-38.3
 31
0.0
  0
LINE
  5
8F
330
1E
100
AcDbEntity
  8
0
 62
     7
100
AcDbLine
 10
-93.40000000000001
 20
-38.0
 30
0.0
 11
-93.40000000000001
 21
-38.3
 31
0.0
  0
LINE
  5
90
330
1E
100
AcDbEntity
  8
0
 62
     7
100
AcDbLine
 10
-85.5
 20
-38.3
 30
0.0
 11
-85.5
 21
-39.2
 31
0.0
  0
LINE
  5
91
330
1E
100
AcDbEntity
  8
0
 62
     7
100
AcDbLine
 10
-85.7
 20
-39.39999999999999
 30
0.0
 11
-89.0
 21
-39.39999999999999
 31
0.0
  0
LINE
  5
92
330
1E
100
AcDbEntity
  8
0
 62
     7
100
AcDbLine
 10
-85.7
 20
-39.39999999999999
 30
0.0
 11
-85.5
 21
-39.2
 31
0.0
  0
LINE
  5
93
330
1E
100
AcDbEntity
  8
0
 62
     7
100
AcDbLine
 10
-89.0
 20
-38.6
 30
0.0
 11
-89.0
 21
-39.39999999999999
 31
0.0
  0
LINE
  5
94
330
1E
100
AcDbEntity
  8
0
 62
     7
100
AcDbLine
 10
-85.5
 20
-39.2
 30
0.0
 11
-89.0
 21
-39.2
 31
0.0
  0
LINE
  5
95
330
1E
100
AcDbEntity
  8
0
 62
     7
100
AcDbLine
 10
-93.49999999999999
 20
-38.3
 30
0.0
 11
-93.49999999999999
 21
-39.2
 31
0.0
  0
LINE
  5
96
330
1E
100
AcDbEntity
  8
0
 62
     7
100
AcDbLine
 10
-93.3
 20
-39.39999999999999
 30
0.0
 11
-93.49999999999999
 21
-39.2
 31
0.0
  0
LINE
  5
97
330
1E
100
AcDbEntity
  8
0
 62
     7
100
AcDbLine
 10
-90.0
 20
-38.6
 30
0.0
 11
-90.0
 21
-39.39999999999999
 31
0.0
  0
LINE
  5
98
330
1E
100
AcDbEntity
  8
0
 62
     7
100
AcDbLine
 10
-90.0
 20
-39.39999999999999
 30
0.0
 11
-93.3
 21
-39.39999999999999
 31
0.0
  0
LINE
  5
99
330
1E
100
AcDbEntity
  8
0
 62
     7
100
AcDbLine
 10
-93.49999999999999
 20
-39.2
 30
0.0
 11
-90.0
 21
-39.2
 31
0.0
  0
LINE
  5
9A
330
1E
100
AcDbEntity
  8
0
 62
     7
100
AcDbLine
 10
-89.0
 20
-38.6
 30
0.0
 11
-90.0
 21
-38.6
 31
0.0
  0
LINE
  5
9B
330
1E
100
AcDbEntity
  8
0
 62
     7
100
AcDbLine
 10
-85.5
 20
-38.3
 30
0.0
 11
-93.49999999999999
 21
-38.3
 31
0.0
  0
LINE
  5
9C
330
1E
100
AcDbEntity
  8
0
 62
     7
100
AcDbLine
 10
-54.5
 20
38.3
 30
0.0
 11
-54.5
 21
39.2
 31
0.0
  0
LINE
  5
9D
330
1E
100
AcDbEntity
  8
0
 62
     7
100
AcDbLine
 10
-54.29999999999999
 20
39.39999999999999
 30
0.0
 11
-51.0
 21
39.39999999999999
 31
0.0
  0
LINE
  5
9E
330
1E
100
AcDbEntity
  8
0
 62
     7
100
AcDbLine
 10
-54.29999999999999
 20
39.39999999999999
 30
0.0
 11
-54.5
 21
39.2
 31
0.0
  0
LINE
  5
9F
330
1E
100
AcDbEntity
  8
0
 62
     7
100
AcDbLine
 10
-51.0
 20
38.6
 30
0.0
 11
-51.0
 21
39.39999999999999
 31
0.0
  0
LINE
  5
A0
330
1E
100
AcDbEntity
  8
0
 62
     7
100
AcDbLine
 10
-54.5
 20
39.2
 30
0.0
 11
-51.0
 21
39.2
 31
0.0
  0
LINE
  5
A1
330
1E
100
AcDbEntity
  8
0
 62
     7
100
AcDbLine
 10
-46.5
 20
38.3
 30
0.0
 11
-46.5
 21
39.2
 31
0.0
  0
LINE
  5
A2
330
1E
100
AcDbEntity
  8
0
 62
     7
100
AcDbLine
 10
-46.7
 20
39.39999999999999
 30
0.0
 11
-46.5
 21
39.2
 31
0.0
  0
LINE
  5
A3
330
1E
100
AcDbEntity
  8
0
 62
     7
100
AcDbLine
 10
-50.0
 20
38.6
 30
0.0
 11
-50.0
 21
39.39999999999999
 31
0.0
  0
LINE
  5
A4
330
1E
100
AcDbEntity
  8
0
 62
     7
100
AcDbLine
 10
-50.0
 20
39.39999999999999
 30
0.0
 11
-46.7
 21
39.39999999999999
 31
0.0
  0
LINE
  5
A5
330
1E
100
AcDbEntity
  8
0
 62
     7
100
AcDbLine
 10
-46.5
 20
39.2
 30
0.0
 11
-50.0
 21
39.2
 31
0.0
  0
LINE
  5
A6
330
1E
100
AcDbEntity
  8
0
 62
     7
100
AcDbLine
 10
-51.0
 20
38.6
 30
0.0
 11
-50.0
 21
38.6
 31
0.0
  0
LINE
  5
A7
330
1E
100
AcDbEntity
  8
0
 62
     7
100
AcDbLine
 10
-54.5
 20
38.3
 30
0.0
 11
-46.5
 21
38.3
 31
0.0
  0
LINE
  5
A8
330
1E
100
AcDbEntity
  8
0
 62
     7
100
AcDbLine
 10
-46.6
 20
38.0
 30
0.0
 11
-46.6
 21
38.3
 31
0.0
  0
LINE
  5
A9
330
1E
100
AcDbEntity
  8
0
 62
     7
100
AcDbLine
 10
-54.4
 20
38.0
 30
0.0
 11
-54.4
 21
38.3
 31
0.0
  0
LINE
  5
AA
330
1E
100
AcDbEntity
  8
0
  6
CENTER
 62
     2
100
AcDbLine
 10
-50.5
 20
41.39999999999999
 30
0.0
 11
-50.5
 21
38.0
 31
0.0
  0
LINE
  5
AB
330
1E
100
AcDbEntity
  8
0
 62
     7
100
AcDbLine
 10
-93.40000000000001
 20
38.0
 30
0.0
 11
-93.40000000000001
 21
38.3
 31
0.0
  0
LINE
  5
AC
330
1E
100
AcDbEntity
  8
0
 62
     7
100
AcDbLine
 10
-85.6
 20
38.0
 30
0.0
 11
-85.6
 21
38.3
 31
0.0
  0
LINE
  5
AD
330
1E
100
AcDbEntity
  8
0
 62
     7
100
AcDbLine
 10
-85.5
 20
38.3
 30
0.0
 11
-93.49999999999999
 21
38.3
 31
0.0
  0
LINE
  5
AE
330
1E
100
AcDbEntity
  8
0
 62
     7
100
AcDbLine
 10
-89.0
 20
38.6
 30
0.0
 11
-90.0
 21
38.6
 31
0.0
  0
LINE
  5
AF
330
1E
100
AcDbEntity
  8
0
 62
     7
100
AcDbLine
 10
-93.49999999999999
 20
39.2
 30
0.0
 11
-90.0
 21
39.2
 31
0.0
  0
LINE
  5
B0
330
1E
100
AcDbEntity
  8
0
 62
     7
100
AcDbLine
 10
-90.0
 20
39.39999999999999
 30
0.0
 11
-93.3
 21
39.39999999999999
 31
0.0
  0
LINE
  5
B1
330
1E
100
AcDbEntity
  8
0
 62
     7
100
AcDbLine
 10
-90.0
 20
38.6
 30
0.0
 11
-90.0
 21
39.39999999999999
 31
0.0
  0
LINE
  5
B2
330
1E
100
AcDbEntity
  8
0
 62
     7
100
AcDbLine
 10
-93.3
 20
39.39999999999999
 30
0.0
 11
-93.49999999999999
 21
39.2
 31
0.0
  0
LINE
  5
B3
330
1E
100
AcDbEntity
  8
0
 62
     7
100
AcDbLine
 10
-93.49999999999999
 20
38.3
 30
0.0
 11
-93.49999999999999
 21
39.2
 31
0.0
  0
LINE
  5
B4
330
1E
100
AcDbEntity
  8
0
 62
     7
100
AcDbLine
 10
-85.5
 20
39.2
 30
0.0
 11
-89.0
 21
39.2
 31
0.0
  0
LINE
  5
B5
330
1E
100
AcDbEntity
  8
0
 62
     7
100
AcDbLine
 10
-89.0
 20
38.6
 30
0.0
 11
-89.0
 21
39.39999999999999
 31
0.0
  0
LINE
  5
B6
330
1E
100
AcDbEntity
  8
0
 62
     7
100
AcDbLine
 10
-85.7
 20
39.39999999999999
 30
0.0
 11
-85.5
 21
39.2
 31
0.0
  0
LINE
  5
B7
330
1E
100
AcDbEntity
  8
0
 62
     7
100
AcDbLine
 10
-85.7
 20
39.39999999999999
 30
0.0
 11
-89.0
 21
39.39999999999999
 31
0.0
  0
LINE
  5
B8
330
1E
100
AcDbEntity
  8
0
 62
     7
100
AcDbLine
 10
-85.5
 20
38.3
 30
0.0
 11
-85.5
 21
39.2
 31
0.0
  0
LINE
  5
B9
330
1E
100
AcDbEntity
  8
0
  6
CENTER
 62
     2
100
AcDbLine
 10
-89.50000000000001
 20
41.39999999999999
 30
0.0
 11
-89.50000000000001
 21
38.0
 31
0.0
  0
LINE
  5
BA
330
1E
100
AcDbEntity
  8
0
 62
     7
100
AcDbLine
 10
-97.1
 20
-22.5
 30
0.0
 11
-97.1
 21
-30.5
 31
0.0
  0
LINE
  5
BB
330
1E
100
AcDbEntity
  8
0
 62
     7
100
AcDbLine
 10
-97.40000000000001
 20
-26.0
 30
0.0
 11
-97.40000000000001
 21
-27.0
 31
0.0
  0
LINE
  5
BC
330
1E
100
AcDbEntity
  8
0
 62
     7
100
AcDbLine
 10
-97.1
 20
-22.5
 30
0.0
 11
-98.0
 21
-22.5
 31
0.0
  0
LINE
  5
BD
330
1E
100
AcDbEntity
  8
0
 62
     7
100
AcDbLine
 10
-98.2
 20
-22.7
 30
0.0
 11
-98.2
 21
-26.0
 31
0.0
  0
LINE
  5
BE
330
1E
100
AcDbEntity
  8
0
 62
     7
100
AcDbLine
 10
-98.2
 20
-22.7
 30
0.0
 11
-98.0
 21
-22.5
 31
0.0
  0
LINE
  5
BF
330
1E
100
AcDbEntity
  8
0
 62
     7
100
AcDbLine
 10
-97.40000000000001
 20
-26.0
 30
0.0
 11
-98.2
 21
-26.0
 31
0.0
  0
LINE
  5
C0
330
1E
100
AcDbEntity
  8
0
 62
     7
100
AcDbLine
 10
-98.0
 20
-22.5
 30
0.0
 11
-98.0
 21
-26.0
 31
0.0
  0
LINE
  5
C1
330
1E
100
AcDbEntity
  8
0
 62
     7
100
AcDbLine
 10
-97.1
 20
-30.5
 30
0.0
 11
-98.0
 21
-30.5
 31
0.0
  0
LINE
  5
C2
330
1E
100
AcDbEntity
  8
0
 62
     7
100
AcDbLine
 10
-98.2
 20
-30.3
 30
0.0
 11
-98.0
 21
-30.5
 31
0.0
  0
LINE
  5
C3
330
1E
100
AcDbEntity
  8
0
 62
     7
100
AcDbLine
 10
-97.40000000000001
 20
-27.0
 30
0.0
 11
-98.2
 21
-27.0
 31
0.0
  0
LINE
  5
C4
330
1E
100
AcDbEntity
  8
0
 62
     7
100
AcDbLine
 10
-98.2
 20
-27.0
 30
0.0
 11
-98.2
 21
-30.3
 31
0.0
  0
LINE
  5
C5
330
1E
100
AcDbEntity
  8
0
 62
     7
100
AcDbLine
 10
-98.0
 20
-30.5
 30
0.0
 11
-98.0
 21
-27.0
 31
0.0
  0
LINE
  5
C6
330
1E
100
AcDbEntity
  8
0
 62
     7
100
AcDbLine
 10
-97.1
 20
-30.4
 30
0.0
 11
-96.5
 21
-30.4
 31
0.0
  0
LINE
  5
C7
330
1E
100
AcDbEntity
  8
0
 62
     7
100
AcDbLine
 10
-97.1
 20
-22.6
 30
0.0
 11
-96.5
 21
-22.6
 31
0.0
  0
LINE
  5
C8
330
1E
100
AcDbEntity
  8
0
  6
CENTER
 62
     2
100
AcDbLine
 10
-96.5
 20
-26.5
 30
0.0
 11
-100.2
 21
-26.5
 31
0.0
  0
LINE
  5
C9
330
1E
100
AcDbEntity
  8
0
 62
     7
100
AcDbLine
 10
-98.0
 20
30.5
 30
0.0
 11
-98.0
 21
27.0
 31
0.0
  0
LINE
  5
CA
330
1E
100
AcDbEntity
  8
0
 62
     7
100
AcDbLine
 10
-98.2
 20
27.0
 30
0.0
 11
-98.2
 21
30.3
 31
0.0
  0
LINE
  5
CB
330
1E
100
AcDbEntity
  8
0
 62
     7
100
AcDbLine
 10
-97.40000000000001
 20
27.0
 30
0.0
 11
-98.2
 21
27.0
 31
0.0
  0
LINE
  5
CC
330
1E
100
AcDbEntity
  8
0
 62
     7
100
AcDbLine
 10
-98.2
 20
30.3
 30
0.0
 11
-98.0
 21
30.5
 31
0.0
  0
LINE
  5
CD
330
1E
100
AcDbEntity
  8
0
 62
     7
100
AcDbLine
 10
-97.1
 20
30.5
 30
0.0
 11
-98.0
 21
30.5
 31
0.0
  0
LINE
  5
CE
330
1E
100
AcDbEntity
  8
0
 62
     7
100
AcDbLine
 10
-98.0
 20
22.5
 30
0.0
 11
-98.0
 21
26.0
 31
0.0
  0
LINE
  5
CF
330
1E
100
AcDbEntity
  8
0
 62
     7
100
AcDbLine
 10
-97.40000000000001
 20
26.0
 30
0.0
 11
-98.2
 21
26.0
 31
0.0
  0
LINE
  5
D0
330
1E
100
AcDbEntity
  8
0
 62
     7
100
AcDbLine
 10
-98.2
 20
22.7
 30
0.0
 11
-98.0
 21
22.5
 31
0.0
  0
LINE
  5
D1
330
1E
100
AcDbEntity
  8
0
 62
     7
100
AcDbLine
 10
-98.2
 20
22.7
 30
0.0
 11
-98.2
 21
26.0
 31
0.0
  0
LINE
  5
D2
330
1E
100
AcDbEntity
  8
0
 62
     7
100
AcDbLine
 10
-97.1
 20
22.5
 30
0.0
 11
-98.0
 21
22.5
 31
0.0
  0
LINE
  5
D3
330
1E
100
AcDbEntity
  8
0
 62
     7
100
AcDbLine
 10
-97.40000000000001
 20
26.0
 30
0.0
 11
-97.40000000000001
 21
27.0
 31
0.0
  0
LINE
  5
D4
330
1E
100
AcDbEntity
  8
0
 62
     7
100
AcDbLine
 10
-97.1
 20
22.5
 30
0.0
 11
-97.1
 21
30.5
 31
0.0
  0
LINE
  5
D5
330
1E
100
AcDbEntity
  8
0
 62
     7
100
AcDbLine
 10
-97.1
 20
30.4
 30
0.0
 11
-96.5
 21
30.4
 31
0.0
  0
LINE
  5
D6
330
1E
100
AcDbEntity
  8
0
 62
     7
100
AcDbLine
 10
-97.1
 20
22.6
 30
0.0
 11
-96.5
 21
22.6
 31
0.0
  0
LINE
  5
D7
330
1E
100
AcDbEntity
  8
0
  6
CENTER
 62
     2
100
AcDbLine
 10
-96.5
 20
26.5
 30
0.0
 11
-100.2
 21
26.5
 31
0.0
  0
CIRCLE
  5
D8
330
1E
100
AcDbEntity
  8
0
 62
     7
100
AcDbCircle
 10
-70.0
 20
-32.0
 30
0.0
 40
2.6
  0
LINE
  5
D9
330
1E
100
AcDbEntity
  8
0
  6
CENTER
 62
     2
100
AcDbLine
 10
-74.59999999999999
 20
-32.0
 30
0.0
 11
-65.4
 21
-32.0
 31
0.0
  0
CIRCLE
  5
DA
330
1E
100
AcDbEntity
  8
0
 62
     7
100
AcDbCircle
 10
-70.0
 20
32.0
 30
0.0
 40
2.6
  0
CIRCLE
  5
DB
330
1E
100
AcDbEntity
  8
0
 62
     7
100
AcDbCircle
 10
-70.0
 20
0.0
 30
0.0
 40
1.5
  0
LINE
  5
DC
330
1E
100
AcDbEntity
  8
0
  6
CENTER
 62
     2
100
AcDbLine
 10
-88.49999999999999
 20
-25.25
 30
0.0
 11
-88.49999999999999
 21
-31.75
 31
0.0
  0
CIRCLE
  5
DD
330
1E
100
AcDbEntity
  8
0
 62
     7
100
AcDbCircle
 10
-70.0
 20
0.0
 30
0.0
 40
7.0
  0
CIRCLE
  5
DE
330
1E
100
AcDbEntity
  8
0
 62
     7
100
AcDbCircle
 10
-70.0
 20
0.0
 30
0.0
 40
5.0
  0
CIRCLE
  5
DF
330
1E
100
AcDbEntity
  8
0
 62
     7
100
AcDbCircle
 10
-88.49999999999999
 20
-28.5
 30
0.0
 40
1.25
  0
CIRCLE
  5
E0
330
1E
100
AcDbEntity
  8
0
 62
     7
100
AcDbCircle
 10
-51.5
 20
28.5
 30
0.0
 40
1.25
  0
ARC
  5
E1
330
1E
100
AcDbEntity
  8
0
 62
     7
100
AcDbCircle
 10
-40.9441684
 20
-13.16989519999999
 30
0.0
 40
2.555816169999999
100
AcDbArc
 50
145.6156339999999
 51
214.384356
  0
ARC
  5
E2
330
1E
100
AcDbEntity
  8
0
 62
     7
100
AcDbCircle
 10
-40.9441684
 20
-21.83009719999999
 30
0.0
 40
2.555816169999999
100
AcDbArc
 50
145.615662
 51
214.384383
  0
ARC
  5
E3
330
1E
100
AcDbEntity
  8
0
 62
     7
100
AcDbCircle
 10
-33.9465945
 20
-17.4999733
 30
0.0
 40
9.55339146
100
AcDbArc
 50
162.4120259999999
 51
197.5880459999999
  0
ARC
  5
E4
330
1E
100
AcDbEntity
  8
0
 62
     7
100
AcDbCircle
 10
-44.0558017
 20
-13.16989519999999
 30
0.0
 40
2.555816169999999
100
AcDbArc
 50
325.6156799999999
 51
34.3844017
  0
ARC
  5
E5
330
1E
100
AcDbEntity
  8
0
 62
     7
100
AcDbCircle
 10
-51.0533908
 20
-17.4999733
 30
0.0
 40
9.55339146
100
AcDbArc
 50
342.4119899999999
 51
17.5880103
  0
ARC
  5
E6
330
1E
100
AcDbEntity
  8
0
 62
     7
100
AcDbCircle
 10
-44.05581699999999
 20
-21.83009719999999
 30
0.0
 40
2.555816169999999
100
AcDbArc
 50
325.6156529999999
 51
34.38437439999999
  0
LINE
  5
E7
330
1E
100
AcDbEntity
  8
0
 62
     7
100
AcDbLine
 10
-43.053378
 20
-11.7265348
 30
0.0
 11
-43.4999494
 21
-12.50001909999999
 31
0.0
  0
LINE
  5
E8
330
1E
100
AcDbEntity
  8
0
 62
     7
100
AcDbLine
 10
-43.05338339999999
 20
-23.27346879999999
 30
0.0
 11
-43.4999701
 21
-22.4999581
 31
0.0
  0
LINE
  5
E9
330
1E
100
AcDbEntity
  8
0
 62
     7
100
AcDbLine
 10
-41.9465421
 20
-11.7265095
 30
0.0
 11
-41.49995549999999
 21
-12.5000201
 31
0.0
  0
LINE
  5
EA
330
1E
100
AcDbEntity
  8
0
 62
     7
100
AcDbLine
 10
-41.9465536
 20
-23.2734778
 30
0.0
 11
-41.49996699999999
 21
-22.4999671
 31
0.0
  0
LINE
  5
EB
330
1E
100
AcDbEntity
  8
0
 62
     7
100
AcDbLine
 10
-43.05334499999999
 20
-11.7264557
 30
0.0
 11
-41.946564
 21
-11.7264557
 31
0.0
  0
LINE
  5
EC
330
1E
100
AcDbEntity
  8
0
 62
     7
100
AcDbLine
 10
-43.0533908
 20
-14.613205
 30
0.0
 11
-41.946564
 21
-14.613205
 31
0.0
  0
LINE
  5
ED
330
1E
100
AcDbEntity
  8
0
 62
     7
100
AcDbLine
 10
-43.0534061
 20
-20.38670349999999
 30
0.0
 11
-41.946564
 21
-20.38670349999999
 31
0.0
  0
LINE
  5
EE
330
1E
100
AcDbEntity
  8
0
 62
     7
100
AcDbLine
 10
-43.0533908
 20
-23.27346799999999
 30
0.0
 11
-41.946564
 21
-23.27346799999999
 31
0.0
  0
LINE
  5
EF
330
1E
100
AcDbEntity
  8
0
 62
     7
100
AcDbLine
 10
-41.5000003
 20
-22.4999886
 30
0.0
 11
-41.5000003
 21
-12.5000496
 31
0.0
  0
LINE
  5
F0
330
1E
100
AcDbEntity
  8
0
 62
     7
100
AcDbLine
 10
-41.5000003
 20
22.4999886
 30
0.0
 11
-41.5000003
 21
12.5000496
 31
0.0
  0
LINE
  5
F1
330
1E
100
AcDbEntity
  8
0
 62
     7
100
AcDbLine
 10
-43.0533908
 20
23.27346799999999
 30
0.0
 11
-41.946564
 21
23.27346799999999
 31
0.0
  0
LINE
  5
F2
330
1E
100
AcDbEntity
  8
0
 62
     7
100
AcDbLine
 10
-43.0534061
 20
20.38670349999999
 30
0.0
 11
-41.946564
 21
20.38670349999999
 31
0.0
  0
LINE
  5
F3
330
1E
100
AcDbEntity
  8
0
 62
     7
100
AcDbLine
 10
-43.0533908
 20
14.613205
 30
0.0
 11
-41.946564
 21
14.613205
 31
0.0
  0
LINE
  5
F4
330
1E
100
AcDbEntity
  8
0
 62
     7
100
AcDbLine
 10
-43.05334499999999
 20
11.7264557
 30
0.0
 11
-41.946564
 21
11.7264557
 31
0.0
  0
LINE
  5
F5
330
1E
100
AcDbEntity
  8
0
 62
     7
100
AcDbLine
 10
-41.9465536
 20
23.2734778
 30
0.0
 11
-41.49996699999999
 21
22.4999671
 31
0.0
  0
LINE
  5
F6
330
1E
100
AcDbEntity
  8
0
 62
     7
100
AcDbLine
 10
-41.9465421
 20
11.7265095
 30
0.0
 11
-41.49995549999999
 21
12.5000201
 31
0.0
  0
LINE
  5
F7
330
1E
100
AcDbEntity
  8
0
 62
     7
100
AcDbLine
 10
-43.05338339999999
 20
23.27346879999999
 30
0.0
 11
-43.4999701
 21
22.4999581
 31
0.0
  0
LINE
  5
F8
330
1E
100
AcDbEntity
  8
0
 62
     7
100
AcDbLine
 10
-43.053378
 20
11.7265348
 30
0.0
 11
-43.4999494
 21
12.50001909999999
 31
0.0
  0
ARC
  5
F9
330
1E
100
AcDbEntity
  8
0
 62
     7
100
AcDbCircle
 10
-44.05581699999999
 20
21.83009719999999
 30
0.0
 40
2.555816169999999
100
AcDbArc
 50
325.615625
 51
34.3843471
  0
ARC
  5
FA
330
1E
100
AcDbEntity
  8
0
 62
     7
100
AcDbCircle
 10
-51.0533908
 20
17.4999733
 30
0.0
 40
9.55339146
100
AcDbArc
 50
342.4119899999999
 51
17.5880103
  0
ARC
  5
FB
330
1E
100
AcDbEntity
  8
0
 62
     7
100
AcDbCircle
 10
-44.0558017
 20
13.16989519999999
 30
0.0
 40
2.555816169999999
100
AcDbArc
 50
325.615599
 51
34.3843198
  0
ARC
  5
FC
330
1E
100
AcDbEntity
  8
0
 62
     7
100
AcDbCircle
 10
-33.9465945
 20
17.4999733
 30
0.0
 40
9.55339146
100
AcDbArc
 50
162.411954
 51
197.587974
  0
ARC
  5
FD
330
1E
100
AcDbEntity
  8
0
 62
     7
100
AcDbCircle
 10
-40.9441684
 20
21.83009719999999
 30
0.0
 40
2.555816169999999
100
AcDbArc
 50
145.6156169999999
 51
214.3843379999999
  0
ARC
  5
FE
330
1E
100
AcDbEntity
  8
0
 62
     7
100
AcDbCircle
 10
-40.9441684
 20
13.16989519999999
 30
0.0
 40
2.555816169999999
100
AcDbArc
 50
145.6156439999999
 51
214.384366
  0
LINE
  5
FF
330
1E
100
AcDbEntity
  8
0
 62
     7
100
AcDbLine
 10
-43.50000029999999
 20
38.00002670000001
 30
0.0
 11
-43.50000029999999
 21
-37.9999962
 31
0.0
  0
LINE
  5
100
330
1E
100
AcDbEntity
  8
0
  6
CENTER
 62
     2
100
AcDbLine
 10
-54.75
 20
28.5
 30
0.0
 11
-48.25
 21
28.5
 31
0.0
  0
LINE
  5
101
330
1E
100
AcDbEntity
  8
0
  6
CENTER
 62
     2
100
AcDbLine
 10
-51.5
 20
25.25
 30
0.0
 11
-51.5
 21
31.75
 31
0.0
  0
CIRCLE
  5
102
330
1E
100
AcDbEntity
  8
0
  6
CENTER
 62
     2
100
AcDbCircle
 10
-70.0
 20
0.0
 30
0.0
 40
17.5
  0
CIRCLE
  5
103
330
1E
100
AcDbEntity
  8
0
 62
     7
100
AcDbCircle
 10
-57.625647
 20
-12.3743843
 30
0.0
 40
1.649999999999999
  0
LINE
  5
104
330
1E
100
AcDbEntity
  8
0
  6
CENTER
 62
     2
100
AcDbLine
 10
-54.7972209
 20
-15.2028106
 30
0.0
 11
-60.45407489999999
 21
-9.545956119999999
 31
0.0
  0
CIRCLE
  5
105
330
1E
100
AcDbEntity
  8
0
 62
     2
100
AcDbCircle
 10
-57.6256466
 20
-12.374382
 30
0.0
 40
2.0
  0
CIRCLE
  5
106
330
1E
100
AcDbEntity
  8
0
 62
     7
100
AcDbCircle
 10
-82.3743843
 20
-12.374353
 30
0.0
 40
1.649999999999999
  0
LINE
  5
107
330
1E
100
AcDbEntity
  8
0
  6
CENTER
 62
     2
100
AcDbLine
 10
-85.2028106
 20
-15.20277909999999
 30
0.0
 11
-79.5459561
 21
-9.54592506
 31
0.0
  0
CIRCLE
  5
108
330
1E
100
AcDbEntity
  8
0
 62
     2
100
AcDbCircle
 10
-82.37438199999999
 20
-12.3743534
 30
0.0
 40
2.0
  0
CIRCLE
  5
109
330
1E
100
AcDbEntity
  8
0
 62
     7
100
AcDbCircle
 10
-82.37435299999999
 20
12.3743843
 30
0.0
 40
1.649999999999999
  0
LINE
  5
10A
330
1E
100
AcDbEntity
  8
0
  6
CENTER
 62
     2
100
AcDbLine
 10
-85.2027791
 20
15.2028106
 30
0.0
 11
-79.54592509999999
 21
9.545956119999999
 31
0.0
  0
CIRCLE
  5
10B
330
1E
100
AcDbEntity
  8
0
 62
     2
100
AcDbCircle
 10
-82.37435340000001
 20
12.374382
 30
0.0
 40
2.0
  0
CIRCLE
  5
10C
330
1E
100
AcDbEntity
  8
0
 62
     7
100
AcDbCircle
 10
-57.62561569999999
 20
12.374353
 30
0.0
 40
1.649999999999999
  0
CIRCLE
  5
10D
330
1E
100
AcDbEntity
  8
0
 62
     7
100
AcDbCircle
 10
-87.5
 20
0.0
 30
0.0
 40
2.1
  0
CIRCLE
  5
10E
330
1E
100
AcDbEntity
  8
0
 62
     2
100
AcDbCircle
 10
-87.5
 20
0.0
 30
0.0
 40
2.5
  0
CIRCLE
  5
10F
330
1E
100
AcDbEntity
  8
0
 62
     7
100
AcDbCircle
 10
-70.0
 20
17.5
 30
0.0
 40
2.1
  0
LINE
  5
110
330
1E
100
AcDbEntity
  8
0
  6
CENTER
 62
     2
100
AcDbLine
 10
-100.5
 20
0.0
 30
0.0
 11
-39.50000029999999
 21
0.0
 31
0.0
  0
LINE
  5
111
330
1E
100
AcDbEntity
  8
0
 62
     7
100
AcDbLine
 10
-96.5
 20
38.0
 30
0.0
 11
-43.50000029999999
 21
38.0
 31
0.0
  0
LINE
  5
112
330
1E
100
AcDbEntity
  8
0
  6
CENTER
 62
     2
100
AcDbLine
 10
-70.0
 20
42.0
 30
0.0
 11
-70.0
 21
-42.0
 31
0.0
  0
LINE
  5
113
330
1E
100
AcDbEntity
  8
0
 62
     7
100
AcDbLine
 10
-96.5
 20
38.0000076
 30
0.0
 11
-96.5
 21
-38.0
 31
0.0
  0
LINE
  5
114
330
1E
100
AcDbEntity
  8
0
 62
     7
100
AcDbLine
 10
-96.5
 20
-38.0
 30
0.0
 11
-43.50000029999999
 21
-38.0
 31
0.0
  0
LINE
  5
115
330
1E
100
AcDbEntity
  8
0
  6
CENTER
 62
     2
100
AcDbLine
 10
-74.59999999999999
 20
32.0
 30
0.0
 11
-65.4
 21
32.0
 31
0.0
  0
LINE
  5
116
330
1E
100
AcDbEntity
  8
0
 62
     7
100
AcDbLine
 10
-45.0
 20
38.0
 30
0.0
 11
-45.0
 21
25.0
 31
0.0
  0
LINE
  5
117
330
1E
100
AcDbEntity
  8
0
 62
     7
100
AcDbLine
 10
-95.0
 20
38.0000076
 30
0.0
 11
-95.0
 21
-38.0
 31
0.0
  0
LINE
  5
118
330
1E
100
AcDbEntity
  8
0
 62
     7
100
AcDbLine
 10
-45.0
 20
-25.0
 30
0.0
 11
-45.0
 21
-38.0
 31
0.0
  0
LINE
  5
119
330
1E
100
AcDbEntity
  8
0
  6
CENTER
 62
     2
100
AcDbLine
 10
-54.7971894
 20
15.20277909999999
 30
0.0
 11
-60.4540439
 21
9.54592506
 31
0.0
  0
CIRCLE
  5
11A
330
1E
100
AcDbEntity
  8
0
 62
     2
100
AcDbCircle
 10
-57.625618
 20
12.3743534
 30
0.0
 40
2.0
  0
CIRCLE
  5
11B
330
1E
100
AcDbEntity
  8
0
 62
     2
100
AcDbCircle
 10
-70.0
 20
17.5
 30
0.0
 40
2.5
  0
LINE
  5
11C
330
1E
100
AcDbEntity
  8
0
 62
     7
100
AcDbLine
 10
-41.5
 20
-21.49999999999999
 30
0.0
 11
-35.5
 21
-21.49999999999999
 31
0.0
  0
LINE
  5
11D
330
1E
100
AcDbEntity
  8
0
 62
     7
100
AcDbLine
 10
-41.5
 20
-13.5
 30
0.0
 11
-35.5
 21
-13.5
 31
0.0
  0
LINE
  5
11E
330
1E
100
AcDbEntity
  8
0
 62
     2
100
AcDbLine
 10
-35.125
 20
-21.125
 30
0.0
 11
-41.5
 21
-21.125
 31
0.0
  0
LINE
  5
11F
330
1E
100
AcDbEntity
  8
0
 62
     2
100
AcDbLine
 10
-41.5
 20
-13.875
 30
0.0
 11
-35.125
 21
-13.875
 31
0.0
  0
LINE
  5
120
330
1E
100
AcDbEntity
  8
0
  6
CENTER
 62
     2
100
AcDbLine
 10
-43.50000029999999
 20
-17.5
 30
0.0
 11
-33.0
 21
-17.5
 31
0.0
  0
LINE
  5
121
330
1E
100
AcDbEntity
  8
0
 62
     7
100
AcDbLine
 10
-35.5
 20
-16.89999999999999
 30
0.0
 11
-35.5
 21
-13.5
 31
0.0
  0
LINE
  5
122
330
1E
100
AcDbEntity
  8
0
 62
     7
100
AcDbLine
 10
-35.0
 20
-18.1
 30
0.0
 11
-35.0
 21
-21.0
 31
0.0
  0
LINE
  5
123
330
1E
100
AcDbEntity
  8
0
 62
     7
100
AcDbLine
 10
-37.0
 20
-18.1
 30
0.0
 11
-37.0
 21
-16.89999999999999
 31
0.0
  0
LINE
  5
124
330
1E
100
AcDbEntity
  8
0
 62
     7
100
AcDbLine
 10
-37.0
 20
-16.89999999999999
 30
0.0
 11
-35.0
 21
-16.89999999999999
 31
0.0
  0
LINE
  5
125
330
1E
100
AcDbEntity
  8
0
 62
     7
100
AcDbLine
 10
-37.0
 20
-18.1
 30
0.0
 11
-35.0
 21
-18.1
 31
0.0
  0
LINE
  5
126
330
1E
100
AcDbEntity
  8
0
 62
     7
100
AcDbLine
 10
-35.5
 20
-21.49999999999999
 30
0.0
 11
-35.5
 21
-18.1
 31
0.0
  0
LINE
  5
127
330
1E
100
AcDbEntity
  8
0
 62
     7
100
AcDbLine
 10
-35.5
 20
-13.5
 30
0.0
 11
-35.0
 21
-14.0
 31
0.0
  0
LINE
  5
128
330
1E
100
AcDbEntity
  8
0
 62
     7
100
AcDbLine
 10
-35.5
 20
-21.49999999999999
 30
0.0
 11
-35.0
 21
-21.0
 31
0.0
  0
LINE
  5
129
330
1E
100
AcDbEntity
  8
0
 62
     7
100
AcDbLine
 10
-35.0
 20
-14.0
 30
0.0
 11
-35.0
 21
-16.89999999999999
 31
0.0
  0
LINE
  5
12A
330
1E
100
AcDbEntity
  8
0
 62
     7
100
AcDbLine
 10
-41.5
 20
21.49999999999999
 30
0.0
 11
-35.5
 21
21.49999999999999
 31
0.0
  0
LINE
  5
12B
330
1E
100
AcDbEntity
  8
0
 62
     7
100
AcDbLine
 10
-41.5
 20
13.5
 30
0.0
 11
-35.5
 21
13.5
 31
0.0
  0
LINE
  5
12C
330
1E
100
AcDbEntity
  8
0
 62
     2
100
AcDbLine
 10
-35.125
 20
21.125
 30
0.0
 11
-41.5
 21
21.125
 31
0.0
  0
LINE
  5
12D
330
1E
100
AcDbEntity
  8
0
 62
     2
100
AcDbLine
 10
-41.5
 20
13.875
 30
0.0
 11
-35.125
 21
13.875
 31
0.0
  0
LINE
  5
12E
330
1E
100
AcDbEntity
  8
0
  6
CENTER
 62
     2
100
AcDbLine
 10
-43.50000029999999
 20
17.5
 30
0.0
 11
-33.0
 21
17.5
 31
0.0
  0
LINE
  5
12F
330
1E
100
AcDbEntity
  8
0
 62
     7
100
AcDbLine
 10
-35.0
 20
14.0
 30
0.0
 11
-35.0
 21
16.89999999999999
 31
0.0
  0
LINE
  5
130
330
1E
100
AcDbEntity
  8
0
 62
     7
100
AcDbLine
 10
-35.5
 20
21.49999999999999
 30
0.0
 11
-35.0
 21
21.0
 31
0.0
  0
LINE
  5
131
330
1E
100
AcDbEntity
  8
0
 62
     7
100
AcDbLine
 10
-35.5
 20
13.5
 30
0.0
 11
-35.0
 21
14.0
 31
0.0
  0
LINE
  5
132
330
1E
100
AcDbEntity
  8
0
 62
     7
100
AcDbLine
 10
-35.5
 20
21.49999999999999
 30
0.0
 11
-35.5
 21
18.1
 31
0.0
  0
LINE
  5
133
330
1E
100
AcDbEntity
  8
0
 62
     7
100
AcDbLine
 10
-37.0
 20
18.1
 30
0.0
 11
-35.0
 21
18.1
 31
0.0
  0
LINE
  5
134
330
1E
100
AcDbEntity
  8
0
 62
     7
100
AcDbLine
 10
-37.0
 20
16.89999999999999
 30
0.0
 11
-35.0
 21
16.89999999999999
 31
0.0
  0
LINE
  5
135
330
1E
100
AcDbEntity
  8
0
 62
     7
100
AcDbLine
 10
-37.0
 20
18.1
 30
0.0
 11
-37.0
 21
16.89999999999999
 31
0.0
  0
LINE
  5
136
330
1E
100
AcDbEntity
  8
0
 62
     7
100
AcDbLine
 10
-35.0
 20
18.1
 30
0.0
 11
-35.0
 21
21.0
 31
0.0
  0
LINE
  5
137
330
1E
100
AcDbEntity
  8
0
 62
     7
100
AcDbLine
 10
-35.5
 20
16.89999999999999
 30
0.0
 11
-35.5
 21
13.5
 31
0.0
  0
LINE
  5
138
330
1E
100
AcDbEntity
  8
0
 62
     7
100
AcDbLine
 10
39.0
 20
-24.5
 30
0.0
 11
43.0
 21
-24.5
 31
0.0
  0
LINE
  5
139
330
1E
100
AcDbEntity
  8
0
 62
     7
100
AcDbLine
 10
39.0
 20
24.5
 30
0.0
 11
43.0
 21
24.5
 31
0.0
  0
LINE
  5
13A
330
1E
100
AcDbEntity
  8
0
 62
     7
100
AcDbLine
 10
43.0
 20
-22.5
 30
0.0
 11
44.0
 21
-22.5
 31
0.0
  0
LINE
  5
13B
330
1E
100
AcDbEntity
  8
0
 62
     7
100
AcDbLine
 10
43.0
 20
22.5
 30
0.0
 11
44.0
 21
22.5
 31
0.0
  0
LINE
  5
13C
330
1E
100
AcDbEntity
  8
0
 62
     7
100
AcDbLine
 10
44.0
 20
-25.0
 30
0.0
 11
54.5
 21
-25.0
 31
0.0
  0
LINE
  5
13D
330
1E
100
AcDbEntity
  8
0
 62
     7
100
AcDbLine
 10
44.0
 20
25.0
 30
0.0
 11
54.5
 21
25.0
 31
0.0
  0
LINE
  5
13E
330
1E
100
AcDbEntity
  8
0
 62
     7
100
AcDbLine
 10
62.9
 20
38.0
 30
0.0
 11
62.9
 21
38.3
 31
0.0
  0
LINE
  5
13F
330
1E
100
AcDbEntity
  8
0
 62
     7
100
AcDbLine
 10
55.1
 20
38.0
 30
0.0
 11
55.1
 21
38.3
 31
0.0
  0
LINE
  5
140
330
1E
100
AcDbEntity
  8
0
 62
     7
100
AcDbLine
 10
63.0
 20
38.3
 30
0.0
 11
55.0
 21
38.3
 31
0.0
  0
LINE
  5
141
330
1E
100
AcDbEntity
  8
0
 62
     7
100
AcDbLine
 10
55.0
 20
39.2
 30
0.0
 11
63.0
 21
39.2
 31
0.0
  0
LINE
  5
142
330
1E
100
AcDbEntity
  8
0
 62
     7
100
AcDbLine
 10
55.2
 20
39.39999999999999
 30
0.0
 11
55.0
 21
39.2
 31
0.0
  0
LINE
  5
143
330
1E
100
AcDbEntity
  8
0
 62
     7
100
AcDbLine
 10
55.0
 20
38.3
 30
0.0
 11
55.0
 21
39.2
 31
0.0
  0
LINE
  5
144
330
1E
100
AcDbEntity
  8
0
 62
     7
100
AcDbLine
 10
62.8
 20
39.39999999999999
 30
0.0
 11
63.0
 21
39.2
 31
0.0
  0
LINE
  5
145
330
1E
100
AcDbEntity
  8
0
 62
     7
100
AcDbLine
 10
55.2
 20
39.39999999999999
 30
0.0
 11
62.8
 21
39.39999999999999
 31
0.0
  0
LINE
  5
146
330
1E
100
AcDbEntity
  8
0
 62
     7
100
AcDbLine
 10
63.0
 20
38.3
 30
0.0
 11
63.0
 21
39.2
 31
0.0
  0
LINE
  5
147
330
1E
100
AcDbEntity
  8
0
  6
CENTER
 62
     2
100
AcDbLine
 10
59.0
 20
41.39999999999999
 30
0.0
 11
59.0
 21
38.0
 31
0.0
  0
LINE
  5
148
330
1E
100
AcDbEntity
  8
0
 62
     7
100
AcDbLine
 10
63.0
 20
-38.3
 30
0.0
 11
63.0
 21
-39.2
 31
0.0
  0
LINE
  5
149
330
1E
100
AcDbEntity
  8
0
 62
     7
100
AcDbLine
 10
55.2
 20
-39.39999999999999
 30
0.0
 11
62.8
 21
-39.39999999999999
 31
0.0
  0
LINE
  5
14A
330
1E
100
AcDbEntity
  8
0
 62
     7
100
AcDbLine
 10
62.8
 20
-39.39999999999999
 30
0.0
 11
63.0
 21
-39.2
 31
0.0
  0
LINE
  5
14B
330
1E
100
AcDbEntity
  8
0
 62
     7
100
AcDbLine
 10
55.0
 20
-38.3
 30
0.0
 11
55.0
 21
-39.2
 31
0.0
  0
LINE
  5
14C
330
1E
100
AcDbEntity
  8
0
 62
     7
100
AcDbLine
 10
55.2
 20
-39.39999999999999
 30
0.0
 11
55.0
 21
-39.2
 31
0.0
  0
LINE
  5
14D
330
1E
100
AcDbEntity
  8
0
 62
     7
100
AcDbLine
 10
55.0
 20
-39.2
 30
0.0
 11
63.0
 21
-39.2
 31
0.0
  0
LINE
  5
14E
330
1E
100
AcDbEntity
  8
0
 62
     7
100
AcDbLine
 10
63.0
 20
-38.3
 30
0.0
 11
55.0
 21
-38.3
 31
0.0
  0
LINE
  5
14F
330
1E
100
AcDbEntity
  8
0
 62
     7
100
AcDbLine
 10
55.1
 20
-38.0
 30
0.0
 11
55.1
 21
-38.3
 31
0.0
  0
LINE
  5
150
330
1E
100
AcDbEntity
  8
0
 62
     7
100
AcDbLine
 10
62.9
 20
-38.0
 30
0.0
 11
62.9
 21
-38.3
 31
0.0
  0
LINE
  5
151
330
1E
100
AcDbEntity
  8
0
  6
CENTER
 62
     2
100
AcDbLine
 10
59.0
 20
-41.39999999999999
 30
0.0
 11
59.0
 21
-38.0
 31
0.0
  0
LINE
  5
152
330
1E
100
AcDbEntity
  8
0
 62
     7
100
AcDbLine
 10
85.0
 20
-38.3
 30
0.0
 11
85.0
 21
-39.2
 31
0.0
  0
LINE
  5
153
330
1E
100
AcDbEntity
  8
0
 62
     7
100
AcDbLine
 10
84.8
 20
-39.39999999999999
 30
0.0
 11
85.0
 21
-39.2
 31
0.0
  0
LINE
  5
154
330
1E
100
AcDbEntity
  8
0
 62
     7
100
AcDbLine
 10
77.0
 20
-39.2
 30
0.0
 11
85.0
 21
-39.2
 31
0.0
  0
LINE
  5
155
330
1E
100
AcDbEntity
  8
0
 62
     7
100
AcDbLine
 10
77.0
 20
-38.3
 30
0.0
 11
77.0
 21
-39.2
 31
0.0
  0
LINE
  5
156
330
1E
100
AcDbEntity
  8
0
 62
     7
100
AcDbLine
 10
77.2
 20
-39.39999999999999
 30
0.0
 11
77.0
 21
-39.2
 31
0.0
  0
LINE
  5
157
330
1E
100
AcDbEntity
  8
0
 62
     7
100
AcDbLine
 10
77.2
 20
-39.39999999999999
 30
0.0
 11
84.8
 21
-39.39999999999999
 31
0.0
  0
LINE
  5
158
330
1E
100
AcDbEntity
  8
0
 62
     7
100
AcDbLine
 10
85.0
 20
-38.3
 30
0.0
 11
77.0
 21
-38.3
 31
0.0
  0
LINE
  5
159
330
1E
100
AcDbEntity
  8
0
 62
     7
100
AcDbLine
 10
77.09999999999999
 20
-38.0
 30
0.0
 11
77.09999999999999
 21
-38.3
 31
0.0
  0
LINE
  5
15A
330
1E
100
AcDbEntity
  8
0
 62
     7
100
AcDbLine
 10
84.9
 20
-38.0
 30
0.0
 11
84.9
 21
-38.3
 31
0.0
  0
LINE
  5
15B
330
1E
100
AcDbEntity
  8
0
  6
CENTER
 62
     2
100
AcDbLine
 10
81.0
 20
-41.39999999999999
 30
0.0
 11
81.0
 21
-38.0
 31
0.0
  0
LINE
  5
15C
330
1E
100
AcDbEntity
  8
0
 62
     7
100
AcDbLine
 10
84.9
 20
38.0
 30
0.0
 11
84.9
 21
38.3
 31
0.0
  0
LINE
  5
15D
330
1E
100
AcDbEntity
  8
0
 62
     7
100
AcDbLine
 10
77.09999999999999
 20
38.0
 30
0.0
 11
77.09999999999999
 21
38.3
 31
0.0
  0
LINE
  5
15E
330
1E
100
AcDbEntity
  8
0
 62
     7
100
AcDbLine
 10
85.0
 20
38.3
 30
0.0
 11
77.0
 21
38.3
 31
0.0
  0
LINE
  5
15F
330
1E
100
AcDbEntity
  8
0
 62
     7
100
AcDbLine
 10
77.2
 20
39.39999999999999
 30
0.0
 11
84.8
 21
39.39999999999999
 31
0.0
  0
LINE
  5
160
330
1E
100
AcDbEntity
  8
0
 62
     7
100
AcDbLine
 10
77.2
 20
39.39999999999999
 30
0.0
 11
77.0
 21
39.2
 31
0.0
  0
LINE
  5
161
330
1E
100
AcDbEntity
  8
0
 62
     7
100
AcDbLine
 10
77.0
 20
38.3
 30
0.0
 11
77.0
 21
39.2
 31
0.0
  0
LINE
  5
162
330
1E
100
AcDbEntity
  8
0
 62
     7
100
AcDbLine
 10
77.0
 20
39.2
 30
0.0
 11
85.0
 21
39.2
 31
0.0
  0
LINE
  5
163
330
1E
100
AcDbEntity
  8
0
 62
     7
100
AcDbLine
 10
84.8
 20
39.39999999999999
 30
0.0
 11
85.0
 21
39.2
 31
0.0
  0
LINE
  5
164
330
1E
100
AcDbEntity
  8
0
 62
     7
100
AcDbLine
 10
85.0
 20
38.3
 30
0.0
 11
85.0
 21
39.2
 31
0.0
  0
LINE
  5
165
330
1E
100
AcDbEntity
  8
0
  6
CENTER
 62
     2
100
AcDbLine
 10
81.0
 20
41.39999999999999
 30
0.0
 11
81.0
 21
38.0
 31
0.0
  0
LINE
  5
166
330
1E
100
AcDbEntity
  8
0
 62
     7
100
AcDbLine
 10
43.0
 20
24.5
 30
0.0
 11
43.0
 21
-24.5
 31
0.0
  0
LINE
  5
167
330
1E
100
AcDbEntity
  8
0
 62
     7
100
AcDbLine
 10
87.0
 20
38.0
 30
0.0
 11
87.0
 21
-38.0
 31
0.0
  0
LINE
  5
168
330
1E
100
AcDbEntity
  8
0
 62
     7
100
AcDbLine
 10
85.5
 20
38.0
 30
0.0
 11
85.5
 21
-38.0
 31
0.0
  0
LINE
  5
169
330
1E
100
AcDbEntity
  8
0
 62
     7
100
AcDbLine
 10
72.40000000000001
 20
-38.0
 30
0.0
 11
72.40000000000001
 21
38.0
 31
0.0
  0
LINE
  5
16A
330
1E
100
AcDbEntity
  8
0
 62
     7
100
AcDbLine
 10
75.59999999999999
 20
-38.0
 30
0.0
 11
75.59999999999999
 21
38.0
 31
0.0
  0
LINE
  5
16B
330
1E
100
AcDbEntity
  8
0
 62
     7
100
AcDbLine
 10
67.59999999999999
 20
-38.0
 30
0.0
 11
67.59999999999999
 21
38.0
 31
0.0
  0
LINE
  5
16C
330
1E
100
AcDbEntity
  8
0
 62
     7
100
AcDbLine
 10
64.40000000000001
 20
-38.0
 30
0.0
 11
64.40000000000001
 21
38.0
 31
0.0
  0
CIRCLE
  5
16D
330
1E
100
AcDbEntity
  8
0
 62
     7
100
AcDbCircle
 10
81.0
 20
-26.5
 30
0.0
 40
2.1
  0
CIRCLE
  5
16E
330
1E
100
AcDbEntity
  8
0
 62
     2
100
AcDbCircle
 10
81.0
 20
-26.5
 30
0.0
 40
2.5
  0
LINE
  5
16F
330
1E
100
AcDbEntity
  8
0
  6
CENTER
 62
     2
100
AcDbLine
 10
81.0
 20
-22.0
 30
0.0
 11
81.0
 21
-31.0
 31
0.0
  0
LINE
  5
170
330
1E
100
AcDbEntity
  8
0
  6
CENTER
 62
     2
100
AcDbLine
 10
85.5
 20
-26.5
 30
0.0
 11
76.5
 21
-26.5
 31
0.0
  0
CIRCLE
  5
171
330
1E
100
AcDbEntity
  8
0
 62
     7
100
AcDbCircle
 10
59.0
 20
26.5
 30
0.0
 40
2.1
  0
CIRCLE
  5
172
330
1E
100
AcDbEntity
  8
0
 62
     2
100
AcDbCircle
 10
59.0
 20
26.5
 30
0.0
 40
2.5
  0
LINE
  5
173
330
1E
100
AcDbEntity
  8
0
  6
CENTER
 62
     2
100
AcDbLine
 10
59.0
 20
22.0
 30
0.0
 11
59.0
 21
31.0
 31
0.0
  0
LINE
  5
174
330
1E
100
AcDbEntity
  8
0
  6
CENTER
 62
     2
100
AcDbLine
 10
54.5
 20
26.5
 30
0.0
 11
63.5
 21
26.5
 31
0.0
  0
LINE
  5
175
330
1E
100
AcDbEntity
  8
0
 62
     7
100
AcDbLine
 10
54.5
 20
-25.0
 30
0.0
 11
54.5
 21
-38.0
 31
0.0
  0
LINE
  5
176
330
1E
100
AcDbEntity
  8
0
 62
     7
100
AcDbLine
 10
53.0
 20
-25.0
 30
0.0
 11
53.0
 21
-38.0
 31
0.0
  0
LINE
  5
177
330
1E
100
AcDbEntity
  8
0
 62
     7
100
AcDbLine
 10
54.5
 20
25.0
 30
0.0
 11
54.5
 21
38.0
 31
0.0
  0
LINE
  5
178
330
1E
100
AcDbEntity
  8
0
 62
     7
100
AcDbLine
 10
53.0
 20
25.0
 30
0.0
 11
53.0
 21
38.0
 31
0.0
  0
LINE
  5
179
330
1E
100
AcDbEntity
  8
0
  6
CENTER
 62
     2
100
AcDbLine
 10
35.0
 20
0.0
 30
0.0
 11
91.0
 21
0.0
 31
0.0
  0
LINE
  5
17A
330
1E
100
AcDbEntity
  8
0
 62
     7
100
AcDbLine
 10
52.99998470000001
 20
-38.0
 30
0.0
 11
87.0
 21
-38.0
 31
0.0
  0
LINE
  5
17B
330
1E
100
AcDbEntity
  8
0
 62
     7
100
AcDbLine
 10
53.0
 20
38.0
 30
0.0
 11
87.0
 21
38.0
 31
0.0
  0
LINE
  5
17C
330
1E
100
AcDbEntity
  8
0
  6
CENTER
 62
     2
100
AcDbLine
 10
70.0
 20
-42.0
 30
0.0
 11
70.0
 21
42.0
 31
0.0
  0
LINE
  5
17D
330
1E
100
AcDbEntity
  8
0
 62
     7
100
AcDbLine
 10
44.0
 20
25.0
 30
0.0
 11
44.0
 21
-25.0
 31
0.0
  0
LINE
  5
17E
330
1E
100
AcDbEntity
  8
0
 62
     7
100
AcDbLine
 10
39.0
 20
-24.5
 30
0.0
 11
39.0
 21
24.5
 31
0.0
  0
LINE
  5
17F
330
1E
100
AcDbEntity
  8
0
  6
CENTER
 62
     2
100
AcDbLine
 10
43.5
 20
-17.5
 30
0.0
 11
57.5
 21
-17.5
 31
0.0
  0
LINE
  5
180
330
1E
100
AcDbEntity
  8
0
  6
CENTER
 62
     2
100
AcDbLine
 10
50.5
 20
-24.5
 30
0.0
 11
50.5
 21
-10.5
 31
0.0
  0
LINE
  5
181
330
1E
100
AcDbEntity
  8
0
 62
     7
100
AcDbLine
 10
50.5
 20
-23.2735027
 30
0.0
 11
45.49999999999999
 21
-20.3867513
 31
0.0
  0
LINE
  5
182
330
1E
100
AcDbEntity
  8
0
 62
     7
100
AcDbLine
 10
55.5
 20
-20.3867513
 30
0.0
 11
50.5
 21
-23.2735027
 31
0.0
  0
CIRCLE
  5
183
330
1E
100
AcDbEntity
  8
0
 62
     7
100
AcDbCircle
 10
50.5
 20
-17.5
 30
0.0
 40
5.0
  0
CIRCLE
  5
184
330
1E
100
AcDbEntity
  8
0
 62
     7
100
AcDbCircle
 10
50.5
 20
-17.5
 30
0.0
 40
4.0
  0
LINE
  5
185
330
1E
100
AcDbEntity
  8
0
 62
     7
100
AcDbLine
 10
45.49999999999999
 20
-20.3867513
 30
0.0
 11
45.49999999999999
 21
-14.6132487
 31
0.0
  0
LINE
  5
186
330
1E
100
AcDbEntity
  8
0
 62
     7
100
AcDbLine
 10
45.49999999999999
 20
-14.6132487
 30
0.0
 11
50.5
 21
-11.7264973
 31
0.0
  0
LINE
  5
187
330
1E
100
AcDbEntity
  8
0
 62
     7
100
AcDbLine
 10
50.5
 20
-11.7264973
 30
0.0
 11
55.5
 21
-14.6132487
 31
0.0
  0
LINE
  5
188
330
1E
100
AcDbEntity
  8
0
 62
     7
100
AcDbLine
 10
55.5
 20
-14.6132487
 30
0.0
 11
55.5
 21
-20.3867513
 31
0.0
  0
CIRCLE
  5
189
330
1E
100
AcDbEntity
  8
0
 62
     2
100
AcDbCircle
 10
50.5
 20
-17.5
 30
0.0
 40
3.6
  0
LINE
  5
18A
330
1E
100
AcDbEntity
  8
0
 62
     7
100
AcDbLine
 10
46.545256
 20
-16.89999999999999
 30
0.0
 11
54.45474399999999
 21
-16.89999999999999
 31
0.0
  0
LINE
  5
18B
330
1E
100
AcDbEntity
  8
0
 62
     7
100
AcDbLine
 10
46.545256
 20
-18.1
 30
0.0
 11
54.45474399999999
 21
-18.1
 31
0.0
  0
LINE
  5
18C
330
1E
100
AcDbEntity
  8
0
  6
CENTER
 62
     2
100
AcDbLine
 10
43.5
 20
17.5
 30
0.0
 11
57.5
 21
17.5
 31
0.0
  0
LINE
  5
18D
330
1E
100
AcDbEntity
  8
0
  6
CENTER
 62
     2
100
AcDbLine
 10
50.5
 20
24.5
 30
0.0
 11
50.5
 21
10.5
 31
0.0
  0
LINE
  5
18E
330
1E
100
AcDbEntity
  8
0
 62
     7
100
AcDbLine
 10
50.5
 20
23.2735027
 30
0.0
 11
45.49999999999999
 21
20.3867513
 31
0.0
  0
LINE
  5
18F
330
1E
100
AcDbEntity
  8
0
 62
     7
100
AcDbLine
 10
55.5
 20
20.3867513
 30
0.0
 11
50.5
 21
23.2735027
 31
0.0
  0
LINE
  5
190
330
1E
100
AcDbEntity
  8
0
 62
     7
100
AcDbLine
 10
46.545256
 20
18.1
 30
0.0
 11
54.45474399999999
 21
18.1
 31
0.0
  0
LINE
  5
191
330
1E
100
AcDbEntity
  8
0
 62
     7
100
AcDbLine
 10
46.545256
 20
16.89999999999999
 30
0.0
 11
54.45474399999999
 21
16.89999999999999
 31
0.0
  0
CIRCLE
  5
192
330
1E
100
AcDbEntity
  8
0
 62
     2
100
AcDbCircle
 10
50.5
 20
17.5
 30
0.0
 40
3.6
  0
LINE
  5
193
330
1E
100
AcDbEntity
  8
0
 62
     7
100
AcDbLine
 10
55.5
 20
14.6132487
 30
0.0
 11
55.5
 21
20.3867513
 31
0.0
  0
LINE
  5
194
330
1E
100
AcDbEntity
  8
0
 62
     7
100
AcDbLine
 10
50.5
 20
11.7264973
 30
0.0
 11
55.5
 21
14.6132487
 31
0.0
  0
LINE
  5
195
330
1E
100
AcDbEntity
  8
0
 62
     7
100
AcDbLine
 10
45.49999999999999
 20
14.6132487
 30
0.0
 11
50.5
 21
11.7264973
 31
0.0
  0
LINE
  5
196
330
1E
100
AcDbEntity
  8
0
 62
     7
100
AcDbLine
 10
45.49999999999999
 20
20.3867513
 30
0.0
 11
45.49999999999999
 21
14.6132487
 31
0.0
  0
CIRCLE
  5
197
330
1E
100
AcDbEntity
  8
0
 62
     7
100
AcDbCircle
 10
50.5
 20
17.5
 30
0.0
 40
4.0
  0
CIRCLE
  5
198
330
1E
100
AcDbEntity
  8
0
 62
     7
100
AcDbCircle
 10
50.5
 20
17.5
 30
0.0
 40
5.0
  0
LINE
  5
199
330
1E
100
AcDbEntity
  8
0
 62
     7
100
AcDbLine
 10
-97.1
 20
133.0
 30
0.0
 11
-97.1
 21
125.0
 31
0.0
  0
LINE
  5
19A
330
1E
100
AcDbEntity
  8
0
 62
     7
100
AcDbLine
 10
-98.2
 20
125.2
 30
0.0
 11
-98.2
 21
132.8
 31
0.0
  0
LINE
  5
19B
330
1E
100
AcDbEntity
  8
0
 62
     7
100
AcDbLine
 10
-98.2
 20
125.2
 30
0.0
 11
-98.0
 21
125.0
 31
0.0
  0
LINE
  5
19C
330
1E
100
AcDbEntity
  8
0
 62
     7
100
AcDbLine
 10
-97.1
 20
125.0
 30
0.0
 11
-98.0
 21
125.0
 31
0.0
  0
LINE
  5
19D
330
1E
100
AcDbEntity
  8
0
 62
     7
100
AcDbLine
 10
-98.0
 20
125.0
 30
0.0
 11
-98.0
 21
133.0
 31
0.0
  0
LINE
  5
19E
330
1E
100
AcDbEntity
  8
0
 62
     7
100
AcDbLine
 10
-98.2
 20
132.8
 30
0.0
 11
-98.0
 21
133.0
 31
0.0
  0
LINE
  5
19F
330
1E
100
AcDbEntity
  8
0
 62
     7
100
AcDbLine
 10
-97.1
 20
133.0
 30
0.0
 11
-98.0
 21
133.0
 31
0.0
  0
LINE
  5
1A0
330
1E
100
AcDbEntity
  8
0
 62
     7
100
AcDbLine
 10
-97.1
 20
125.0999999999999
 30
0.0
 11
-96.5
 21
125.0999999999999
 31
0.0
  0
LINE
  5
1A1
330
1E
100
AcDbEntity
  8
0
 62
     7
100
AcDbLine
 10
-97.1
 20
132.9
 30
0.0
 11
-96.5
 21
132.9
 31
0.0
  0
LINE
  5
1A2
330
1E
100
AcDbEntity
  8
0
  6
CENTER
 62
     2
100
AcDbLine
 10
-100.2
 20
129.0
 30
0.0
 11
-96.5
 21
129.0
 31
0.0
  0
LINE
  5
1A3
330
1E
100
AcDbEntity
  8
0
 62
     7
100
AcDbLine
 10
-97.1
 20
147.0
 30
0.0
 11
-98.0
 21
147.0
 31
0.0
  0
LINE
  5
1A4
330
1E
100
AcDbEntity
  8
0
 62
     7
100
AcDbLine
 10
-98.2
 20
147.1999999999999
 30
0.0
 11
-98.0
 21
147.0
 31
0.0
  0
LINE
  5
1A5
330
1E
100
AcDbEntity
  8
0
 62
     7
100
AcDbLine
 10
-97.1
 20
155.0
 30
0.0
 11
-98.0
 21
155.0
 31
0.0
  0
LINE
  5
1A6
330
1E
100
AcDbEntity
  8
0
 62
     7
100
AcDbLine
 10
-98.2
 20
154.8
 30
0.0
 11
-98.0
 21
155.0
 31
0.0
  0
LINE
  5
1A7
330
1E
100
AcDbEntity
  8
0
 62
     7
100
AcDbLine
 10
-98.2
 20
147.1999999999999
 30
0.0
 11
-98.2
 21
154.8
 31
0.0
  0
LINE
  5
1A8
330
1E
100
AcDbEntity
  8
0
 62
     7
100
AcDbLine
 10
-98.0
 20
147.0
 30
0.0
 11
-98.0
 21
155.0
 31
0.0
  0
LINE
  5
1A9
330
1E
100
AcDbEntity
  8
0
 62
     7
100
AcDbLine
 10
-97.1
 20
147.0
 30
0.0
 11
-97.1
 21
155.0
 31
0.0
  0
LINE
  5
1AA
330
1E
100
AcDbEntity
  8
0
  6
CENTER
 62
     2
100
AcDbLine
 10
-96.5
 20
151.0
 30
0.0
 11
-100.2
 21
151.0
 31
0.0
  0
LINE
  5
1AB
330
1E
100
AcDbEntity
  8
0
 62
     7
100
AcDbLine
 10
-96.5
 20
154.9
 30
0.0
 11
-97.1
 21
154.9
 31
0.0
  0
LINE
  5
1AC
330
1E
100
AcDbEntity
  8
0
 62
     7
100
AcDbLine
 10
-96.5
 20
147.0999999999999
 30
0.0
 11
-97.1
 21
147.0999999999999
 31
0.0
  0
LINE
  5
1AD
330
1E
100
AcDbEntity
  8
0
 62
     7
100
AcDbLine
 10
-45.49999999999999
 20
113.0
 30
0.0
 11
-94.50000000000001
 21
113.0
 31
0.0
  0
LINE
  5
1AE
330
1E
100
AcDbEntity
  8
0
 62
     7
100
AcDbLine
 10
-45.49999999999999
 20
109.0
 30
0.0
 11
-45.49999999999999
 21
113.0
 31
0.0
  0
LINE
  5
1AF
330
1E
100
AcDbEntity
  8
0
 62
     7
100
AcDbLine
 10
-94.50000000000001
 20
113.0
 30
0.0
 11
-94.50000000000001
 21
109.0
 31
0.0
  0
LINE
  5
1B0
330
1E
100
AcDbEntity
  8
0
  6
CENTER
 62
     2
100
AcDbLine
 10
-70.0
 20
105.0
 30
0.0
 11
-70.0
 21
161.0
 31
0.0
  0
LINE
  5
1B1
330
1E
100
AcDbEntity
  8
0
 62
     7
100
AcDbLine
 10
-43.05340029999999
 20
120.5
 30
0.0
 11
-41.94659620000001
 21
120.5
 31
0.0
  0
LINE
  5
1B2
330
1E
100
AcDbEntity
  8
0
 62
     7
100
AcDbLine
 10
-41.5
 20
125.5
 30
0.0
 11
-41.5
 21
115.5
 31
0.0
  0
LINE
  5
1B3
330
1E
100
AcDbEntity
  8
0
 62
     7
100
AcDbLine
 10
-43.5
 20
115.5
 30
0.0
 11
-41.5
 21
115.5
 31
0.0
  0
LINE
  5
1B4
330
1E
100
AcDbEntity
  8
0
 62
     7
100
AcDbLine
 10
-43.49997759999999
 20
125.5
 30
0.0
 11
-41.5
 21
125.5
 31
0.0
  0
LINE
  5
1B5
330
1E
100
AcDbEntity
  8
0
 62
     7
100
AcDbLine
 10
-83.0
 20
157.0
 30
0.0
 11
-95.0
 21
157.0
 31
0.0
  0
LINE
  5
1B6
330
1E
100
AcDbEntity
  8
0
 62
     7
100
AcDbLine
 10
-83.0
 20
157.0
 30
0.0
 11
-82.5
 21
156.4999999999999
 31
0.0
  0
LINE
  5
1B7
330
1E
100
AcDbEntity
  8
0
 62
     7
100
AcDbLine
 10
-57.0
 20
157.0
 30
0.0
 11
-57.5
 21
156.4999999999999
 31
0.0
  0
LINE
  5
1B8
330
1E
100
AcDbEntity
  8
0
 62
     7
100
AcDbLine
 10
-57.5
 20
156.4999999999999
 30
0.0
 11
-82.5
 21
156.4999999999999
 31
0.0
  0
LINE
  5
1B9
330
1E
100
AcDbEntity
  8
0
 62
     7
100
AcDbLine
 10
-95.0
 20
157.0
 30
0.0
 11
-96.5
 21
155.4999999999999
 31
0.0
  0
LINE
  5
1BA
330
1E
100
AcDbEntity
  8
0
 62
     7
100
AcDbLine
 10
-43.5
 20
155.4999999999999
 30
0.0
 11
-45.0
 21
157.0
 31
0.0
  0
LINE
  5
1BB
330
1E
100
AcDbEntity
  8
0
 62
     7
100
AcDbLine
 10
-45.0
 20
157.0
 30
0.0
 11
-57.0
 21
157.0
 31
0.0
  0
LINE
  5
1BC
330
1E
100
AcDbEntity
  8
0
 62
     7
100
AcDbLine
 10
-44.20000029999999
 20
142.4
 30
0.0
 11
-44.42500029999999
 21
142.4
 31
0.0
  0
LINE
  5
1BD
330
1E
100
AcDbEntity
  8
0
 62
     7
100
AcDbLine
 10
-43.90000029999999
 20
145.5999999999999
 30
0.0
 11
-44.42500029999999
 21
145.5999999999999
 31
0.0
  0
LINE
  5
1BE
330
1E
100
AcDbEntity
  8
0
 62
     7
100
AcDbLine
 10
-46.52500029999999
 20
141.925
 30
0.0
 11
-44.9000003
 21
141.925
 31
0.0
  0
LINE
  5
1BF
330
1E
100
AcDbEntity
  8
0
 62
     7
100
AcDbLine
 10
-44.9000003
 20
141.925
 30
0.0
 11
-44.42500029999999
 21
142.4
 31
0.0
  0
ARC
  5
1C0
330
1E
100
AcDbEntity
  8
0
 62
     7
100
AcDbCircle
 10
-44.20000029999999
 20
142.1
 30
0.0
 40
0.3
100
AcDbArc
 50
0.0
 51
90.00000020000001
  0
LINE
  5
1C1
330
1E
100
AcDbEntity
  8
0
 62
     7
100
AcDbLine
 10
-44.9000003
 20
146.0749999999999
 30
0.0
 11
-44.42500029999999
 21
145.5999999999999
 31
0.0
  0
LINE
  5
1C2
330
1E
100
AcDbEntity
  8
0
 62
     7
100
AcDbLine
 10
-43.90000029999999
 20
145.5999999999999
 30
0.0
 11
-43.50000029999999
 21
146.0
 31
0.0
  0
ARC
  5
1C3
330
1E
100
AcDbEntity
  8
0
 62
     7
100
AcDbCircle
 10
-44.20000029999999
 20
137.9
 30
0.0
 40
0.3
100
AcDbArc
 50
270.0
 51
0.0
  0
LINE
  5
1C4
330
1E
100
AcDbEntity
  8
0
 62
     7
100
AcDbLine
 10
-43.90000029999999
 20
142.1
 30
0.0
 11
-43.90000029999999
 21
137.9
 31
0.0
  0
LINE
  5
1C5
330
1E
100
AcDbEntity
  8
0
 62
     7
100
AcDbLine
 10
-44.9000003
 20
138.0749999999999
 30
0.0
 11
-44.42500029999999
 21
137.5999999999999
 31
0.0
  0
LINE
  5
1C6
330
1E
100
AcDbEntity
  8
0
 62
     7
100
AcDbLine
 10
-44.9000003
 20
133.925
 30
0.0
 11
-44.42500029999999
 21
134.4
 31
0.0
  0
LINE
  5
1C7
330
1E
100
AcDbEntity
  8
0
 62
     7
100
AcDbLine
 10
-46.52500029999999
 20
133.925
 30
0.0
 11
-44.9000003
 21
133.925
 31
0.0
  0
LINE
  5
1C8
330
1E
100
AcDbEntity
  8
0
 62
     7
100
AcDbLine
 10
-46.52500029999999
 20
138.0749999999999
 30
0.0
 11
-44.9000003
 21
138.0749999999999
 31
0.0
  0
LINE
  5
1C9
330
1E
100
AcDbEntity
  8
0
 62
     7
100
AcDbLine
 10
-43.90000029999999
 20
134.4
 30
0.0
 11
-43.50000029999999
 21
134.0
 31
0.0
  0
LINE
  5
1CA
330
1E
100
AcDbEntity
  8
0
 62
     7
100
AcDbLine
 10
-43.90000029999999
 20
134.4
 30
0.0
 11
-44.42500029999999
 21
134.4
 31
0.0
  0
LINE
  5
1CB
330
1E
100
AcDbEntity
  8
0
 62
     7
100
AcDbLine
 10
-44.20000029999999
 20
137.5999999999999
 30
0.0
 11
-44.42500029999999
 21
137.5999999999999
 31
0.0
  0
LINE
  5
1CC
330
1E
100
AcDbEntity
  8
0
 62
     7
100
AcDbLine
 10
-46.52500029999999
 20
146.0749999999999
 30
0.0
 11
-44.87499999999999
 21
146.074993
 31
0.0
  0
LINE
  5
1CD
330
1E
100
AcDbEntity
  8
0
 62
     7
100
AcDbLine
 10
-43.5
 20
134.0
 30
0.0
 11
-43.5
 21
114.0
 31
0.0
  0
LINE
  5
1CE
330
1E
100
AcDbEntity
  8
0
 62
     7
100
AcDbLine
 10
-43.5
 20
155.4999999999999
 30
0.0
 11
-43.5
 21
146.0
 31
0.0
  0
ARC
  5
1CF
330
1E
100
AcDbEntity
  8
0
 62
     7
100
AcDbCircle
 10
-46.52500029999999
 20
144.0
 30
0.0
 40
2.075
100
AcDbArc
 50
90.00000020000001
 51
270.0
  0
LINE
  5
1D0
330
1E
100
AcDbEntity
  8
0
  6
CENTER
 62
     2
100
AcDbLine
 10
-50.0470131
 20
144.0
 30
0.0
 11
-41.5000003
 21
144.0
 31
0.0
  0
ARC
  5
1D1
330
1E
100
AcDbEntity
  8
0
 62
     7
100
AcDbCircle
 10
-46.52500029999999
 20
136.0
 30
0.0
 40
2.075
100
AcDbArc
 50
90.00000020000001
 51
270.0
  0
LINE
  5
1D2
330
1E
100
AcDbEntity
  8
0
  6
CENTER
 62
     2
100
AcDbLine
 10
-50.0470131
 20
136.0
 30
0.0
 11
-41.5000003
 21
136.0
 31
0.0
  0
LINE
  5
1D3
330
1E
100
AcDbEntity
  8
0
 62
     7
100
AcDbLine
 10
-93.47499969999999
 20
146.0749999999999
 30
0.0
 11
-95.12500000000001
 21
146.074993
 31
0.0
  0
LINE
  5
1D4
330
1E
100
AcDbEntity
  8
0
 62
     7
100
AcDbLine
 10
-95.79999970000001
 20
137.5999999999999
 30
0.0
 11
-95.5749997
 21
137.5999999999999
 31
0.0
  0
LINE
  5
1D5
330
1E
100
AcDbEntity
  8
0
 62
     7
100
AcDbLine
 10
-96.0999997
 20
134.4
 30
0.0
 11
-95.5749997
 21
134.4
 31
0.0
  0
LINE
  5
1D6
330
1E
100
AcDbEntity
  8
0
 62
     7
100
AcDbLine
 10
-96.0999997
 20
134.4
 30
0.0
 11
-96.49999970000001
 21
134.0
 31
0.0
  0
LINE
  5
1D7
330
1E
100
AcDbEntity
  8
0
 62
     7
100
AcDbLine
 10
-93.47499969999999
 20
138.0749999999999
 30
0.0
 11
-95.0999997
 21
138.0749999999999
 31
0.0
  0
LINE
  5
1D8
330
1E
100
AcDbEntity
  8
0
 62
     7
100
AcDbLine
 10
-93.47499969999999
 20
133.925
 30
0.0
 11
-95.0999997
 21
133.925
 31
0.0
  0
LINE
  5
1D9
330
1E
100
AcDbEntity
  8
0
 62
     7
100
AcDbLine
 10
-95.0999997
 20
133.925
 30
0.0
 11
-95.5749997
 21
134.4
 31
0.0
  0
LINE
  5
1DA
330
1E
100
AcDbEntity
  8
0
 62
     7
100
AcDbLine
 10
-95.0999997
 20
138.0749999999999
 30
0.0
 11
-95.5749997
 21
137.5999999999999
 31
0.0
  0
LINE
  5
1DB
330
1E
100
AcDbEntity
  8
0
 62
     7
100
AcDbLine
 10
-96.0999997
 20
137.9
 30
0.0
 11
-96.0999997
 21
142.1
 31
0.0
  0
ARC
  5
1DC
330
1E
100
AcDbEntity
  8
0
 62
     7
100
AcDbCircle
 10
-95.79999970000001
 20
137.9
 30
0.0
 40
0.3
100
AcDbArc
 50
180.0
 51
270.0
  0
LINE
  5
1DD
330
1E
100
AcDbEntity
  8
0
 62
     7
100
AcDbLine
 10
-96.0999997
 20
145.5999999999999
 30
0.0
 11
-96.49999970000001
 21
146.0
 31
0.0
  0
LINE
  5
1DE
330
1E
100
AcDbEntity
  8
0
 62
     7
100
AcDbLine
 10
-95.0999997
 20
146.0749999999999
 30
0.0
 11
-95.5749997
 21
145.5999999999999
 31
0.0
  0
ARC
  5
1DF
330
1E
100
AcDbEntity
  8
0
 62
     7
100
AcDbCircle
 10
-95.79999970000001
 20
142.1
 30
0.0
 40
0.3
100
AcDbArc
 50
90.00000020000001
 51
180.0
  0
LINE
  5
1E0
330
1E
100
AcDbEntity
  8
0
 62
     7
100
AcDbLine
 10
-95.0999997
 20
141.925
 30
0.0
 11
-95.5749997
 21
142.4
 31
0.0
  0
LINE
  5
1E1
330
1E
100
AcDbEntity
  8
0
 62
     7
100
AcDbLine
 10
-93.47499969999999
 20
141.925
 30
0.0
 11
-95.0999997
 21
141.925
 31
0.0
  0
LINE
  5
1E2
330
1E
100
AcDbEntity
  8
0
 62
     7
100
AcDbLine
 10
-96.0999997
 20
145.5999999999999
 30
0.0
 11
-95.5749997
 21
145.5999999999999
 31
0.0
  0
LINE
  5
1E3
330
1E
100
AcDbEntity
  8
0
 62
     7
100
AcDbLine
 10
-95.79999970000001
 20
142.4
 30
0.0
 11
-95.5749997
 21
142.4
 31
0.0
  0
LINE
  5
1E4
330
1E
100
AcDbEntity
  8
0
 62
     7
100
AcDbLine
 10
-96.5
 20
134.0
 30
0.0
 11
-96.5
 21
124.5
 31
0.0
  0
LINE
  5
1E5
330
1E
100
AcDbEntity
  8
0
 62
     7
100
AcDbLine
 10
-96.5
 20
155.4999999999999
 30
0.0
 11
-96.5
 21
146.0
 31
0.0
  0
ARC
  5
1E6
330
1E
100
AcDbEntity
  8
0
 62
     7
100
AcDbCircle
 10
-93.47499969999999
 20
144.0
 30
0.0
 40
2.075
100
AcDbArc
 50
270.0
 51
90.00000020000001
  0
LINE
  5
1E7
330
1E
100
AcDbEntity
  8
0
  6
CENTER
 62
     2
100
AcDbLine
 10
-89.95298690000002
 20
144.0
 30
0.0
 11
-98.4999997
 21
144.0
 31
0.0
  0
ARC
  5
1E8
330
1E
100
AcDbEntity
  8
0
 62
     7
100
AcDbCircle
 10
-93.47499969999999
 20
136.0
 30
0.0
 40
2.075
100
AcDbArc
 50
270.0
 51
90.00000020000001
  0
LINE
  5
1E9
330
1E
100
AcDbEntity
  8
0
  6
CENTER
 62
     2
100
AcDbLine
 10
-89.95298690000002
 20
136.0
 30
0.0
 11
-98.4999997
 21
136.0
 31
0.0
  0
CIRCLE
  5
1EA
330
1E
100
AcDbEntity
  8
0
 62
     7
100
AcDbCircle
 10
-55.9266968
 20
147.7377399999999
 30
0.0
 40
0.472222209
  0
CIRCLE
  5
1EB
330
1E
100
AcDbEntity
  8
0
 62
     7
100
AcDbCircle
 10
-60.07333370000001
 20
147.7377399999999
 30
0.0
 40
0.472222209
  0
ARC
  5
1EC
330
1E
100
AcDbEntity
  8
0
 62
     7
100
AcDbCircle
 10
-60.07333370000001
 20
147.7377399999999
 30
0.0
 40
1.0
100
AcDbArc
 50
199.721051
 51
41.2207021
  0
ARC
  5
1ED
330
1E
100
AcDbEntity
  8
0
 62
     7
100
AcDbCircle
 10
-55.9266968
 20
147.7377399999999
 30
0.0
 40
1.0
100
AcDbArc
 50
138.779385
 51
340.2789809999999
  0
LINE
  5
1EE
330
1E
100
AcDbEntity
  8
0
  6
CENTER
 62
     2
100
AcDbLine
 10
-58.0
 20
150.5
 30
0.0
 11
-58.0
 21
129.4999999999999
 31
0.0
  0
CIRCLE
  5
1EF
330
1E
100
AcDbEntity
  8
0
 62
     7
100
AcDbCircle
 10
-58.0
 20
140.0
 30
0.0
 40
8.5
  0
ARC
  5
1F0
330
1E
100
AcDbEntity
  8
0
 62
     7
100
AcDbCircle
 10
-58.0
 20
140.4722209999999
 30
0.0
 40
7.555555339999999
100
AcDbArc
 50
113.0935709999999
 51
66.9065025
  0
LINE
  5
1F1
330
1E
100
AcDbEntity
  8
0
 62
     7
100
AcDbLine
 10
-95.0
 20
123.0
 30
0.0
 11
-96.5
 21
124.5
 31
0.0
  0
LINE
  5
1F2
330
1E
100
AcDbEntity
  8
0
 62
     7
100
AcDbLine
 10
-43.5
 20
123.0
 30
0.0
 11
-95.0
 21
123.0
 31
0.0
  0
LINE
  5
1F3
330
1E
100
AcDbEntity
  8
0
 62
     7
100
AcDbLine
 10
-95.0
 20
114.0
 30
0.0
 11
-95.0
 21
123.0
 31
0.0
  0
LINE
  5
1F4
330
1E
100
AcDbEntity
  8
0
 62
     7
100
AcDbLine
 10
-43.4999619
 20
114.0
 30
0.0
 11
-95.0
 21
114.0
 31
0.0
  0
LINE
  5
1F5
330
1E
100
AcDbEntity
  8
0
 62
     7
100
AcDbLine
 10
-47.5
 20
113.0
 30
0.0
 11
-47.5
 21
113.9999959999999
 31
0.0
  0
LINE
  5
1F6
330
1E
100
AcDbEntity
  8
0
  6
CENTER
 62
     2
100
AcDbLine
 10
-82.0
 20
150.5
 30
0.0
 11
-82.0
 21
129.4999999999999
 31
0.0
  0
LINE
  5
1F7
330
1E
100
AcDbEntity
  8
0
  6
CENTER
 62
     2
100
AcDbLine
 10
-92.5
 20
140.0
 30
0.0
 11
-47.5
 21
140.0
 31
0.0
  0
LINE
  5
1F8
330
1E
100
AcDbEntity
  8
0
 62
     7
100
AcDbLine
 10
-94.50000000000001
 20
109.0
 30
0.0
 11
-45.49999999999999
 21
109.0
 31
0.0
  0
LINE
  5
1F9
330
1E
100
AcDbEntity
  8
0
 62
     7
100
AcDbLine
 10
-92.5
 20
113.9999959999999
 30
0.0
 11
-92.5
 21
113.0
 31
0.0
  0
ARC
  5
1FA
330
1E
100
AcDbEntity
  8
0
 62
     7
100
AcDbCircle
 10
-84.07330319999999
 20
147.7377399999999
 30
0.0
 40
1.0
100
AcDbArc
 50
199.721019
 51
41.2206151
  0
ARC
  5
1FB
330
1E
100
AcDbEntity
  8
0
 62
     7
100
AcDbCircle
 10
-79.92666629999999
 20
147.7377399999999
 30
0.0
 40
1.0
100
AcDbArc
 50
138.779298
 51
340.2789489999999
  0
CIRCLE
  5
1FC
330
1E
100
AcDbEntity
  8
0
 62
     7
100
AcDbCircle
 10
-82.0
 20
140.0
 30
0.0
 40
8.5
  0
ARC
  5
1FD
330
1E
100
AcDbEntity
  8
0
 62
     7
100
AcDbCircle
 10
-82.0
 20
140.4722209999999
 30
0.0
 40
7.555555339999999
100
AcDbArc
 50
113.0934969999999
 51
66.90642920000001
  0
CIRCLE
  5
1FE
330
1E
100
AcDbEntity
  8
0
 62
     7
100
AcDbCircle
 10
-79.92666629999999
 20
147.7377399999999
 30
0.0
 40
0.472222209
  0
CIRCLE
  5
1FF
330
1E
100
AcDbEntity
  8
0
 62
     7
100
AcDbCircle
 10
-84.07330319999999
 20
147.7377399999999
 30
0.0
 40
0.472222209
  0
LINE
  5
200
330
1E
100
AcDbEntity
  8
0
  6
CENTER
 62
     2
100
AcDbLine
 10
-89.50000000000001
 20
157.2499999999999
 30
0.0
 11
-89.50000000000001
 21
144.7499999999999
 31
0.0
  0
LINE
  5
201
330
1E
100
AcDbEntity
  8
0
  6
CENTER
 62
     2
100
AcDbLine
 10
-83.25000000000001
 20
151.0
 30
0.0
 11
-95.75000000000001
 21
151.0
 31
0.0
  0
CIRCLE
  5
202
330
1E
100
AcDbEntity
  8
0
 62
     7
100
AcDbCircle
 10
-89.50000000000001
 20
151.0
 30
0.0
 40
4.25
  0
CIRCLE
  5
203
330
1E
100
AcDbEntity
  8
0
 62
     7
100
AcDbCircle
 10
-89.50000000000001
 20
151.0
 30
0.0
 40
4.0
  0
LINE
  5
204
330
1E
100
AcDbEntity
  8
0
 62
     7
100
AcDbLine
 10
-89.0
 20
154.968627
 30
0.0
 11
-89.0
 21
147.0313729999999
 31
0.0
  0
LINE
  5
205
330
1E
100
AcDbEntity
  8
0
 62
     7
100
AcDbLine
 10
-90.0
 20
154.968627
 30
0.0
 11
-90.0
 21
147.0313729999999
 31
0.0
  0
LINE
  5
206
330
1E
100
AcDbEntity
  8
0
  6
CENTER
 62
     2
100
AcDbLine
 10
-50.5
 20
135.25
 30
0.0
 11
-50.5
 21
122.75
 31
0.0
  0
LINE
  5
207
330
1E
100
AcDbEntity
  8
0
  6
CENTER
 62
     2
100
AcDbLine
 10
-44.24999999999999
 20
129.0
 30
0.0
 11
-56.75
 21
129.0
 31
0.0
  0
CIRCLE
  5
208
330
1E
100
AcDbEntity
  8
0
 62
     7
100
AcDbCircle
 10
-50.5
 20
129.0
 30
0.0
 40
4.25
  0
CIRCLE
  5
209
330
1E
100
AcDbEntity
  8
0
 62
     7
100
AcDbCircle
 10
-50.5
 20
129.0
 30
0.0
 40
4.0
  0
LINE
  5
20A
330
1E
100
AcDbEntity
  8
0
 62
     7
100
AcDbLine
 10
-50.0
 20
132.968627
 30
0.0
 11
-50.0
 21
125.031373
 31
0.0
  0
LINE
  5
20B
330
1E
100
AcDbEntity
  8
0
 62
     7
100
AcDbLine
 10
-51.0
 20
132.968627
 30
0.0
 11
-51.0
 21
125.031373
 31
0.0
  0
LINE
  5
20C
330
1E
100
AcDbEntity
  8
0
  6
CENTER
 62
     2
100
AcDbLine
 10
-43.5000005
 20
120.5
 30
0.0
 11
-33.000014
 21
120.5
 31
0.0
  0
LINE
  5
20D
330
1E
100
AcDbEntity
  8
0
 62
     7
100
AcDbLine
 10
-35.000014
 20
117.0
 30
0.0
 11
-35.000014
 21
124.0
 31
0.0
  0
LINE
  5
20E
330
1E
100
AcDbEntity
  8
0
 62
     7
100
AcDbLine
 10
-35.500014
 20
116.5
 30
0.0
 11
-35.500014
 21
124.5
 31
0.0
  0
LINE
  5
20F
330
1E
100
AcDbEntity
  8
0
 62
     2
100
AcDbLine
 10
-35.125014
 20
124.1249999999999
 30
0.0
 11
-41.50001399999999
 21
124.1249999999999
 31
0.0
  0
LINE
  5
210
330
1E
100
AcDbEntity
  8
0
 62
     7
100
AcDbLine
 10
-41.50001399999999
 20
124.5
 30
0.0
 11
-35.500014
 21
124.5
 31
0.0
  0
LINE
  5
211
330
1E
100
AcDbEntity
  8
0
 62
     7
100
AcDbLine
 10
-35.500014
 20
124.5
 30
0.0
 11
-35.000014
 21
124.0
 31
0.0
  0
LINE
  5
212
330
1E
100
AcDbEntity
  8
0
 62
     2
100
AcDbLine
 10
-41.50001399999999
 20
116.8749999999999
 30
0.0
 11
-35.125014
 21
116.8749999999999
 31
0.0
  0
LINE
  5
213
330
1E
100
AcDbEntity
  8
0
 62
     7
100
AcDbLine
 10
-41.50001399999999
 20
116.5
 30
0.0
 11
-35.500014
 21
116.5
 31
0.0
  0
LINE
  5
214
330
1E
100
AcDbEntity
  8
0
 62
     7
100
AcDbLine
 10
-35.500014
 20
116.5
 30
0.0
 11
-35.000014
 21
117.0
 31
0.0
  0
POLYLINE
  5
215
330
1E
100
AcDbEntity
  8
0
 62
     7
100
AcDb2dPolyline
 66
     1
 10
0.0
 20
0.0
 30
0.0
  0
VERTEX
  5
4FE
330
215
100
AcDbEntity
  8
0
 62
     7
100
AcDbVertex
100
AcDb2dVertex
 10
-41.94659620000001
 20
115.5
 30
0.0
  0
VERTEX
  5
4FF
330
215
100
AcDbEntity
  8
0
 62
     7
100
AcDbVertex
100
AcDb2dVertex
 10
-41.8648822
 20
115.740725
 30
0.0
  0
VERTEX
  5
500
330
215
100
AcDbEntity
  8
0
 62
     7
100
AcDbVertex
100
AcDb2dVertex
 10
-41.7907823
 20
115.984379
 30
0.0
  0
VERTEX
  5
501
330
215
100
AcDbEntity
  8
0
 62
     7
100
AcDbVertex
100
AcDb2dVertex
 10
-41.72452929999999
 20
116.230637
 30
0.0
  0
VERTEX
  5
502
330
215
100
AcDbEntity
  8
0
 62
     7
100
AcDbVertex
100
AcDb2dVertex
 10
-41.6663555
 20
116.4791719999999
 30
0.0
  0
VERTEX
  5
503
330
215
100
AcDbEntity
  8
0
 62
     7
100
AcDbVertex
100
AcDb2dVertex
 10
-41.6164936
 20
116.729661
 30
0.0
  0
VERTEX
  5
504
330
215
100
AcDbEntity
  8
0
 62
     7
100
AcDbVertex
100
AcDb2dVertex
 10
-41.575176
 20
116.9817759999999
 30
0.0
  0
VERTEX
  5
505
330
215
100
AcDbEntity
  8
0
 62
     7
100
AcDbVertex
100
AcDb2dVertex
 10
-41.54263529999999
 20
117.235193
 30
0.0
  0
VERTEX
  5
506
330
215
100
AcDbEntity
  8
0
 62
     7
100
AcDbVertex
100
AcDb2dVertex
 10
-41.519104
 20
117.489586
 30
0.0
  0
VERTEX
  5
507
330
215
100
AcDbEntity
  8
0
 62
     7
100
AcDbVertex
100
AcDb2dVertex
 10
-41.50481479999999
 20
117.7446299999999
 30
0.0
  0
VERTEX
  5
508
330
215
100
AcDbEntity
  8
0
 62
     7
100
AcDbVertex
100
AcDb2dVertex
 10
-41.5
 20
118.0
 30
0.0
  0
VERTEX
  5
509
330
215
100
AcDbEntity
  8
0
 62
     7
100
AcDbVertex
100
AcDb2dVertex
 10
-41.50481479999999
 20
118.2553689999999
 30
0.0
  0
VERTEX
  5
50A
330
215
100
AcDbEntity
  8
0
 62
     7
100
AcDbVertex
100
AcDb2dVertex
 10
-41.519104
 20
118.5104139999999
 30
0.0
  0
VERTEX
  5
50B
330
215
100
AcDbEntity
  8
0
 62
     7
100
AcDbVertex
100
AcDb2dVertex
 10
-41.54263529999999
 20
118.764807
 30
0.0
  0
VERTEX
  5
50C
330
215
100
AcDbEntity
  8
0
 62
     7
100
AcDbVertex
100
AcDb2dVertex
 10
-41.575176
 20
119.018224
 30
0.0
  0
VERTEX
  5
50D
330
215
100
AcDbEntity
  8
0
 62
     7
100
AcDbVertex
100
AcDb2dVertex
 10
-41.6164936
 20
119.2703389999999
 30
0.0
  0
VERTEX
  5
50E
330
215
100
AcDbEntity
  8
0
 62
     7
100
AcDbVertex
100
AcDb2dVertex
 10
-41.6663555
 20
119.5208269999999
 30
0.0
  0
VERTEX
  5
50F
330
215
100
AcDbEntity
  8
0
 62
     7
100
AcDbVertex
100
AcDb2dVertex
 10
-41.72452929999999
 20
119.7693629999999
 30
0.0
  0
VERTEX
  5
510
330
215
100
AcDbEntity
  8
0
 62
     7
100
AcDbVertex
100
AcDb2dVertex
 10
-41.7907823
 20
120.01562
 30
0.0
  0
VERTEX
  5
511
330
215
100
AcDbEntity
  8
0
 62
     7
100
AcDbVertex
100
AcDb2dVertex
 10
-41.8648822
 20
120.2592749999999
 30
0.0
  0
VERTEX
  5
512
330
215
100
AcDbEntity
  8
0
 62
     7
100
AcDbVertex
100
AcDb2dVertex
 10
-41.94659620000001
 20
120.5
 30
0.0
  0
SEQEND
  5
513
330
215
100
AcDbEntity
  8
0
 62
     7
  0
POLYLINE
  5
22C
330
1E
100
AcDbEntity
  8
0
 62
     7
100
AcDb2dPolyline
 66
     1
 10
0.0
 20
0.0
 30
0.0
  0
VERTEX
  5
514
330
22C
100
AcDbEntity
  8
0
 62
     7
100
AcDbVertex
100
AcDb2dVertex
 10
-41.94659620000001
 20
120.5
 30
0.0
  0
VERTEX
  5
515
330
22C
100
AcDbEntity
  8
0
 62
     7
100
AcDbVertex
100
AcDb2dVertex
 10
-41.8648822
 20
120.7407249999999
 30
0.0
  0
VERTEX
  5
516
330
22C
100
AcDbEntity
  8
0
 62
     7
100
AcDbVertex
100
AcDb2dVertex
 10
-41.7907823
 20
120.984379
 30
0.0
  0
VERTEX
  5
517
330
22C
100
AcDbEntity
  8
0
 62
     7
100
AcDbVertex
100
AcDb2dVertex
 10
-41.72452929999999
 20
121.230637
 30
0.0
  0
VERTEX
  5
518
330
22C
100
AcDbEntity
  8
0
 62
     7
100
AcDbVertex
100
AcDb2dVertex
 10
-41.6663555
 20
121.479172
 30
0.0
  0
VERTEX
  5
519
330
22C
100
AcDbEntity
  8
0
 62
     7
100
AcDbVertex
100
AcDb2dVertex
 10
-41.6164936
 20
121.729661
 30
0.0
  0
VERTEX
  5
51A
330
22C
100
AcDbEntity
  8
0
 62
     7
100
AcDbVertex
100
AcDb2dVertex
 10
-41.575176
 20
121.9817759999999
 30
0.0
  0
VERTEX
  5
51B
330
22C
100
AcDbEntity
  8
0
 62
     7
100
AcDbVertex
100
AcDb2dVertex
 10
-41.54263529999999
 20
122.235193
 30
0.0
  0
VERTEX
  5
51C
330
22C
100
AcDbEntity
  8
0
 62
     7
100
AcDbVertex
100
AcDb2dVertex
 10
-41.519104
 20
122.489586
 30
0.0
  0
VERTEX
  5
51D
330
22C
100
AcDbEntity
  8
0
 62
     7
100
AcDbVertex
100
AcDb2dVertex
 10
-41.50481479999999
 20
122.7446299999999
 30
0.0
  0
VERTEX
  5
51E
330
22C
100
AcDbEntity
  8
0
 62
     7
100
AcDbVertex
100
AcDb2dVertex
 10
-41.5
 20
123.0
 30
0.0
  0
VERTEX
  5
51F
330
22C
100
AcDbEntity
  8
0
 62
     7
100
AcDbVertex
100
AcDb2dVertex
 10
-41.50481479999999
 20
123.2553689999999
 30
0.0
  0
VERTEX
  5
520
330
22C
100
AcDbEntity
  8
0
 62
     7
100
AcDbVertex
100
AcDb2dVertex
 10
-41.519104
 20
123.5104139999999
 30
0.0
  0
VERTEX
  5
521
330
22C
100
AcDbEntity
  8
0
 62
     7
100
AcDbVertex
100
AcDb2dVertex
 10
-41.54263529999999
 20
123.764807
 30
0.0
  0
VERTEX
  5
522
330
22C
100
AcDbEntity
  8
0
 62
     7
100
AcDbVertex
100
AcDb2dVertex
 10
-41.575176
 20
124.0182239999999
 30
0.0
  0
VERTEX
  5
523
330
22C
100
AcDbEntity
  8
0
 62
     7
100
AcDbVertex
100
AcDb2dVertex
 10
-41.6164936
 20
124.2703389999999
 30
0.0
  0
VERTEX
  5
524
330
22C
100
AcDbEntity
  8
0
 62
     7
100
AcDbVertex
100
AcDb2dVertex
 10
-41.6663555
 20
124.520827
 30
0.0
  0
VERTEX
  5
525
330
22C
100
AcDbEntity
  8
0
 62
     7
100
AcDbVertex
100
AcDb2dVertex
 10
-41.72452929999999
 20
124.7693629999999
 30
0.0
  0
VERTEX
  5
526
330
22C
100
AcDbEntity
  8
0
 62
     7
100
AcDbVertex
100
AcDb2dVertex
 10
-41.7907823
 20
125.0156199999999
 30
0.0
  0
VERTEX
  5
527
330
22C
100
AcDbEntity
  8
0
 62
     7
100
AcDbVertex
100
AcDb2dVertex
 10
-41.8648822
 20
125.259275
 30
0.0
  0
VERTEX
  5
528
330
22C
100
AcDbEntity
  8
0
 62
     7
100
AcDbVertex
100
AcDb2dVertex
 10
-41.94659620000001
 20
125.5
 30
0.0
  0
SEQEND
  5
529
330
22C
100
AcDbEntity
  8
0
 62
     7
  0
POLYLINE
  5
243
330
1E
100
AcDbEntity
  8
0
 62
     7
100
AcDb2dPolyline
 66
     1
 10
0.0
 20
0.0
 30
0.0
  0
VERTEX
  5
52A
330
243
100
AcDbEntity
  8
0
 62
     7
100
AcDbVertex
100
AcDb2dVertex
 10
-43.05340029999999
 20
120.5
 30
0.0
  0
VERTEX
  5
52B
330
243
100
AcDbEntity
  8
0
 62
     7
100
AcDbVertex
100
AcDb2dVertex
 10
-43.13511489999999
 20
120.7407249999999
 30
0.0
  0
VERTEX
  5
52C
330
243
100
AcDbEntity
  8
0
 62
     7
100
AcDbVertex
100
AcDb2dVertex
 10
-43.20921529999999
 20
120.984379
 30
0.0
  0
VERTEX
  5
52D
330
243
100
AcDbEntity
  8
0
 62
     7
100
AcDbVertex
100
AcDb2dVertex
 10
-43.27546889999999
 20
121.230637
 30
0.0
  0
VERTEX
  5
52E
330
243
100
AcDbEntity
  8
0
 62
     7
100
AcDbVertex
100
AcDb2dVertex
 10
-43.3336431
 20
121.479172
 30
0.0
  0
VERTEX
  5
52F
330
243
100
AcDbEntity
  8
0
 62
     7
100
AcDbVertex
100
AcDb2dVertex
 10
-43.3835055
 20
121.72966
 30
0.0
  0
VERTEX
  5
530
330
243
100
AcDbEntity
  8
0
 62
     7
100
AcDbVertex
100
AcDb2dVertex
 10
-43.4248234
 20
121.9817759999999
 30
0.0
  0
VERTEX
  5
531
330
243
100
AcDbEntity
  8
0
 62
     7
100
AcDbVertex
100
AcDb2dVertex
 10
-43.45736429999999
 20
122.235193
 30
0.0
  0
VERTEX
  5
532
330
243
100
AcDbEntity
  8
0
 62
     7
100
AcDbVertex
100
AcDb2dVertex
 10
-43.48089579999999
 20
122.489586
 30
0.0
  0
VERTEX
  5
533
330
243
100
AcDbEntity
  8
0
 62
     7
100
AcDbVertex
100
AcDb2dVertex
 10
-43.4951852
 20
122.7446299999999
 30
0.0
  0
VERTEX
  5
534
330
243
100
AcDbEntity
  8
0
 62
     7
100
AcDbVertex
100
AcDb2dVertex
 10
-43.5
 20
123.0
 30
0.0
  0
VERTEX
  5
535
330
243
100
AcDbEntity
  8
0
 62
     7
100
AcDbVertex
100
AcDb2dVertex
 10
-43.4951852
 20
123.2553689999999
 30
0.0
  0
VERTEX
  5
536
330
243
100
AcDbEntity
  8
0
 62
     7
100
AcDbVertex
100
AcDb2dVertex
 10
-43.48089579999999
 20
123.5104139999999
 30
0.0
  0
VERTEX
  5
537
330
243
100
AcDbEntity
  8
0
 62
     7
100
AcDbVertex
100
AcDb2dVertex
 10
-43.45736429999999
 20
123.764807
 30
0.0
  0
VERTEX
  5
538
330
243
100
AcDbEntity
  8
0
 62
     7
100
AcDbVertex
100
AcDb2dVertex
 10
-43.4248234
 20
124.0182239999999
 30
0.0
  0
VERTEX
  5
539
330
243
100
AcDbEntity
  8
0
 62
     7
100
AcDbVertex
100
AcDb2dVertex
 10
-43.3835055
 20
124.2703389999999
 30
0.0
  0
VERTEX
  5
53A
330
243
100
AcDbEntity
  8
0
 62
     7
100
AcDbVertex
100
AcDb2dVertex
 10
-43.3336431
 20
124.520828
 30
0.0
  0
VERTEX
  5
53B
330
243
100
AcDbEntity
  8
0
 62
     7
100
AcDbVertex
100
AcDb2dVertex
 10
-43.27546889999999
 20
124.7693629999999
 30
0.0
  0
VERTEX
  5
53C
330
243
100
AcDbEntity
  8
0
 62
     7
100
AcDbVertex
100
AcDb2dVertex
 10
-43.20921529999999
 20
125.0156209999999
 30
0.0
  0
VERTEX
  5
53D
330
243
100
AcDbEntity
  8
0
 62
     7
100
AcDbVertex
100
AcDb2dVertex
 10
-43.13511489999999
 20
125.259275
 30
0.0
  0
VERTEX
  5
53E
330
243
100
AcDbEntity
  8
0
 62
     7
100
AcDbVertex
100
AcDb2dVertex
 10
-43.05340029999999
 20
125.5
 30
0.0
  0
SEQEND
  5
53F
330
243
100
AcDbEntity
  8
0
 62
     7
  0
POLYLINE
  5
25A
330
1E
100
AcDbEntity
  8
0
 62
     7
100
AcDb2dPolyline
 66
     1
 10
0.0
 20
0.0
 30
0.0
  0
VERTEX
  5
540
330
25A
100
AcDbEntity
  8
0
 62
     7
100
AcDbVertex
100
AcDb2dVertex
 10
-43.05340029999999
 20
115.5
 30
0.0
  0
VERTEX
  5
541
330
25A
100
AcDbEntity
  8
0
 62
     7
100
AcDbVertex
100
AcDb2dVertex
 10
-43.13511489999999
 20
115.740725
 30
0.0
  0
VERTEX
  5
542
330
25A
100
AcDbEntity
  8
0
 62
     7
100
AcDbVertex
100
AcDb2dVertex
 10
-43.20921529999999
 20
115.984379
 30
0.0
  0
VERTEX
  5
543
330
25A
100
AcDbEntity
  8
0
 62
     7
100
AcDbVertex
100
AcDb2dVertex
 10
-43.27546889999999
 20
116.230637
 30
0.0
  0
VERTEX
  5
544
330
25A
100
AcDbEntity
  8
0
 62
     7
100
AcDbVertex
100
AcDb2dVertex
 10
-43.3336431
 20
116.4791719999999
 30
0.0
  0
VERTEX
  5
545
330
25A
100
AcDbEntity
  8
0
 62
     7
100
AcDbVertex
100
AcDb2dVertex
 10
-43.3835055
 20
116.72966
 30
0.0
  0
VERTEX
  5
546
330
25A
100
AcDbEntity
  8
0
 62
     7
100
AcDbVertex
100
AcDb2dVertex
 10
-43.4248234
 20
116.9817759999999
 30
0.0
  0
VERTEX
  5
547
330
25A
100
AcDbEntity
  8
0
 62
     7
100
AcDbVertex
100
AcDb2dVertex
 10
-43.45736429999999
 20
117.235193
 30
0.0
  0
VERTEX
  5
548
330
25A
100
AcDbEntity
  8
0
 62
     7
100
AcDbVertex
100
AcDb2dVertex
 10
-43.48089579999999
 20
117.489586
 30
0.0
  0
VERTEX
  5
549
330
25A
100
AcDbEntity
  8
0
 62
     7
100
AcDbVertex
100
AcDb2dVertex
 10
-43.4951852
 20
117.7446299999999
 30
0.0
  0
VERTEX
  5
54A
330
25A
100
AcDbEntity
  8
0
 62
     7
100
AcDbVertex
100
AcDb2dVertex
 10
-43.5
 20
118.0
 30
0.0
  0
VERTEX
  5
54B
330
25A
100
AcDbEntity
  8
0
 62
     7
100
AcDbVertex
100
AcDb2dVertex
 10
-43.4951852
 20
118.2553689999999
 30
0.0
  0
VERTEX
  5
54C
330
25A
100
AcDbEntity
  8
0
 62
     7
100
AcDbVertex
100
AcDb2dVertex
 10
-43.48089579999999
 20
118.5104139999999
 30
0.0
  0
VERTEX
  5
54D
330
25A
100
AcDbEntity
  8
0
 62
     7
100
AcDbVertex
100
AcDb2dVertex
 10
-43.45736429999999
 20
118.764807
 30
0.0
  0
VERTEX
  5
54E
330
25A
100
AcDbEntity
  8
0
 62
     7
100
AcDbVertex
100
AcDb2dVertex
 10
-43.4248234
 20
119.018224
 30
0.0
  0
VERTEX
  5
54F
330
25A
100
AcDbEntity
  8
0
 62
     7
100
AcDbVertex
100
AcDb2dVertex
 10
-43.3835055
 20
119.2703389999999
 30
0.0
  0
VERTEX
  5
550
330
25A
100
AcDbEntity
  8
0
 62
     7
100
AcDbVertex
100
AcDb2dVertex
 10
-43.3336431
 20
119.520828
 30
0.0
  0
VERTEX
  5
551
330
25A
100
AcDbEntity
  8
0
 62
     7
100
AcDbVertex
100
AcDb2dVertex
 10
-43.27546889999999
 20
119.7693629999999
 30
0.0
  0
VERTEX
  5
552
330
25A
100
AcDbEntity
  8
0
 62
     7
100
AcDbVertex
100
AcDb2dVertex
 10
-43.20921529999999
 20
120.015621
 30
0.0
  0
VERTEX
  5
553
330
25A
100
AcDbEntity
  8
0
 62
     7
100
AcDbVertex
100
AcDb2dVertex
 10
-43.13511489999999
 20
120.2592749999999
 30
0.0
  0
VERTEX
  5
554
330
25A
100
AcDbEntity
  8
0
 62
     7
100
AcDbVertex
100
AcDb2dVertex
 10
-43.05340029999999
 20
120.5
 30
0.0
  0
SEQEND
  5
555
330
25A
100
AcDbEntity
  8
0
 62
     7
  0
LINE
  5
271
330
1E
100
AcDbEntity
  8
0
  6
CENTER
 62
     2
100
AcDbLine
 10
-92.5
 20
-120.0
 30
0.0
 11
-47.5
 21
-120.0
 31
0.0
  0
LINE
  5
272
330
1E
100
AcDbEntity
  8
0
 62
     7
100
AcDbLine
 10
-97.1
 20
-127.0
 30
0.0
 11
-97.1
 21
-135.0
 31
0.0
  0
LINE
  5
273
330
1E
100
AcDbEntity
  8
0
 62
     7
100
AcDbLine
 10
-98.2
 20
-134.8
 30
0.0
 11
-98.0
 21
-135.0
 31
0.0
  0
LINE
  5
274
330
1E
100
AcDbEntity
  8
0
 62
     7
100
AcDbLine
 10
-97.1
 20
-135.0
 30
0.0
 11
-98.0
 21
-135.0
 31
0.0
  0
LINE
  5
275
330
1E
100
AcDbEntity
  8
0
 62
     7
100
AcDbLine
 10
-98.2
 20
-127.2
 30
0.0
 11
-98.0
 21
-127.0
 31
0.0
  0
LINE
  5
276
330
1E
100
AcDbEntity
  8
0
 62
     7
100
AcDbLine
 10
-97.1
 20
-127.0
 30
0.0
 11
-98.0
 21
-127.0
 31
0.0
  0
LINE
  5
277
330
1E
100
AcDbEntity
  8
0
 62
     7
100
AcDbLine
 10
-98.0
 20
-135.0
 30
0.0
 11
-98.0
 21
-127.0
 31
0.0
  0
LINE
  5
278
330
1E
100
AcDbEntity
  8
0
 62
     7
100
AcDbLine
 10
-98.2
 20
-134.8
 30
0.0
 11
-98.2
 21
-127.2
 31
0.0
  0
LINE
  5
279
330
1E
100
AcDbEntity
  8
0
 62
     7
100
AcDbLine
 10
-97.1
 20
-134.8999999999999
 30
0.0
 11
-96.5
 21
-134.8999999999999
 31
0.0
  0
LINE
  5
27A
330
1E
100
AcDbEntity
  8
0
 62
     7
100
AcDbLine
 10
-97.1
 20
-127.0999999999999
 30
0.0
 11
-96.5
 21
-127.0999999999999
 31
0.0
  0
LINE
  5
27B
330
1E
100
AcDbEntity
  8
0
  6
CENTER
 62
     2
100
AcDbLine
 10
-100.2
 20
-131.0
 30
0.0
 11
-96.5
 21
-131.0
 31
0.0
  0
LINE
  5
27C
330
1E
100
AcDbEntity
  8
0
 62
     7
100
AcDbLine
 10
-97.1
 20
-113.0
 30
0.0
 11
-98.0
 21
-113.0
 31
0.0
  0
LINE
  5
27D
330
1E
100
AcDbEntity
  8
0
 62
     7
100
AcDbLine
 10
-98.2
 20
-112.7999999999999
 30
0.0
 11
-98.0
 21
-113.0
 31
0.0
  0
LINE
  5
27E
330
1E
100
AcDbEntity
  8
0
 62
     7
100
AcDbLine
 10
-97.1
 20
-105.0
 30
0.0
 11
-98.0
 21
-105.0
 31
0.0
  0
LINE
  5
27F
330
1E
100
AcDbEntity
  8
0
 62
     7
100
AcDbLine
 10
-98.2
 20
-105.2
 30
0.0
 11
-98.0
 21
-105.0
 31
0.0
  0
LINE
  5
280
330
1E
100
AcDbEntity
  8
0
 62
     7
100
AcDbLine
 10
-98.0
 20
-113.0
 30
0.0
 11
-98.0
 21
-105.0
 31
0.0
  0
LINE
  5
281
330
1E
100
AcDbEntity
  8
0
 62
     7
100
AcDbLine
 10
-97.1
 20
-113.0
 30
0.0
 11
-97.1
 21
-105.0
 31
0.0
  0
LINE
  5
282
330
1E
100
AcDbEntity
  8
0
 62
     7
100
AcDbLine
 10
-98.2
 20
-112.7999999999999
 30
0.0
 11
-98.2
 21
-105.2
 31
0.0
  0
LINE
  5
283
330
1E
100
AcDbEntity
  8
0
  6
CENTER
 62
     2
100
AcDbLine
 10
-96.5
 20
-109.0
 30
0.0
 11
-100.2
 21
-109.0
 31
0.0
  0
LINE
  5
284
330
1E
100
AcDbEntity
  8
0
 62
     7
100
AcDbLine
 10
-96.5
 20
-105.0999999999999
 30
0.0
 11
-97.1
 21
-105.0999999999999
 31
0.0
  0
LINE
  5
285
330
1E
100
AcDbEntity
  8
0
 62
     7
100
AcDbLine
 10
-96.5
 20
-112.9
 30
0.0
 11
-97.1
 21
-112.9
 31
0.0
  0
LINE
  5
286
330
1E
100
AcDbEntity
  8
0
 62
     7
100
AcDbLine
 10
-94.50000000000001
 20
-92.9999998
 30
0.0
 11
-94.50000000000001
 21
-88.9999998
 31
0.0
  0
LINE
  5
287
330
1E
100
AcDbEntity
  8
0
 62
     7
100
AcDbLine
 10
-45.49999999999999
 20
-88.9999998
 30
0.0
 11
-45.49999999999999
 21
-92.9999998
 31
0.0
  0
LINE
  5
288
330
1E
100
AcDbEntity
  8
0
 62
     7
100
AcDbLine
 10
-45.49999999999999
 20
-92.9999998
 30
0.0
 11
-94.50000000000001
 21
-92.9999998
 31
0.0
  0
CIRCLE
  5
289
330
1E
100
AcDbEntity
  8
0
 62
     7
100
AcDbCircle
 10
-84.07330319999999
 20
-127.7377399999999
 30
0.0
 40
0.472222209
  0
CIRCLE
  5
28A
330
1E
100
AcDbEntity
  8
0
 62
     7
100
AcDbCircle
 10
-79.92666629999999
 20
-127.7377399999999
 30
0.0
 40
0.472222209
  0
ARC
  5
28B
330
1E
100
AcDbEntity
  8
0
 62
     7
100
AcDbCircle
 10
-82.0
 20
-120.4722209999999
 30
0.0
 40
7.555555339999999
100
AcDbArc
 50
293.09357
 51
246.9065029999999
  0
CIRCLE
  5
28C
330
1E
100
AcDbEntity
  8
0
 62
     7
100
AcDbCircle
 10
-82.0
 20
-120.0
 30
0.0
 40
8.5
  0
ARC
  5
28D
330
1E
100
AcDbEntity
  8
0
 62
     7
100
AcDbCircle
 10
-79.92666629999999
 20
-127.7377399999999
 30
0.0
 40
1.0
100
AcDbArc
 50
19.7210511
 51
221.220702
  0
ARC
  5
28E
330
1E
100
AcDbEntity
  8
0
 62
     7
100
AcDbCircle
 10
-84.07330319999999
 20
-127.7377399999999
 30
0.0
 40
1.0
100
AcDbArc
 50
318.7793849999999
 51
160.278981
  0
LINE
  5
28F
330
1E
100
AcDbEntity
  8
0
  6
CENTER
 62
     2
100
AcDbLine
 10
-70.0
 20
-84.9999998
 30
0.0
 11
-70.0
 21
-141.0
 31
0.0
  0
LINE
  5
290
330
1E
100
AcDbEntity
  8
0
 62
     7
100
AcDbLine
 10
-92.5
 20
-93.99999599999999
 30
0.0
 11
-92.5
 21
-92.9999998
 31
0.0
  0
LINE
  5
291
330
1E
100
AcDbEntity
  8
0
 62
     7
100
AcDbLine
 10
-94.50000000000001
 20
-88.9999998
 30
0.0
 11
-45.49999999999999
 21
-88.9999998
 31
0.0
  0
LINE
  5
292
330
1E
100
AcDbEntity
  8
0
  6
CENTER
 62
     2
100
AcDbLine
 10
-82.0
 20
-130.4999999999999
 30
0.0
 11
-82.0
 21
-109.4999999999999
 31
0.0
  0
LINE
  5
293
330
1E
100
AcDbEntity
  8
0
 62
     7
100
AcDbLine
 10
-47.5
 20
-92.9999998
 30
0.0
 11
-47.5
 21
-93.99999599999999
 31
0.0
  0
LINE
  5
294
330
1E
100
AcDbEntity
  8
0
 62
     7
100
AcDbLine
 10
-43.4999619
 20
-93.9999998
 30
0.0
 11
-95.0
 21
-93.9999998
 31
0.0
  0
LINE
  5
295
330
1E
100
AcDbEntity
  8
0
 62
     7
100
AcDbLine
 10
-95.0
 20
-93.9999998
 30
0.0
 11
-95.0
 21
-103.0
 31
0.0
  0
LINE
  5
296
330
1E
100
AcDbEntity
  8
0
 62
     7
100
AcDbLine
 10
-43.5
 20
-103.0
 30
0.0
 11
-95.0
 21
-103.0
 31
0.0
  0
LINE
  5
297
330
1E
100
AcDbEntity
  8
0
 62
     7
100
AcDbLine
 10
-95.0
 20
-103.0
 30
0.0
 11
-96.5
 21
-104.4999999999999
 31
0.0
  0
ARC
  5
298
330
1E
100
AcDbEntity
  8
0
 62
     7
100
AcDbCircle
 10
-58.0
 20
-120.4722209999999
 30
0.0
 40
7.555555339999999
100
AcDbArc
 50
293.093497
 51
246.9064299999999
  0
CIRCLE
  5
299
330
1E
100
AcDbEntity
  8
0
 62
     7
100
AcDbCircle
 10
-58.0
 20
-120.0
 30
0.0
 40
8.5
  0
LINE
  5
29A
330
1E
100
AcDbEntity
  8
0
  6
CENTER
 62
     2
100
AcDbLine
 10
-58.0
 20
-130.4999999999999
 30
0.0
 11
-58.0
 21
-109.4999999999999
 31
0.0
  0
ARC
  5
29B
330
1E
100
AcDbEntity
  8
0
 62
     7
100
AcDbCircle
 10
-55.9266968
 20
-127.7377399999999
 30
0.0
 40
1.0
100
AcDbArc
 50
19.7210187
 51
221.2206149999999
  0
ARC
  5
29C
330
1E
100
AcDbEntity
  8
0
 62
     7
100
AcDbCircle
 10
-60.07333370000001
 20
-127.7377399999999
 30
0.0
 40
1.0
100
AcDbArc
 50
318.7792979999999
 51
160.278949
  0
CIRCLE
  5
29D
330
1E
100
AcDbEntity
  8
0
 62
     7
100
AcDbCircle
 10
-60.07333370000001
 20
-127.7377399999999
 30
0.0
 40
0.472222209
  0
CIRCLE
  5
29E
330
1E
100
AcDbEntity
  8
0
 62
     7
100
AcDbCircle
 10
-55.9266968
 20
-127.7377399999999
 30
0.0
 40
0.472222209
  0
LINE
  5
29F
330
1E
100
AcDbEntity
  8
0
  6
CENTER
 62
     2
100
AcDbLine
 10
-89.95298690000002
 20
-116.0
 30
0.0
 11
-98.4999997
 21
-116.0
 31
0.0
  0
ARC
  5
2A0
330
1E
100
AcDbEntity
  8
0
 62
     7
100
AcDbCircle
 10
-93.47499969999999
 20
-116.0
 30
0.0
 40
2.075
100
AcDbArc
 50
270.0
 51
90.00000020000001
  0
LINE
  5
2A1
330
1E
100
AcDbEntity
  8
0
  6
CENTER
 62
     2
100
AcDbLine
 10
-89.95298690000002
 20
-124.0
 30
0.0
 11
-98.4999997
 21
-124.0
 31
0.0
  0
ARC
  5
2A2
330
1E
100
AcDbEntity
  8
0
 62
     7
100
AcDbCircle
 10
-93.47499969999999
 20
-124.0
 30
0.0
 40
2.075
100
AcDbArc
 50
270.0
 51
90.00000020000001
  0
LINE
  5
2A3
330
1E
100
AcDbEntity
  8
0
 62
     7
100
AcDbLine
 10
-96.5
 20
-135.4999999999999
 30
0.0
 11
-96.5
 21
-126.0
 31
0.0
  0
LINE
  5
2A4
330
1E
100
AcDbEntity
  8
0
 62
     7
100
AcDbLine
 10
-96.5
 20
-114.0
 30
0.0
 11
-96.5
 21
-104.4999999999999
 31
0.0
  0
LINE
  5
2A5
330
1E
100
AcDbEntity
  8
0
 62
     7
100
AcDbLine
 10
-95.79999970000001
 20
-122.3999999999999
 30
0.0
 11
-95.5749997
 21
-122.3999999999999
 31
0.0
  0
LINE
  5
2A6
330
1E
100
AcDbEntity
  8
0
 62
     7
100
AcDbLine
 10
-96.0999997
 20
-125.6
 30
0.0
 11
-95.5749997
 21
-125.6
 31
0.0
  0
LINE
  5
2A7
330
1E
100
AcDbEntity
  8
0
 62
     7
100
AcDbLine
 10
-93.47499969999999
 20
-121.9249999999999
 30
0.0
 11
-95.0999997
 21
-121.9249999999999
 31
0.0
  0
LINE
  5
2A8
330
1E
100
AcDbEntity
  8
0
 62
     7
100
AcDbLine
 10
-95.0999997
 20
-121.9249999999999
 30
0.0
 11
-95.5749997
 21
-122.3999999999999
 31
0.0
  0
ARC
  5
2A9
330
1E
100
AcDbEntity
  8
0
 62
     7
100
AcDbCircle
 10
-95.79999970000001
 20
-122.0999999999999
 30
0.0
 40
0.3
100
AcDbArc
 50
180.0
 51
270.0
  0
LINE
  5
2AA
330
1E
100
AcDbEntity
  8
0
 62
     7
100
AcDbLine
 10
-95.0999997
 20
-126.075
 30
0.0
 11
-95.5749997
 21
-125.6
 31
0.0
  0
LINE
  5
2AB
330
1E
100
AcDbEntity
  8
0
 62
     7
100
AcDbLine
 10
-96.0999997
 20
-125.6
 30
0.0
 11
-96.49999970000001
 21
-126.0
 31
0.0
  0
ARC
  5
2AC
330
1E
100
AcDbEntity
  8
0
 62
     7
100
AcDbCircle
 10
-95.79999970000001
 20
-117.9
 30
0.0
 40
0.3
100
AcDbArc
 50
90.00000020000001
 51
180.0
  0
LINE
  5
2AD
330
1E
100
AcDbEntity
  8
0
 62
     7
100
AcDbLine
 10
-96.0999997
 20
-122.3999999999999
 30
0.0
 11
-96.0999997
 21
-117.9
 31
0.0
  0
LINE
  5
2AE
330
1E
100
AcDbEntity
  8
0
 62
     7
100
AcDbLine
 10
-95.0999997
 20
-118.0749999999999
 30
0.0
 11
-95.5749997
 21
-117.5999999999999
 31
0.0
  0
LINE
  5
2AF
330
1E
100
AcDbEntity
  8
0
 62
     7
100
AcDbLine
 10
-95.0999997
 20
-113.925
 30
0.0
 11
-95.5749997
 21
-114.4
 31
0.0
  0
LINE
  5
2B0
330
1E
100
AcDbEntity
  8
0
 62
     7
100
AcDbLine
 10
-93.47499969999999
 20
-113.925
 30
0.0
 11
-95.0999997
 21
-113.925
 31
0.0
  0
LINE
  5
2B1
330
1E
100
AcDbEntity
  8
0
 62
     7
100
AcDbLine
 10
-93.47499969999999
 20
-118.0749999999999
 30
0.0
 11
-95.0999997
 21
-118.0749999999999
 31
0.0
  0
LINE
  5
2B2
330
1E
100
AcDbEntity
  8
0
 62
     7
100
AcDbLine
 10
-96.0999997
 20
-114.4
 30
0.0
 11
-96.49999970000001
 21
-114.0
 31
0.0
  0
LINE
  5
2B3
330
1E
100
AcDbEntity
  8
0
 62
     7
100
AcDbLine
 10
-96.0999997
 20
-114.4
 30
0.0
 11
-95.5749997
 21
-114.4
 31
0.0
  0
LINE
  5
2B4
330
1E
100
AcDbEntity
  8
0
 62
     7
100
AcDbLine
 10
-95.79999970000001
 20
-117.5999999999999
 30
0.0
 11
-95.5749997
 21
-117.5999999999999
 31
0.0
  0
LINE
  5
2B5
330
1E
100
AcDbEntity
  8
0
 62
     7
100
AcDbLine
 10
-93.47499969999999
 20
-126.075
 30
0.0
 11
-95.12500000000001
 21
-126.074993
 31
0.0
  0
LINE
  5
2B6
330
1E
100
AcDbEntity
  8
0
  6
CENTER
 62
     2
100
AcDbLine
 10
-50.0470131
 20
-116.0
 30
0.0
 11
-41.5000003
 21
-116.0
 31
0.0
  0
ARC
  5
2B7
330
1E
100
AcDbEntity
  8
0
 62
     7
100
AcDbCircle
 10
-46.52500029999999
 20
-116.0
 30
0.0
 40
2.075
100
AcDbArc
 50
90.00000020000001
 51
270.0
  0
LINE
  5
2B8
330
1E
100
AcDbEntity
  8
0
  6
CENTER
 62
     2
100
AcDbLine
 10
-50.0470131
 20
-124.0
 30
0.0
 11
-41.5000003
 21
-124.0
 31
0.0
  0
ARC
  5
2B9
330
1E
100
AcDbEntity
  8
0
 62
     7
100
AcDbCircle
 10
-46.52500029999999
 20
-124.0
 30
0.0
 40
2.075
100
AcDbArc
 50
90.00000020000001
 51
270.0
  0
LINE
  5
2BA
330
1E
100
AcDbEntity
  8
0
 62
     7
100
AcDbLine
 10
-43.5
 20
-135.4999999999999
 30
0.0
 11
-43.5
 21
-126.0
 31
0.0
  0
LINE
  5
2BB
330
1E
100
AcDbEntity
  8
0
 62
     7
100
AcDbLine
 10
-43.5
 20
-114.0
 30
0.0
 11
-43.5
 21
-93.9999998
 31
0.0
  0
LINE
  5
2BC
330
1E
100
AcDbEntity
  8
0
 62
     7
100
AcDbLine
 10
-46.52500029999999
 20
-126.075
 30
0.0
 11
-44.87499999999999
 21
-126.074993
 31
0.0
  0
LINE
  5
2BD
330
1E
100
AcDbEntity
  8
0
 62
     7
100
AcDbLine
 10
-44.20000029999999
 20
-117.5999999999999
 30
0.0
 11
-44.42500029999999
 21
-117.5999999999999
 31
0.0
  0
LINE
  5
2BE
330
1E
100
AcDbEntity
  8
0
 62
     7
100
AcDbLine
 10
-43.90000029999999
 20
-114.4
 30
0.0
 11
-44.42500029999999
 21
-114.4
 31
0.0
  0
LINE
  5
2BF
330
1E
100
AcDbEntity
  8
0
 62
     7
100
AcDbLine
 10
-43.90000029999999
 20
-114.4
 30
0.0
 11
-43.50000029999999
 21
-114.0
 31
0.0
  0
LINE
  5
2C0
330
1E
100
AcDbEntity
  8
0
 62
     7
100
AcDbLine
 10
-46.52500029999999
 20
-118.0749999999999
 30
0.0
 11
-44.9000003
 21
-118.0749999999999
 31
0.0
  0
LINE
  5
2C1
330
1E
100
AcDbEntity
  8
0
 62
     7
100
AcDbLine
 10
-46.52500029999999
 20
-113.925
 30
0.0
 11
-44.9000003
 21
-113.925
 31
0.0
  0
LINE
  5
2C2
330
1E
100
AcDbEntity
  8
0
 62
     7
100
AcDbLine
 10
-44.9000003
 20
-113.925
 30
0.0
 11
-44.42500029999999
 21
-114.4
 31
0.0
  0
LINE
  5
2C3
330
1E
100
AcDbEntity
  8
0
 62
     7
100
AcDbLine
 10
-44.9000003
 20
-118.0749999999999
 30
0.0
 11
-44.42500029999999
 21
-117.5999999999999
 31
0.0
  0
LINE
  5
2C4
330
1E
100
AcDbEntity
  8
0
 62
     7
100
AcDbLine
 10
-43.90000029999999
 20
-122.0999999999999
 30
0.0
 11
-43.90000029999999
 21
-117.9
 31
0.0
  0
ARC
  5
2C5
330
1E
100
AcDbEntity
  8
0
 62
     7
100
AcDbCircle
 10
-44.20000029999999
 20
-117.9
 30
0.0
 40
0.3
100
AcDbArc
 50
0.0
 51
90.00000020000001
  0
LINE
  5
2C6
330
1E
100
AcDbEntity
  8
0
 62
     7
100
AcDbLine
 10
-43.90000029999999
 20
-125.6
 30
0.0
 11
-43.50000029999999
 21
-126.0
 31
0.0
  0
LINE
  5
2C7
330
1E
100
AcDbEntity
  8
0
 62
     7
100
AcDbLine
 10
-44.9000003
 20
-126.075
 30
0.0
 11
-44.42500029999999
 21
-125.6
 31
0.0
  0
ARC
  5
2C8
330
1E
100
AcDbEntity
  8
0
 62
     7
100
AcDbCircle
 10
-44.20000029999999
 20
-122.0999999999999
 30
0.0
 40
0.3
100
AcDbArc
 50
270.0
 51
0.0
  0
LINE
  5
2C9
330
1E
100
AcDbEntity
  8
0
 62
     7
100
AcDbLine
 10
-44.9000003
 20
-121.9249999999999
 30
0.0
 11
-44.42500029999999
 21
-122.3999999999999
 31
0.0
  0
LINE
  5
2CA
330
1E
100
AcDbEntity
  8
0
 62
     7
100
AcDbLine
 10
-46.52500029999999
 20
-121.9249999999999
 30
0.0
 11
-44.9000003
 21
-121.9249999999999
 31
0.0
  0
LINE
  5
2CB
330
1E
100
AcDbEntity
  8
0
 62
     7
100
AcDbLine
 10
-43.90000029999999
 20
-125.6
 30
0.0
 11
-44.42500029999999
 21
-125.6
 31
0.0
  0
LINE
  5
2CC
330
1E
100
AcDbEntity
  8
0
 62
     7
100
AcDbLine
 10
-44.20000029999999
 20
-122.3999999999999
 30
0.0
 11
-44.42500029999999
 21
-122.3999999999999
 31
0.0
  0
LINE
  5
2CD
330
1E
100
AcDbEntity
  8
0
 62
     7
100
AcDbLine
 10
-45.0
 20
-137.0
 30
0.0
 11
-57.0
 21
-137.0
 31
0.0
  0
LINE
  5
2CE
330
1E
100
AcDbEntity
  8
0
 62
     7
100
AcDbLine
 10
-43.5
 20
-135.4999999999999
 30
0.0
 11
-45.0
 21
-137.0
 31
0.0
  0
LINE
  5
2CF
330
1E
100
AcDbEntity
  8
0
 62
     7
100
AcDbLine
 10
-95.0
 20
-137.0
 30
0.0
 11
-96.5
 21
-135.4999999999999
 31
0.0
  0
LINE
  5
2D0
330
1E
100
AcDbEntity
  8
0
 62
     7
100
AcDbLine
 10
-57.5
 20
-136.4999999999999
 30
0.0
 11
-82.5
 21
-136.4999999999999
 31
0.0
  0
LINE
  5
2D1
330
1E
100
AcDbEntity
  8
0
 62
     7
100
AcDbLine
 10
-57.0
 20
-137.0
 30
0.0
 11
-57.5
 21
-136.4999999999999
 31
0.0
  0
LINE
  5
2D2
330
1E
100
AcDbEntity
  8
0
 62
     7
100
AcDbLine
 10
-83.0
 20
-137.0
 30
0.0
 11
-82.5
 21
-136.4999999999999
 31
0.0
  0
LINE
  5
2D3
330
1E
100
AcDbEntity
  8
0
 62
     7
100
AcDbLine
 10
-83.0
 20
-137.0
 30
0.0
 11
-95.0
 21
-137.0
 31
0.0
  0
LINE
  5
2D4
330
1E
100
AcDbEntity
  8
0
 62
     7
100
AcDbLine
 10
-43.49997759999999
 20
-105.4999999999999
 30
0.0
 11
-41.5
 21
-105.4999999999999
 31
0.0
  0
LINE
  5
2D5
330
1E
100
AcDbEntity
  8
0
 62
     7
100
AcDbLine
 10
-43.5
 20
-95.4999998
 30
0.0
 11
-41.5
 21
-95.4999998
 31
0.0
  0
LINE
  5
2D6
330
1E
100
AcDbEntity
  8
0
 62
     7
100
AcDbLine
 10
-41.5
 20
-105.4999999999999
 30
0.0
 11
-41.5
 21
-95.4999998
 31
0.0
  0
LINE
  5
2D7
330
1E
100
AcDbEntity
  8
0
 62
     7
100
AcDbLine
 10
-43.05340029999999
 20
-100.5
 30
0.0
 11
-41.94659620000001
 21
-100.5
 31
0.0
  0
LINE
  5
2D8
330
1E
100
AcDbEntity
  8
0
  6
CENTER
 62
     2
100
AcDbLine
 10
-50.5
 20
-102.75
 30
0.0
 11
-50.5
 21
-115.25
 31
0.0
  0
LINE
  5
2D9
330
1E
100
AcDbEntity
  8
0
  6
CENTER
 62
     2
100
AcDbLine
 10
-44.75
 20
-109.0
 30
0.0
 11
-56.75
 21
-109.0
 31
0.0
  0
CIRCLE
  5
2DA
330
1E
100
AcDbEntity
  8
0
 62
     7
100
AcDbCircle
 10
-50.5
 20
-109.0
 30
0.0
 40
4.25
  0
CIRCLE
  5
2DB
330
1E
100
AcDbEntity
  8
0
 62
     7
100
AcDbCircle
 10
-50.5
 20
-109.0
 30
0.0
 40
4.0
  0
LINE
  5
2DC
330
1E
100
AcDbEntity
  8
0
 62
     7
100
AcDbLine
 10
-50.0
 20
-105.031373
 30
0.0
 11
-50.0
 21
-112.968627
 31
0.0
  0
LINE
  5
2DD
330
1E
100
AcDbEntity
  8
0
 62
     7
100
AcDbLine
 10
-51.0
 20
-105.031373
 30
0.0
 11
-51.0
 21
-112.968627
 31
0.0
  0
LINE
  5
2DE
330
1E
100
AcDbEntity
  8
0
  6
CENTER
 62
     2
100
AcDbLine
 10
-89.50000000000001
 20
-124.75
 30
0.0
 11
-89.50000000000001
 21
-137.25
 31
0.0
  0
LINE
  5
2DF
330
1E
100
AcDbEntity
  8
0
  6
CENTER
 62
     2
100
AcDbLine
 10
-83.25000000000001
 20
-131.0
 30
0.0
 11
-95.75000000000001
 21
-131.0
 31
0.0
  0
CIRCLE
  5
2E0
330
1E
100
AcDbEntity
  8
0
 62
     7
100
AcDbCircle
 10
-89.50000000000001
 20
-131.0
 30
0.0
 40
4.25
  0
CIRCLE
  5
2E1
330
1E
100
AcDbEntity
  8
0
 62
     7
100
AcDbCircle
 10
-89.50000000000001
 20
-131.0
 30
0.0
 40
4.0
  0
LINE
  5
2E2
330
1E
100
AcDbEntity
  8
0
 62
     7
100
AcDbLine
 10
-89.0
 20
-127.031373
 30
0.0
 11
-89.0
 21
-134.968627
 31
0.0
  0
LINE
  5
2E3
330
1E
100
AcDbEntity
  8
0
 62
     7
100
AcDbLine
 10
-90.0
 20
-127.031373
 30
0.0
 11
-90.0
 21
-134.968627
 31
0.0
  0
LINE
  5
2E4
330
1E
100
AcDbEntity
  8
0
  6
CENTER
 62
     2
100
AcDbLine
 10
-43.5000005
 20
-100.5
 30
0.0
 11
-33.000014
 21
-100.5
 31
0.0
  0
LINE
  5
2E5
330
1E
100
AcDbEntity
  8
0
 62
     7
100
AcDbLine
 10
-41.5000005
 20
-96.4999998
 30
0.0
 11
-35.5
 21
-96.4999998
 31
0.0
  0
LINE
  5
2E6
330
1E
100
AcDbEntity
  8
0
 62
     7
100
AcDbLine
 10
-41.5000005
 20
-104.4999999999999
 30
0.0
 11
-35.5
 21
-104.4999999999999
 31
0.0
  0
LINE
  5
2E7
330
1E
100
AcDbEntity
  8
0
 62
     2
100
AcDbLine
 10
-35.12497949999999
 20
-96.8749998
 30
0.0
 11
-41.5000005
 21
-96.8749998
 31
0.0
  0
LINE
  5
2E8
330
1E
100
AcDbEntity
  8
0
 62
     2
100
AcDbLine
 10
-41.5000005
 20
-104.125
 30
0.0
 11
-35.1250205
 21
-104.125
 31
0.0
  0
LINE
  5
2E9
330
1E
100
AcDbEntity
  8
0
 62
     7
100
AcDbLine
 10
-35.5
 20
-104.499979
 30
0.0
 11
-35.5
 21
-96.49997929999999
 31
0.0
  0
LINE
  5
2EA
330
1E
100
AcDbEntity
  8
0
 62
     7
100
AcDbLine
 10
-35.0
 20
-103.999979
 30
0.0
 11
-35.0
 21
-96.9999793
 31
0.0
  0
LINE
  5
2EB
330
1E
100
AcDbEntity
  8
0
 62
     7
100
AcDbLine
 10
-35.5
 20
-104.499979
 30
0.0
 11
-35.0
 21
-103.999979
 31
0.0
  0
LINE
  5
2EC
330
1E
100
AcDbEntity
  8
0
 62
     7
100
AcDbLine
 10
-35.5
 20
-96.49997929999999
 30
0.0
 11
-35.0
 21
-96.9999793
 31
0.0
  0
POLYLINE
  5
2ED
330
1E
100
AcDbEntity
  8
0
 62
     7
100
AcDb2dPolyline
 66
     1
 10
0.0
 20
0.0
 30
0.0
  0
VERTEX
  5
556
330
2ED
100
AcDbEntity
  8
0
 62
     7
100
AcDbVertex
100
AcDb2dVertex
 10
-43.05340029999999
 20
-95.4999998
 30
0.0
  0
VERTEX
  5
557
330
2ED
100
AcDbEntity
  8
0
 62
     7
100
AcDbVertex
100
AcDb2dVertex
 10
-43.13511489999999
 20
-95.74072499999999
 30
0.0
  0
VERTEX
  5
558
330
2ED
100
AcDbEntity
  8
0
 62
     7
100
AcDbVertex
100
AcDb2dVertex
 10
-43.20921529999999
 20
-95.984379
 30
0.0
  0
VERTEX
  5
559
330
2ED
100
AcDbEntity
  8
0
 62
     7
100
AcDbVertex
100
AcDb2dVertex
 10
-43.27546889999999
 20
-96.23063659999999
 30
0.0
  0
VERTEX
  5
55A
330
2ED
100
AcDbEntity
  8
0
 62
     7
100
AcDbVertex
100
AcDb2dVertex
 10
-43.3336431
 20
-96.47917209999999
 30
0.0
  0
VERTEX
  5
55B
330
2ED
100
AcDbEntity
  8
0
 62
     7
100
AcDbVertex
100
AcDb2dVertex
 10
-43.3835055
 20
-96.72966030000001
 30
0.0
  0
VERTEX
  5
55C
330
2ED
100
AcDbEntity
  8
0
 62
     7
100
AcDbVertex
100
AcDb2dVertex
 10
-43.4248234
 20
-96.98177559999999
 30
0.0
  0
VERTEX
  5
55D
330
2ED
100
AcDbEntity
  8
0
 62
     7
100
AcDbVertex
100
AcDb2dVertex
 10
-43.45736429999999
 20
-97.23519260000001
 30
0.0
  0
VERTEX
  5
55E
330
2ED
100
AcDbEntity
  8
0
 62
     7
100
AcDbVertex
100
AcDb2dVertex
 10
-43.48089579999999
 20
-97.48958600000001
 30
0.0
  0
VERTEX
  5
55F
330
2ED
100
AcDbEntity
  8
0
 62
     7
100
AcDbVertex
100
AcDb2dVertex
 10
-43.4951852
 20
-97.7446302
 30
0.0
  0
VERTEX
  5
560
330
2ED
100
AcDbEntity
  8
0
 62
     7
100
AcDbVertex
100
AcDb2dVertex
 10
-43.5
 20
-97.9999998
 30
0.0
  0
VERTEX
  5
561
330
2ED
100
AcDbEntity
  8
0
 62
     7
100
AcDbVertex
100
AcDb2dVertex
 10
-43.4951852
 20
-98.2553695
 30
0.0
  0
VERTEX
  5
562
330
2ED
100
AcDbEntity
  8
0
 62
     7
100
AcDbVertex
100
AcDb2dVertex
 10
-43.48089579999999
 20
-98.5104137
 30
0.0
  0
VERTEX
  5
563
330
2ED
100
AcDbEntity
  8
0
 62
     7
100
AcDbVertex
100
AcDb2dVertex
 10
-43.45736429999999
 20
-98.764807
 30
0.0
  0
VERTEX
  5
564
330
2ED
100
AcDbEntity
  8
0
 62
     7
100
AcDbVertex
100
AcDb2dVertex
 10
-43.4248234
 20
-99.01822410000001
 30
0.0
  0
VERTEX
  5
565
330
2ED
100
AcDbEntity
  8
0
 62
     7
100
AcDbVertex
100
AcDb2dVertex
 10
-43.3835055
 20
-99.27033940000001
 30
0.0
  0
VERTEX
  5
566
330
2ED
100
AcDbEntity
  8
0
 62
     7
100
AcDbVertex
100
AcDb2dVertex
 10
-43.3336431
 20
-99.5208275
 30
0.0
  0
VERTEX
  5
567
330
2ED
100
AcDbEntity
  8
0
 62
     7
100
AcDbVertex
100
AcDb2dVertex
 10
-43.27546889999999
 20
-99.76936309999999
 30
0.0
  0
VERTEX
  5
568
330
2ED
100
AcDbEntity
  8
0
 62
     7
100
AcDbVertex
100
AcDb2dVertex
 10
-43.20921529999999
 20
-100.0156209999999
 30
0.0
  0
VERTEX
  5
569
330
2ED
100
AcDbEntity
  8
0
 62
     7
100
AcDbVertex
100
AcDb2dVertex
 10
-43.13511489999999
 20
-100.259275
 30
0.0
  0
VERTEX
  5
56A
330
2ED
100
AcDbEntity
  8
0
 62
     7
100
AcDbVertex
100
AcDb2dVertex
 10
-43.05340029999999
 20
-100.5
 30
0.0
  0
SEQEND
  5
56B
330
2ED
100
AcDbEntity
  8
0
 62
     7
  0
POLYLINE
  5
304
330
1E
100
AcDbEntity
  8
0
 62
     7
100
AcDb2dPolyline
 66
     1
 10
0.0
 20
0.0
 30
0.0
  0
VERTEX
  5
56C
330
304
100
AcDbEntity
  8
0
 62
     7
100
AcDbVertex
100
AcDb2dVertex
 10
-43.05340029999999
 20
-100.5
 30
0.0
  0
VERTEX
  5
56D
330
304
100
AcDbEntity
  8
0
 62
     7
100
AcDbVertex
100
AcDb2dVertex
 10
-43.13511489999999
 20
-100.7407249999999
 30
0.0
  0
VERTEX
  5
56E
330
304
100
AcDbEntity
  8
0
 62
     7
100
AcDbVertex
100
AcDb2dVertex
 10
-43.20921529999999
 20
-100.984379
 30
0.0
  0
VERTEX
  5
56F
330
304
100
AcDbEntity
  8
0
 62
     7
100
AcDbVertex
100
AcDb2dVertex
 10
-43.27546889999999
 20
-101.230637
 30
0.0
  0
VERTEX
  5
570
330
304
100
AcDbEntity
  8
0
 62
     7
100
AcDbVertex
100
AcDb2dVertex
 10
-43.3336431
 20
-101.4791719999999
 30
0.0
  0
VERTEX
  5
571
330
304
100
AcDbEntity
  8
0
 62
     7
100
AcDbVertex
100
AcDb2dVertex
 10
-43.3835055
 20
-101.7296599999999
 30
0.0
  0
VERTEX
  5
572
330
304
100
AcDbEntity
  8
0
 62
     7
100
AcDbVertex
100
AcDb2dVertex
 10
-43.4248234
 20
-101.981776
 30
0.0
  0
VERTEX
  5
573
330
304
100
AcDbEntity
  8
0
 62
     7
100
AcDbVertex
100
AcDb2dVertex
 10
-43.45736429999999
 20
-102.235193
 30
0.0
  0
VERTEX
  5
574
330
304
100
AcDbEntity
  8
0
 62
     7
100
AcDbVertex
100
AcDb2dVertex
 10
-43.48089579999999
 20
-102.4895859999999
 30
0.0
  0
VERTEX
  5
575
330
304
100
AcDbEntity
  8
0
 62
     7
100
AcDbVertex
100
AcDb2dVertex
 10
-43.4951852
 20
-102.74463
 30
0.0
  0
VERTEX
  5
576
330
304
100
AcDbEntity
  8
0
 62
     7
100
AcDbVertex
100
AcDb2dVertex
 10
-43.5
 20
-103.0
 30
0.0
  0
VERTEX
  5
577
330
304
100
AcDbEntity
  8
0
 62
     7
100
AcDbVertex
100
AcDb2dVertex
 10
-43.4951852
 20
-103.2553689999999
 30
0.0
  0
VERTEX
  5
578
330
304
100
AcDbEntity
  8
0
 62
     7
100
AcDbVertex
100
AcDb2dVertex
 10
-43.48089579999999
 20
-103.510414
 30
0.0
  0
VERTEX
  5
579
330
304
100
AcDbEntity
  8
0
 62
     7
100
AcDbVertex
100
AcDb2dVertex
 10
-43.45736429999999
 20
-103.7648069999999
 30
0.0
  0
VERTEX
  5
57A
330
304
100
AcDbEntity
  8
0
 62
     7
100
AcDbVertex
100
AcDb2dVertex
 10
-43.4248234
 20
-104.018224
 30
0.0
  0
VERTEX
  5
57B
330
304
100
AcDbEntity
  8
0
 62
     7
100
AcDbVertex
100
AcDb2dVertex
 10
-43.3835055
 20
-104.270339
 30
0.0
  0
VERTEX
  5
57C
330
304
100
AcDbEntity
  8
0
 62
     7
100
AcDbVertex
100
AcDb2dVertex
 10
-43.3336431
 20
-104.520828
 30
0.0
  0
VERTEX
  5
57D
330
304
100
AcDbEntity
  8
0
 62
     7
100
AcDbVertex
100
AcDb2dVertex
 10
-43.27546889999999
 20
-104.7693629999999
 30
0.0
  0
VERTEX
  5
57E
330
304
100
AcDbEntity
  8
0
 62
     7
100
AcDbVertex
100
AcDb2dVertex
 10
-43.20921529999999
 20
-105.0156209999999
 30
0.0
  0
VERTEX
  5
57F
330
304
100
AcDbEntity
  8
0
 62
     7
100
AcDbVertex
100
AcDb2dVertex
 10
-43.13511489999999
 20
-105.259275
 30
0.0
  0
VERTEX
  5
580
330
304
100
AcDbEntity
  8
0
 62
     7
100
AcDbVertex
100
AcDb2dVertex
 10
-43.05340029999999
 20
-105.4999999999999
 30
0.0
  0
SEQEND
  5
581
330
304
100
AcDbEntity
  8
0
 62
     7
  0
POLYLINE
  5
31B
330
1E
100
AcDbEntity
  8
0
 62
     7
100
AcDb2dPolyline
 66
     1
 10
0.0
 20
0.0
 30
0.0
  0
VERTEX
  5
582
330
31B
100
AcDbEntity
  8
0
 62
     7
100
AcDbVertex
100
AcDb2dVertex
 10
-41.94659620000001
 20
-100.5
 30
0.0
  0
VERTEX
  5
583
330
31B
100
AcDbEntity
  8
0
 62
     7
100
AcDbVertex
100
AcDb2dVertex
 10
-41.8648822
 20
-100.7407249999999
 30
0.0
  0
VERTEX
  5
584
330
31B
100
AcDbEntity
  8
0
 62
     7
100
AcDbVertex
100
AcDb2dVertex
 10
-41.7907823
 20
-100.984379
 30
0.0
  0
VERTEX
  5
585
330
31B
100
AcDbEntity
  8
0
 62
     7
100
AcDbVertex
100
AcDb2dVertex
 10
-41.72452929999999
 20
-101.230637
 30
0.0
  0
VERTEX
  5
586
330
31B
100
AcDbEntity
  8
0
 62
     7
100
AcDbVertex
100
AcDb2dVertex
 10
-41.6663555
 20
-101.4791719999999
 30
0.0
  0
VERTEX
  5
587
330
31B
100
AcDbEntity
  8
0
 62
     7
100
AcDbVertex
100
AcDb2dVertex
 10
-41.6164936
 20
-101.729661
 30
0.0
  0
VERTEX
  5
588
330
31B
100
AcDbEntity
  8
0
 62
     7
100
AcDbVertex
100
AcDb2dVertex
 10
-41.575176
 20
-101.981776
 30
0.0
  0
VERTEX
  5
589
330
31B
100
AcDbEntity
  8
0
 62
     7
100
AcDbVertex
100
AcDb2dVertex
 10
-41.54263529999999
 20
-102.235193
 30
0.0
  0
VERTEX
  5
58A
330
31B
100
AcDbEntity
  8
0
 62
     7
100
AcDbVertex
100
AcDb2dVertex
 10
-41.519104
 20
-102.4895859999999
 30
0.0
  0
VERTEX
  5
58B
330
31B
100
AcDbEntity
  8
0
 62
     7
100
AcDbVertex
100
AcDb2dVertex
 10
-41.50481479999999
 20
-102.74463
 30
0.0
  0
VERTEX
  5
58C
330
31B
100
AcDbEntity
  8
0
 62
     7
100
AcDbVertex
100
AcDb2dVertex
 10
-41.5
 20
-103.0
 30
0.0
  0
VERTEX
  5
58D
330
31B
100
AcDbEntity
  8
0
 62
     7
100
AcDbVertex
100
AcDb2dVertex
 10
-41.50481479999999
 20
-103.2553689999999
 30
0.0
  0
VERTEX
  5
58E
330
31B
100
AcDbEntity
  8
0
 62
     7
100
AcDbVertex
100
AcDb2dVertex
 10
-41.519104
 20
-103.510414
 30
0.0
  0
VERTEX
  5
58F
330
31B
100
AcDbEntity
  8
0
 62
     7
100
AcDbVertex
100
AcDb2dVertex
 10
-41.54263529999999
 20
-103.7648069999999
 30
0.0
  0
VERTEX
  5
590
330
31B
100
AcDbEntity
  8
0
 62
     7
100
AcDbVertex
100
AcDb2dVertex
 10
-41.575176
 20
-104.018224
 30
0.0
  0
VERTEX
  5
591
330
31B
100
AcDbEntity
  8
0
 62
     7
100
AcDbVertex
100
AcDb2dVertex
 10
-41.6164936
 20
-104.270339
 30
0.0
  0
VERTEX
  5
592
330
31B
100
AcDbEntity
  8
0
 62
     7
100
AcDbVertex
100
AcDb2dVertex
 10
-41.6663555
 20
-104.520827
 30
0.0
  0
VERTEX
  5
593
330
31B
100
AcDbEntity
  8
0
 62
     7
100
AcDbVertex
100
AcDb2dVertex
 10
-41.72452929999999
 20
-104.7693629999999
 30
0.0
  0
VERTEX
  5
594
330
31B
100
AcDbEntity
  8
0
 62
     7
100
AcDbVertex
100
AcDb2dVertex
 10
-41.7907823
 20
-105.0156199999999
 30
0.0
  0
VERTEX
  5
595
330
31B
100
AcDbEntity
  8
0
 62
     7
100
AcDbVertex
100
AcDb2dVertex
 10
-41.8648822
 20
-105.259275
 30
0.0
  0
VERTEX
  5
596
330
31B
100
AcDbEntity
  8
0
 62
     7
100
AcDbVertex
100
AcDb2dVertex
 10
-41.94659620000001
 20
-105.4999999999999
 30
0.0
  0
SEQEND
  5
597
330
31B
100
AcDbEntity
  8
0
 62
     7
  0
POLYLINE
  5
332
330
1E
100
AcDbEntity
  8
0
 62
     7
100
AcDb2dPolyline
 66
     1
 10
0.0
 20
0.0
 30
0.0
  0
VERTEX
  5
598
330
332
100
AcDbEntity
  8
0
 62
     7
100
AcDbVertex
100
AcDb2dVertex
 10
-41.94659620000001
 20
-95.4999998
 30
0.0
  0
VERTEX
  5
599
330
332
100
AcDbEntity
  8
0
 62
     7
100
AcDbVertex
100
AcDb2dVertex
 10
-41.8648822
 20
-95.74072509999998
 30
0.0
  0
VERTEX
  5
59A
330
332
100
AcDbEntity
  8
0
 62
     7
100
AcDbVertex
100
AcDb2dVertex
 10
-41.7907823
 20
-95.98437930000001
 30
0.0
  0
VERTEX
  5
59B
330
332
100
AcDbEntity
  8
0
 62
     7
100
AcDbVertex
100
AcDb2dVertex
 10
-41.72452929999999
 20
-96.23063680000001
 30
0.0
  0
VERTEX
  5
59C
330
332
100
AcDbEntity
  8
0
 62
     7
100
AcDbVertex
100
AcDb2dVertex
 10
-41.6663555
 20
-96.47917240000001
 30
0.0
  0
VERTEX
  5
59D
330
332
100
AcDbEntity
  8
0
 62
     7
100
AcDbVertex
100
AcDb2dVertex
 10
-41.6164936
 20
-96.72966049999999
 30
0.0
  0
VERTEX
  5
59E
330
332
100
AcDbEntity
  8
0
 62
     7
100
AcDbVertex
100
AcDb2dVertex
 10
-41.575176
 20
-96.98177579999999
 30
0.0
  0
VERTEX
  5
59F
330
332
100
AcDbEntity
  8
0
 62
     7
100
AcDbVertex
100
AcDb2dVertex
 10
-41.54263529999999
 20
-97.23519279999999
 30
0.0
  0
VERTEX
  5
5A0
330
332
100
AcDbEntity
  8
0
 62
     7
100
AcDbVertex
100
AcDb2dVertex
 10
-41.519104
 20
-97.4895861
 30
0.0
  0
VERTEX
  5
5A1
330
332
100
AcDbEntity
  8
0
 62
     7
100
AcDbVertex
100
AcDb2dVertex
 10
-41.50481479999999
 20
-97.7446302
 30
0.0
  0
VERTEX
  5
5A2
330
332
100
AcDbEntity
  8
0
 62
     7
100
AcDbVertex
100
AcDb2dVertex
 10
-41.5
 20
-97.9999998
 30
0.0
  0
VERTEX
  5
5A3
330
332
100
AcDbEntity
  8
0
 62
     7
100
AcDbVertex
100
AcDb2dVertex
 10
-41.50481479999999
 20
-98.2553694
 30
0.0
  0
VERTEX
  5
5A4
330
332
100
AcDbEntity
  8
0
 62
     7
100
AcDbVertex
100
AcDb2dVertex
 10
-41.519104
 20
-98.5104135
 30
0.0
  0
VERTEX
  5
5A5
330
332
100
AcDbEntity
  8
0
 62
     7
100
AcDbVertex
100
AcDb2dVertex
 10
-41.54263529999999
 20
-98.7648068
 30
0.0
  0
VERTEX
  5
5A6
330
332
100
AcDbEntity
  8
0
 62
     7
100
AcDbVertex
100
AcDb2dVertex
 10
-41.575176
 20
-99.0182238
 30
0.0
  0
VERTEX
  5
5A7
330
332
100
AcDbEntity
  8
0
 62
     7
100
AcDbVertex
100
AcDb2dVertex
 10
-41.6164936
 20
-99.2703391
 30
0.0
  0
VERTEX
  5
5A8
330
332
100
AcDbEntity
  8
0
 62
     7
100
AcDbVertex
100
AcDb2dVertex
 10
-41.6663555
 20
-99.52082719999999
 30
0.0
  0
VERTEX
  5
5A9
330
332
100
AcDbEntity
  8
0
 62
     7
100
AcDbVertex
100
AcDb2dVertex
 10
-41.72452929999999
 20
-99.7693628
 30
0.0
  0
VERTEX
  5
5AA
330
332
100
AcDbEntity
  8
0
 62
     7
100
AcDbVertex
100
AcDb2dVertex
 10
-41.7907823
 20
-100.0156199999999
 30
0.0
  0
VERTEX
  5
5AB
330
332
100
AcDbEntity
  8
0
 62
     7
100
AcDbVertex
100
AcDb2dVertex
 10
-41.8648822
 20
-100.259275
 30
0.0
  0
VERTEX
  5
5AC
330
332
100
AcDbEntity
  8
0
 62
     7
100
AcDbVertex
100
AcDb2dVertex
 10
-41.94659620000001
 20
-100.5
 30
0.0
  0
SEQEND
  5
5AD
330
332
100
AcDbEntity
  8
0
 62
     7
  0
LINE
  5
349
330
1E
100
AcDbEntity
  8
0
  6
CENTER
 62
     2
100
AcDbLine
 10
219.4999999999999
 20
-38.0
 30
0.0
 11
219.4999999999999
 21
-41.39999999999999
 31
0.0
  0
LINE
  5
34A
330
1E
100
AcDbEntity
  8
0
 62
     7
100
AcDbLine
 10
202.0
 20
21.0
 30
0.0
 11
202.0
 21
19.0
 31
0.0
  0
LINE
  5
34B
330
1E
100
AcDbEntity
  8
0
 62
     7
100
AcDbLine
 10
198.0
 20
21.0
 30
0.0
 11
198.0
 21
19.0
 31
0.0
  0
LINE
  5
34C
330
1E
100
AcDbEntity
  8
0
  6
CENTER
 62
     2
100
AcDbLine
 10
204.0
 20
21.0
 30
0.0
 11
196.0
 21
21.0
 31
0.0
  0
ARC
  5
34D
330
1E
100
AcDbEntity
  8
0
 62
     7
100
AcDbCircle
 10
200.0
 20
21.0
 30
0.0
 40
2.0
100
AcDbArc
 50
0.0
 51
180.0
  0
ARC
  5
34E
330
1E
100
AcDbEntity
  8
0
 62
     7
100
AcDbCircle
 10
200.0
 20
19.0
 30
0.0
 40
2.0
100
AcDbArc
 50
180.0
 51
0.0
  0
CIRCLE
  5
34F
330
1E
100
AcDbEntity
  8
0
 62
     7
100
AcDbCircle
 10
200.0
 20
-20.0
 30
0.0
 40
2.0
  0
LINE
  5
350
330
1E
100
AcDbEntity
  8
0
  6
CENTER
 62
     2
100
AcDbLine
 10
204.0
 20
19.0
 30
0.0
 11
196.0
 21
19.0
 31
0.0
  0
LINE
  5
351
330
1E
100
AcDbEntity
  8
0
  6
CENTER
 62
     2
100
AcDbLine
 10
204.0
 20
-20.0
 30
0.0
 11
196.0
 21
-20.0
 31
0.0
  0
LINE
  5
352
330
1E
100
AcDbEntity
  8
0
 62
     7
100
AcDbLine
 10
187.5
 20
38.00002670000001
 30
0.0
 11
187.5
 21
-37.9999962
 31
0.0
  0
LINE
  5
353
330
1E
100
AcDbEntity
  8
0
 62
     7
100
AcDbLine
 10
212.5
 20
38.0000076
 30
0.0
 11
212.5
 21
-38.0
 31
0.0
  0
LINE
  5
354
330
1E
100
AcDbEntity
  8
0
 62
     7
100
AcDbLine
 10
187.0
 20
38.00002670000001
 30
0.0
 11
187.0
 21
-37.9999962
 31
0.0
  0
LINE
  5
355
330
1E
100
AcDbEntity
  8
0
 62
     7
100
AcDbLine
 10
213.0
 20
38.0000076
 30
0.0
 11
213.0
 21
-38.0
 31
0.0
  0
LINE
  5
356
330
1E
100
AcDbEntity
  8
0
 62
     7
100
AcDbLine
 10
184.4999999999999
 20
-38.3
 30
0.0
 11
176.5
 21
-38.3
 31
0.0
  0
LINE
  5
357
330
1E
100
AcDbEntity
  8
0
 62
     7
100
AcDbLine
 10
181.0
 20
-38.6
 30
0.0
 11
180.0
 21
-38.6
 31
0.0
  0
LINE
  5
358
330
1E
100
AcDbEntity
  8
0
 62
     7
100
AcDbLine
 10
176.5
 20
-39.2
 30
0.0
 11
180.0
 21
-39.2
 31
0.0
  0
LINE
  5
359
330
1E
100
AcDbEntity
  8
0
 62
     7
100
AcDbLine
 10
180.0
 20
-39.39999999999999
 30
0.0
 11
176.6999999999999
 21
-39.39999999999999
 31
0.0
  0
LINE
  5
35A
330
1E
100
AcDbEntity
  8
0
 62
     7
100
AcDbLine
 10
180.0
 20
-38.6
 30
0.0
 11
180.0
 21
-39.39999999999999
 31
0.0
  0
LINE
  5
35B
330
1E
100
AcDbEntity
  8
0
 62
     7
100
AcDbLine
 10
176.6999999999999
 20
-39.39999999999999
 30
0.0
 11
176.5
 21
-39.2
 31
0.0
  0
LINE
  5
35C
330
1E
100
AcDbEntity
  8
0
 62
     7
100
AcDbLine
 10
176.5
 20
-38.3
 30
0.0
 11
176.5
 21
-39.2
 31
0.0
  0
LINE
  5
35D
330
1E
100
AcDbEntity
  8
0
 62
     7
100
AcDbLine
 10
184.4999999999999
 20
-39.2
 30
0.0
 11
181.0
 21
-39.2
 31
0.0
  0
LINE
  5
35E
330
1E
100
AcDbEntity
  8
0
 62
     7
100
AcDbLine
 10
181.0
 20
-38.6
 30
0.0
 11
181.0
 21
-39.39999999999999
 31
0.0
  0
LINE
  5
35F
330
1E
100
AcDbEntity
  8
0
 62
     7
100
AcDbLine
 10
184.3
 20
-39.39999999999999
 30
0.0
 11
184.4999999999999
 21
-39.2
 31
0.0
  0
LINE
  5
360
330
1E
100
AcDbEntity
  8
0
 62
     7
100
AcDbLine
 10
184.3
 20
-39.39999999999999
 30
0.0
 11
181.0
 21
-39.39999999999999
 31
0.0
  0
LINE
  5
361
330
1E
100
AcDbEntity
  8
0
 62
     7
100
AcDbLine
 10
184.4999999999999
 20
-38.3
 30
0.0
 11
184.4999999999999
 21
-39.2
 31
0.0
  0
LINE
  5
362
330
1E
100
AcDbEntity
  8
0
 62
     7
100
AcDbLine
 10
176.6
 20
-38.0
 30
0.0
 11
176.6
 21
-38.3
 31
0.0
  0
LINE
  5
363
330
1E
100
AcDbEntity
  8
0
 62
     7
100
AcDbLine
 10
184.4
 20
-38.0
 30
0.0
 11
184.4
 21
-38.3
 31
0.0
  0
LINE
  5
364
330
1E
100
AcDbEntity
  8
0
  6
CENTER
 62
     2
100
AcDbLine
 10
180.4999999999999
 20
-38.0
 30
0.0
 11
180.4999999999999
 21
-41.39999999999999
 31
0.0
  0
LINE
  5
365
330
1E
100
AcDbEntity
  8
0
  6
CENTER
 62
     2
100
AcDbLine
 10
180.4999999999999
 20
41.39999999999999
 30
0.0
 11
180.4999999999999
 21
38.0
 31
0.0
  0
LINE
  5
366
330
1E
100
AcDbEntity
  8
0
 62
     7
100
AcDbLine
 10
184.4999999999999
 20
38.3
 30
0.0
 11
184.4999999999999
 21
39.2
 31
0.0
  0
LINE
  5
367
330
1E
100
AcDbEntity
  8
0
 62
     7
100
AcDbLine
 10
184.3
 20
39.39999999999999
 30
0.0
 11
181.0
 21
39.39999999999999
 31
0.0
  0
LINE
  5
368
330
1E
100
AcDbEntity
  8
0
 62
     7
100
AcDbLine
 10
184.3
 20
39.39999999999999
 30
0.0
 11
184.4999999999999
 21
39.2
 31
0.0
  0
LINE
  5
369
330
1E
100
AcDbEntity
  8
0
 62
     7
100
AcDbLine
 10
181.0
 20
38.6
 30
0.0
 11
181.0
 21
39.39999999999999
 31
0.0
  0
LINE
  5
36A
330
1E
100
AcDbEntity
  8
0
 62
     7
100
AcDbLine
 10
184.4999999999999
 20
39.2
 30
0.0
 11
181.0
 21
39.2
 31
0.0
  0
LINE
  5
36B
330
1E
100
AcDbEntity
  8
0
 62
     7
100
AcDbLine
 10
176.5
 20
38.3
 30
0.0
 11
176.5
 21
39.2
 31
0.0
  0
LINE
  5
36C
330
1E
100
AcDbEntity
  8
0
 62
     7
100
AcDbLine
 10
176.6999999999999
 20
39.39999999999999
 30
0.0
 11
176.5
 21
39.2
 31
0.0
  0
LINE
  5
36D
330
1E
100
AcDbEntity
  8
0
 62
     7
100
AcDbLine
 10
180.0
 20
38.6
 30
0.0
 11
180.0
 21
39.39999999999999
 31
0.0
  0
LINE
  5
36E
330
1E
100
AcDbEntity
  8
0
 62
     7
100
AcDbLine
 10
180.0
 20
39.39999999999999
 30
0.0
 11
176.6999999999999
 21
39.39999999999999
 31
0.0
  0
LINE
  5
36F
330
1E
100
AcDbEntity
  8
0
 62
     7
100
AcDbLine
 10
176.5
 20
39.2
 30
0.0
 11
180.0
 21
39.2
 31
0.0
  0
LINE
  5
370
330
1E
100
AcDbEntity
  8
0
 62
     7
100
AcDbLine
 10
181.0
 20
38.6
 30
0.0
 11
180.0
 21
38.6
 31
0.0
  0
LINE
  5
371
330
1E
100
AcDbEntity
  8
0
 62
     7
100
AcDbLine
 10
184.4999999999999
 20
38.3
 30
0.0
 11
176.5
 21
38.3
 31
0.0
  0
LINE
  5
372
330
1E
100
AcDbEntity
  8
0
 62
     7
100
AcDbLine
 10
184.4
 20
38.0
 30
0.0
 11
184.4
 21
38.3
 31
0.0
  0
LINE
  5
373
330
1E
100
AcDbEntity
  8
0
 62
     7
100
AcDbLine
 10
176.6
 20
38.0
 30
0.0
 11
176.6
 21
38.3
 31
0.0
  0
LINE
  5
374
330
1E
100
AcDbEntity
  8
0
 62
     7
100
AcDbLine
 10
215.6
 20
-38.0
 30
0.0
 11
215.6
 21
-38.3
 31
0.0
  0
LINE
  5
375
330
1E
100
AcDbEntity
  8
0
 62
     7
100
AcDbLine
 10
223.3999999999999
 20
-38.0
 30
0.0
 11
223.3999999999999
 21
-38.3
 31
0.0
  0
LINE
  5
376
330
1E
100
AcDbEntity
  8
0
 62
     7
100
AcDbLine
 10
223.3999999999999
 20
38.0
 30
0.0
 11
223.3999999999999
 21
38.3
 31
0.0
  0
LINE
  5
377
330
1E
100
AcDbEntity
  8
0
 62
     7
100
AcDbLine
 10
215.6
 20
38.0
 30
0.0
 11
215.6
 21
38.3
 31
0.0
  0
LINE
  5
378
330
1E
100
AcDbEntity
  8
0
 62
     7
100
AcDbLine
 10
228.0
 20
-30.5
 30
0.0
 11
228.0
 21
-27.0
 31
0.0
  0
LINE
  5
379
330
1E
100
AcDbEntity
  8
0
 62
     7
100
AcDbLine
 10
228.2
 20
-27.0
 30
0.0
 11
228.2
 21
-30.3
 31
0.0
  0
LINE
  5
37A
330
1E
100
AcDbEntity
  8
0
 62
     7
100
AcDbLine
 10
227.4
 20
-27.0
 30
0.0
 11
228.2
 21
-27.0
 31
0.0
  0
LINE
  5
37B
330
1E
100
AcDbEntity
  8
0
 62
     7
100
AcDbLine
 10
228.2
 20
-30.3
 30
0.0
 11
228.0
 21
-30.5
 31
0.0
  0
LINE
  5
37C
330
1E
100
AcDbEntity
  8
0
 62
     7
100
AcDbLine
 10
227.0999999999999
 20
-30.5
 30
0.0
 11
228.0
 21
-30.5
 31
0.0
  0
LINE
  5
37D
330
1E
100
AcDbEntity
  8
0
 62
     7
100
AcDbLine
 10
228.0
 20
-22.5
 30
0.0
 11
228.0
 21
-26.0
 31
0.0
  0
LINE
  5
37E
330
1E
100
AcDbEntity
  8
0
 62
     7
100
AcDbLine
 10
227.4
 20
-26.0
 30
0.0
 11
228.2
 21
-26.0
 31
0.0
  0
LINE
  5
37F
330
1E
100
AcDbEntity
  8
0
 62
     7
100
AcDbLine
 10
228.2
 20
-22.7
 30
0.0
 11
228.0
 21
-22.5
 31
0.0
  0
LINE
  5
380
330
1E
100
AcDbEntity
  8
0
 62
     7
100
AcDbLine
 10
228.2
 20
-22.7
 30
0.0
 11
228.2
 21
-26.0
 31
0.0
  0
LINE
  5
381
330
1E
100
AcDbEntity
  8
0
 62
     7
100
AcDbLine
 10
227.0999999999999
 20
-22.5
 30
0.0
 11
228.0
 21
-22.5
 31
0.0
  0
LINE
  5
382
330
1E
100
AcDbEntity
  8
0
 62
     7
100
AcDbLine
 10
227.4
 20
-26.0
 30
0.0
 11
227.4
 21
-27.0
 31
0.0
  0
LINE
  5
383
330
1E
100
AcDbEntity
  8
0
 62
     7
100
AcDbLine
 10
227.0999999999999
 20
-22.5
 30
0.0
 11
227.0999999999999
 21
-30.5
 31
0.0
  0
LINE
  5
384
330
1E
100
AcDbEntity
  8
0
 62
     7
100
AcDbLine
 10
227.0999999999999
 20
-30.4
 30
0.0
 11
226.5
 21
-30.4
 31
0.0
  0
LINE
  5
385
330
1E
100
AcDbEntity
  8
0
 62
     7
100
AcDbLine
 10
227.0999999999999
 20
-22.6
 30
0.0
 11
226.5
 21
-22.6
 31
0.0
  0
LINE
  5
386
330
1E
100
AcDbEntity
  8
0
  6
CENTER
 62
     2
100
AcDbLine
 10
226.5
 20
-26.5
 30
0.0
 11
230.2
 21
-26.5
 31
0.0
  0
LINE
  5
387
330
1E
100
AcDbEntity
  8
0
 62
     7
100
AcDbLine
 10
227.0999999999999
 20
22.5
 30
0.0
 11
227.0999999999999
 21
30.5
 31
0.0
  0
LINE
  5
388
330
1E
100
AcDbEntity
  8
0
 62
     7
100
AcDbLine
 10
227.4
 20
26.0
 30
0.0
 11
227.4
 21
27.0
 31
0.0
  0
LINE
  5
389
330
1E
100
AcDbEntity
  8
0
 62
     7
100
AcDbLine
 10
227.0999999999999
 20
22.5
 30
0.0
 11
228.0
 21
22.5
 31
0.0
  0
LINE
  5
38A
330
1E
100
AcDbEntity
  8
0
 62
     7
100
AcDbLine
 10
228.2
 20
22.7
 30
0.0
 11
228.2
 21
26.0
 31
0.0
  0
LINE
  5
38B
330
1E
100
AcDbEntity
  8
0
 62
     7
100
AcDbLine
 10
228.2
 20
22.7
 30
0.0
 11
228.0
 21
22.5
 31
0.0
  0
LINE
  5
38C
330
1E
100
AcDbEntity
  8
0
 62
     7
100
AcDbLine
 10
227.4
 20
26.0
 30
0.0
 11
228.2
 21
26.0
 31
0.0
  0
LINE
  5
38D
330
1E
100
AcDbEntity
  8
0
 62
     7
100
AcDbLine
 10
228.0
 20
22.5
 30
0.0
 11
228.0
 21
26.0
 31
0.0
  0
LINE
  5
38E
330
1E
100
AcDbEntity
  8
0
 62
     7
100
AcDbLine
 10
227.0999999999999
 20
30.5
 30
0.0
 11
228.0
 21
30.5
 31
0.0
  0
LINE
  5
38F
330
1E
100
AcDbEntity
  8
0
 62
     7
100
AcDbLine
 10
228.2
 20
30.3
 30
0.0
 11
228.0
 21
30.5
 31
0.0
  0
LINE
  5
390
330
1E
100
AcDbEntity
  8
0
 62
     7
100
AcDbLine
 10
227.4
 20
27.0
 30
0.0
 11
228.2
 21
27.0
 31
0.0
  0
LINE
  5
391
330
1E
100
AcDbEntity
  8
0
 62
     7
100
AcDbLine
 10
228.2
 20
27.0
 30
0.0
 11
228.2
 21
30.3
 31
0.0
  0
LINE
  5
392
330
1E
100
AcDbEntity
  8
0
 62
     7
100
AcDbLine
 10
228.0
 20
30.5
 30
0.0
 11
228.0
 21
27.0
 31
0.0
  0
LINE
  5
393
330
1E
100
AcDbEntity
  8
0
 62
     7
100
AcDbLine
 10
227.0999999999999
 20
30.4
 30
0.0
 11
226.5
 21
30.4
 31
0.0
  0
LINE
  5
394
330
1E
100
AcDbEntity
  8
0
 62
     7
100
AcDbLine
 10
227.0999999999999
 20
22.6
 30
0.0
 11
226.5
 21
22.6
 31
0.0
  0
LINE
  5
395
330
1E
100
AcDbEntity
  8
0
  6
CENTER
 62
     2
100
AcDbLine
 10
195.0
 20
-32.0
 30
0.0
 11
205.0
 21
-32.0
 31
0.0
  0
CIRCLE
  5
396
330
1E
100
AcDbEntity
  8
0
 62
     2
100
AcDbCircle
 10
200.0
 20
-32.0
 30
0.0
 40
3.0
  0
CIRCLE
  5
397
330
1E
100
AcDbEntity
  8
0
 62
     2
100
AcDbCircle
 10
200.0
 20
32.0
 30
0.0
 40
3.0
  0
CIRCLE
  5
398
330
1E
100
AcDbEntity
  8
0
 62
     7
100
AcDbCircle
 10
200.0
 20
-32.0
 30
0.0
 40
2.6
  0
CIRCLE
  5
399
330
1E
100
AcDbEntity
  8
0
 62
     7
100
AcDbCircle
 10
200.0
 20
32.0
 30
0.0
 40
2.6
  0
LINE
  5
39A
330
1E
100
AcDbEntity
  8
0
  6
CENTER
 62
     2
100
AcDbLine
 10
195.0
 20
32.0
 30
0.0
 11
205.0
 21
32.0
 31
0.0
  0
CIRCLE
  5
39B
330
1E
100
AcDbEntity
  8
0
 62
     7
100
AcDbCircle
 10
200.0
 20
0.0
 30
0.0
 40
10.5
  0
LINE
  5
39C
330
1E
100
AcDbEntity
  8
0
  6
CENTER
 62
     2
100
AcDbLine
 10
226.5
 20
26.5
 30
0.0
 11
230.2
 21
26.5
 31
0.0
  0
ARC
  5
39D
330
1E
100
AcDbEntity
  8
0
 62
     7
100
AcDbCircle
 10
170.9441679999999
 20
-13.16989519999999
 30
0.0
 40
2.555816169999999
100
AcDbArc
 50
325.6156439999999
 51
34.3843657
  0
ARC
  5
39E
330
1E
100
AcDbEntity
  8
0
 62
     7
100
AcDbCircle
 10
170.9441679999999
 20
-21.83009719999999
 30
0.0
 40
2.555816169999999
100
AcDbArc
 50
325.615617
 51
34.3843384
  0
ARC
  5
39F
330
1E
100
AcDbEntity
  8
0
 62
     7
100
AcDbCircle
 10
163.9465949999999
 20
-17.4999733
 30
0.0
 40
9.55339146
100
AcDbArc
 50
342.4119539999999
 51
17.5879743
  0
ARC
  5
3A0
330
1E
100
AcDbEntity
  8
0
 62
     7
100
AcDbCircle
 10
174.0558019999999
 20
-13.16989519999999
 30
0.0
 40
2.555816169999999
100
AcDbArc
 50
145.615598
 51
214.38432
  0
ARC
  5
3A1
330
1E
100
AcDbEntity
  8
0
 62
     7
100
AcDbCircle
 10
181.053391
 20
-17.4999733
 30
0.0
 40
9.55339146
100
AcDbArc
 50
162.4119889999999
 51
197.5880099999999
  0
ARC
  5
3A2
330
1E
100
AcDbEntity
  8
0
 62
     7
100
AcDbCircle
 10
174.0558169999999
 20
-21.83009719999999
 30
0.0
 40
2.555816169999999
100
AcDbArc
 50
145.615626
 51
214.384347
  0
LINE
  5
3A3
330
1E
100
AcDbEntity
  8
0
 62
     7
100
AcDbLine
 10
173.053378
 20
-11.7265348
 30
0.0
 11
173.4999489999999
 21
-12.50001909999999
 31
0.0
  0
LINE
  5
3A4
330
1E
100
AcDbEntity
  8
0
 62
     7
100
AcDbLine
 10
173.0533829999999
 20
-23.27346879999999
 30
0.0
 11
173.4999699999999
 21
-22.4999581
 31
0.0
  0
LINE
  5
3A5
330
1E
100
AcDbEntity
  8
0
 62
     7
100
AcDbLine
 10
171.9465419999999
 20
-11.7265095
 30
0.0
 11
171.4999549999999
 21
-12.5000201
 31
0.0
  0
LINE
  5
3A6
330
1E
100
AcDbEntity
  8
0
 62
     7
100
AcDbLine
 10
171.9465539999999
 20
-23.2734778
 30
0.0
 11
171.499967
 21
-22.4999671
 31
0.0
  0
LINE
  5
3A7
330
1E
100
AcDbEntity
  8
0
 62
     7
100
AcDbLine
 10
173.053345
 20
-11.7264557
 30
0.0
 11
171.9465639999999
 21
-11.7264557
 31
0.0
  0
LINE
  5
3A8
330
1E
100
AcDbEntity
  8
0
 62
     7
100
AcDbLine
 10
173.053391
 20
-14.613205
 30
0.0
 11
171.9465639999999
 21
-14.613205
 31
0.0
  0
LINE
  5
3A9
330
1E
100
AcDbEntity
  8
0
 62
     7
100
AcDbLine
 10
173.053406
 20
-20.38670349999999
 30
0.0
 11
171.9465639999999
 21
-20.38670349999999
 31
0.0
  0
LINE
  5
3AA
330
1E
100
AcDbEntity
  8
0
 62
     7
100
AcDbLine
 10
173.053391
 20
-23.27346799999999
 30
0.0
 11
171.9465639999999
 21
-23.27346799999999
 31
0.0
  0
LINE
  5
3AB
330
1E
100
AcDbEntity
  8
0
 62
     7
100
AcDbLine
 10
171.5
 20
-22.4999886
 30
0.0
 11
171.5
 21
-12.5000496
 31
0.0
  0
LINE
  5
3AC
330
1E
100
AcDbEntity
  8
0
 62
     7
100
AcDbLine
 10
171.5
 20
22.4999886
 30
0.0
 11
171.5
 21
12.5000496
 31
0.0
  0
LINE
  5
3AD
330
1E
100
AcDbEntity
  8
0
 62
     7
100
AcDbLine
 10
173.053391
 20
23.27346799999999
 30
0.0
 11
171.9465639999999
 21
23.27346799999999
 31
0.0
  0
LINE
  5
3AE
330
1E
100
AcDbEntity
  8
0
 62
     7
100
AcDbLine
 10
173.053406
 20
20.38670349999999
 30
0.0
 11
171.9465639999999
 21
20.38670349999999
 31
0.0
  0
LINE
  5
3AF
330
1E
100
AcDbEntity
  8
0
 62
     7
100
AcDbLine
 10
173.053391
 20
14.613205
 30
0.0
 11
171.9465639999999
 21
14.613205
 31
0.0
  0
LINE
  5
3B0
330
1E
100
AcDbEntity
  8
0
 62
     7
100
AcDbLine
 10
173.053345
 20
11.7264557
 30
0.0
 11
171.9465639999999
 21
11.7264557
 31
0.0
  0
LINE
  5
3B1
330
1E
100
AcDbEntity
  8
0
 62
     7
100
AcDbLine
 10
171.9465539999999
 20
23.2734778
 30
0.0
 11
171.499967
 21
22.4999671
 31
0.0
  0
LINE
  5
3B2
330
1E
100
AcDbEntity
  8
0
 62
     7
100
AcDbLine
 10
171.9465419999999
 20
11.7265095
 30
0.0
 11
171.4999549999999
 21
12.5000201
 31
0.0
  0
LINE
  5
3B3
330
1E
100
AcDbEntity
  8
0
 62
     7
100
AcDbLine
 10
173.0533829999999
 20
23.27346879999999
 30
0.0
 11
173.4999699999999
 21
22.4999581
 31
0.0
  0
LINE
  5
3B4
330
1E
100
AcDbEntity
  8
0
 62
     7
100
AcDbLine
 10
173.053378
 20
11.7265348
 30
0.0
 11
173.4999489999999
 21
12.50001909999999
 31
0.0
  0
ARC
  5
3B5
330
1E
100
AcDbEntity
  8
0
 62
     7
100
AcDbCircle
 10
174.0558169999999
 20
21.83009719999999
 30
0.0
 40
2.555816169999999
100
AcDbArc
 50
145.615653
 51
214.384375
  0
ARC
  5
3B6
330
1E
100
AcDbEntity
  8
0
 62
     7
100
AcDbCircle
 10
181.053391
 20
17.4999733
 30
0.0
 40
9.55339146
100
AcDbArc
 50
162.4119889999999
 51
197.5880099999999
  0
ARC
  5
3B7
330
1E
100
AcDbEntity
  8
0
 62
     7
100
AcDbCircle
 10
174.0558019999999
 20
13.16989519999999
 30
0.0
 40
2.555816169999999
100
AcDbArc
 50
145.61568
 51
214.3844009999999
  0
ARC
  5
3B8
330
1E
100
AcDbEntity
  8
0
 62
     7
100
AcDbCircle
 10
163.9465949999999
 20
17.4999733
 30
0.0
 40
9.55339146
100
AcDbArc
 50
342.4120259999999
 51
17.5880463
  0
ARC
  5
3B9
330
1E
100
AcDbEntity
  8
0
 62
     7
100
AcDbCircle
 10
170.9441679999999
 20
21.83009719999999
 30
0.0
 40
2.555816169999999
100
AcDbArc
 50
325.615662
 51
34.384383
  0
ARC
  5
3BA
330
1E
100
AcDbEntity
  8
0
 62
     7
100
AcDbCircle
 10
170.9441679999999
 20
13.16989519999999
 30
0.0
 40
2.555816169999999
100
AcDbArc
 50
325.6156339999999
 51
34.3843557
  0
LINE
  5
3BB
330
1E
100
AcDbEntity
  8
0
 62
     7
100
AcDbLine
 10
173.5
 20
38.00002670000001
 30
0.0
 11
173.5
 21
-37.9999962
 31
0.0
  0
CIRCLE
  5
3BC
330
1E
100
AcDbEntity
  8
0
 62
     7
100
AcDbCircle
 10
181.4999999999999
 20
-28.5
 30
0.0
 40
3.0
  0
LINE
  5
3BD
330
1E
100
AcDbEntity
  8
0
  6
CENTER
 62
     2
100
AcDbLine
 10
186.5
 20
-28.5
 30
0.0
 11
176.5
 21
-28.5
 31
0.0
  0
CIRCLE
  5
3BE
330
1E
100
AcDbEntity
  8
0
 62
     7
100
AcDbCircle
 10
218.5
 20
28.5
 30
0.0
 40
3.0
  0
LINE
  5
3BF
330
1E
100
AcDbEntity
  8
0
  6
CENTER
 62
     2
100
AcDbLine
 10
213.5
 20
28.5
 30
0.0
 11
223.4999999999999
 21
28.5
 31
0.0
  0
LINE
  5
3C0
330
1E
100
AcDbEntity
  8
0
  6
CENTER
 62
     2
100
AcDbLine
 10
230.5
 20
0.0
 30
0.0
 11
169.5
 21
0.0
 31
0.0
  0
LINE
  5
3C1
330
1E
100
AcDbEntity
  8
0
 62
     7
100
AcDbLine
 10
226.5
 20
38.0
 30
0.0
 11
173.5
 21
38.0
 31
0.0
  0
LINE
  5
3C2
330
1E
100
AcDbEntity
  8
0
  6
CENTER
 62
     2
100
AcDbLine
 10
200.0
 20
42.0
 30
0.0
 11
200.0
 21
-42.0
 31
0.0
  0
LINE
  5
3C3
330
1E
100
AcDbEntity
  8
0
 62
     7
100
AcDbLine
 10
226.5
 20
38.0000076
 30
0.0
 11
226.5
 21
-38.0
 31
0.0
  0
LINE
  5
3C4
330
1E
100
AcDbEntity
  8
0
 62
     7
100
AcDbLine
 10
226.5
 20
-38.0
 30
0.0
 11
173.5
 21
-38.0
 31
0.0
  0
LINE
  5
3C5
330
1E
100
AcDbEntity
  8
0
 62
     7
100
AcDbLine
 10
175.0
 20
-38.0
 30
0.0
 11
175.0
 21
38.0
 31
0.0
  0
LINE
  5
3C6
330
1E
100
AcDbEntity
  8
0
 62
     7
100
AcDbLine
 10
225.0
 20
38.0000076
 30
0.0
 11
225.0
 21
-38.0
 31
0.0
  0
LINE
  5
3C7
330
1E
100
AcDbEntity
  8
0
  6
CENTER
 62
     2
100
AcDbLine
 10
218.5
 20
23.5
 30
0.0
 11
218.5
 21
33.5
 31
0.0
  0
LINE
  5
3C8
330
1E
100
AcDbEntity
  8
0
  6
CENTER
 62
     2
100
AcDbLine
 10
219.4999999999999
 20
41.39999999999999
 30
0.0
 11
219.4999999999999
 21
38.0
 31
0.0
  0
CIRCLE
  5
3C9
330
1E
100
AcDbEntity
  8
0
 62
     7
100
AcDbCircle
 10
218.5
 20
28.5
 30
0.0
 40
1.25
  0
CIRCLE
  5
3CA
330
1E
100
AcDbEntity
  8
0
 62
     7
100
AcDbCircle
 10
181.4999999999999
 20
-28.5
 30
0.0
 40
1.25
  0
CIRCLE
  5
3CB
330
1E
100
AcDbEntity
  8
0
 62
     7
100
AcDbCircle
 10
200.0
 20
0.0
 30
0.0
 40
11.0
  0
CIRCLE
  5
3CC
330
1E
100
AcDbEntity
  8
0
 62
     7
100
AcDbCircle
 10
200.0
 20
-4.0
 30
0.0
 40
1.5
  0
CIRCLE
  5
3CD
330
1E
100
AcDbEntity
  8
0
 62
     7
100
AcDbCircle
 10
200.0
 20
4.0
 30
0.0
 40
1.5
  0
LINE
  5
3CE
330
1E
100
AcDbEntity
  8
0
 62
     7
100
AcDbLine
 10
215.5
 20
38.3
 30
0.0
 11
223.4999999999999
 21
38.3
 31
0.0
  0
LINE
  5
3CF
330
1E
100
AcDbEntity
  8
0
 62
     7
100
AcDbLine
 10
219.0
 20
38.6
 30
0.0
 11
220.0
 21
38.6
 31
0.0
  0
LINE
  5
3D0
330
1E
100
AcDbEntity
  8
0
 62
     7
100
AcDbLine
 10
223.4999999999999
 20
39.2
 30
0.0
 11
220.0
 21
39.2
 31
0.0
  0
LINE
  5
3D1
330
1E
100
AcDbEntity
  8
0
 62
     7
100
AcDbLine
 10
220.0
 20
39.39999999999999
 30
0.0
 11
223.3
 21
39.39999999999999
 31
0.0
  0
LINE
  5
3D2
330
1E
100
AcDbEntity
  8
0
 62
     7
100
AcDbLine
 10
220.0
 20
38.6
 30
0.0
 11
220.0
 21
39.39999999999999
 31
0.0
  0
LINE
  5
3D3
330
1E
100
AcDbEntity
  8
0
 62
     7
100
AcDbLine
 10
223.3
 20
39.39999999999999
 30
0.0
 11
223.4999999999999
 21
39.2
 31
0.0
  0
LINE
  5
3D4
330
1E
100
AcDbEntity
  8
0
 62
     7
100
AcDbLine
 10
223.4999999999999
 20
38.3
 30
0.0
 11
223.4999999999999
 21
39.2
 31
0.0
  0
LINE
  5
3D5
330
1E
100
AcDbEntity
  8
0
 62
     7
100
AcDbLine
 10
215.5
 20
39.2
 30
0.0
 11
219.0
 21
39.2
 31
0.0
  0
LINE
  5
3D6
330
1E
100
AcDbEntity
  8
0
 62
     7
100
AcDbLine
 10
219.0
 20
38.6
 30
0.0
 11
219.0
 21
39.39999999999999
 31
0.0
  0
LINE
  5
3D7
330
1E
100
AcDbEntity
  8
0
 62
     7
100
AcDbLine
 10
215.7
 20
39.39999999999999
 30
0.0
 11
215.5
 21
39.2
 31
0.0
  0
LINE
  5
3D8
330
1E
100
AcDbEntity
  8
0
 62
     7
100
AcDbLine
 10
215.7
 20
39.39999999999999
 30
0.0
 11
219.0
 21
39.39999999999999
 31
0.0
  0
LINE
  5
3D9
330
1E
100
AcDbEntity
  8
0
 62
     7
100
AcDbLine
 10
215.5
 20
38.3
 30
0.0
 11
215.5
 21
39.2
 31
0.0
  0
LINE
  5
3DA
330
1E
100
AcDbEntity
  8
0
 62
     7
100
AcDbLine
 10
215.5
 20
-38.3
 30
0.0
 11
215.5
 21
-39.2
 31
0.0
  0
LINE
  5
3DB
330
1E
100
AcDbEntity
  8
0
 62
     7
100
AcDbLine
 10
215.7
 20
-39.39999999999999
 30
0.0
 11
219.0
 21
-39.39999999999999
 31
0.0
  0
LINE
  5
3DC
330
1E
100
AcDbEntity
  8
0
 62
     7
100
AcDbLine
 10
215.7
 20
-39.39999999999999
 30
0.0
 11
215.5
 21
-39.2
 31
0.0
  0
LINE
  5
3DD
330
1E
100
AcDbEntity
  8
0
 62
     7
100
AcDbLine
 10
219.0
 20
-38.6
 30
0.0
 11
219.0
 21
-39.39999999999999
 31
0.0
  0
LINE
  5
3DE
330
1E
100
AcDbEntity
  8
0
 62
     7
100
AcDbLine
 10
215.5
 20
-39.2
 30
0.0
 11
219.0
 21
-39.2
 31
0.0
  0
LINE
  5
3DF
330
1E
100
AcDbEntity
  8
0
 62
     7
100
AcDbLine
 10
223.4999999999999
 20
-38.3
 30
0.0
 11
223.4999999999999
 21
-39.2
 31
0.0
  0
LINE
  5
3E0
330
1E
100
AcDbEntity
  8
0
 62
     7
100
AcDbLine
 10
223.3
 20
-39.39999999999999
 30
0.0
 11
223.4999999999999
 21
-39.2
 31
0.0
  0
LINE
  5
3E1
330
1E
100
AcDbEntity
  8
0
 62
     7
100
AcDbLine
 10
220.0
 20
-38.6
 30
0.0
 11
220.0
 21
-39.39999999999999
 31
0.0
  0
LINE
  5
3E2
330
1E
100
AcDbEntity
  8
0
 62
     7
100
AcDbLine
 10
220.0
 20
-39.39999999999999
 30
0.0
 11
223.3
 21
-39.39999999999999
 31
0.0
  0
LINE
  5
3E3
330
1E
100
AcDbEntity
  8
0
 62
     7
100
AcDbLine
 10
223.4999999999999
 20
-39.2
 30
0.0
 11
220.0
 21
-39.2
 31
0.0
  0
LINE
  5
3E4
330
1E
100
AcDbEntity
  8
0
 62
     7
100
AcDbLine
 10
219.0
 20
-38.6
 30
0.0
 11
220.0
 21
-38.6
 31
0.0
  0
LINE
  5
3E5
330
1E
100
AcDbEntity
  8
0
 62
     7
100
AcDbLine
 10
215.5
 20
-38.3
 30
0.0
 11
223.4999999999999
 21
-38.3
 31
0.0
  0
LINE
  5
3E6
330
1E
100
AcDbEntity
  8
0
  6
CENTER
 62
     2
100
AcDbLine
 10
181.4999999999999
 20
-23.5
 30
0.0
 11
181.4999999999999
 21
-33.5
 31
0.0
  0
LINE
  5
3E7
330
1E
100
AcDbEntity
  8
0
 62
     7
100
AcDbLine
 10
171.5
 20
-21.49999999999999
 30
0.0
 11
165.5
 21
-21.49999999999999
 31
0.0
  0
LINE
  5
3E8
330
1E
100
AcDbEntity
  8
0
 62
     7
100
AcDbLine
 10
171.5
 20
-13.5
 30
0.0
 11
165.5
 21
-13.5
 31
0.0
  0
LINE
  5
3E9
330
1E
100
AcDbEntity
  8
0
 62
     2
100
AcDbLine
 10
165.125
 20
-21.125
 30
0.0
 11
171.5
 21
-21.125
 31
0.0
  0
LINE
  5
3EA
330
1E
100
AcDbEntity
  8
0
 62
     2
100
AcDbLine
 10
171.5
 20
-13.875
 30
0.0
 11
165.125
 21
-13.875
 31
0.0
  0
LINE
  5
3EB
330
1E
100
AcDbEntity
  8
0
  6
CENTER
 62
     2
100
AcDbLine
 10
173.5
 20
-17.5
 30
0.0
 11
163.0
 21
-17.5
 31
0.0
  0
LINE
  5
3EC
330
1E
100
AcDbEntity
  8
0
 62
     7
100
AcDbLine
 10
165.0
 20
-14.0
 30
0.0
 11
165.0
 21
-16.89999999999999
 31
0.0
  0
LINE
  5
3ED
330
1E
100
AcDbEntity
  8
0
 62
     7
100
AcDbLine
 10
165.5
 20
-21.49999999999999
 30
0.0
 11
165.0
 21
-21.0
 31
0.0
  0
LINE
  5
3EE
330
1E
100
AcDbEntity
  8
0
 62
     7
100
AcDbLine
 10
165.5
 20
-13.5
 30
0.0
 11
165.0
 21
-14.0
 31
0.0
  0
LINE
  5
3EF
330
1E
100
AcDbEntity
  8
0
 62
     7
100
AcDbLine
 10
165.5
 20
-21.49999999999999
 30
0.0
 11
165.5
 21
-18.1
 31
0.0
  0
LINE
  5
3F0
330
1E
100
AcDbEntity
  8
0
 62
     7
100
AcDbLine
 10
167.0
 20
-18.1
 30
0.0
 11
165.0
 21
-18.1
 31
0.0
  0
LINE
  5
3F1
330
1E
100
AcDbEntity
  8
0
 62
     7
100
AcDbLine
 10
167.0
 20
-16.89999999999999
 30
0.0
 11
165.0
 21
-16.89999999999999
 31
0.0
  0
LINE
  5
3F2
330
1E
100
AcDbEntity
  8
0
 62
     7
100
AcDbLine
 10
167.0
 20
-18.1
 30
0.0
 11
167.0
 21
-16.89999999999999
 31
0.0
  0
LINE
  5
3F3
330
1E
100
AcDbEntity
  8
0
 62
     7
100
AcDbLine
 10
165.0
 20
-18.1
 30
0.0
 11
165.0
 21
-21.0
 31
0.0
  0
LINE
  5
3F4
330
1E
100
AcDbEntity
  8
0
 62
     7
100
AcDbLine
 10
165.5
 20
-16.89999999999999
 30
0.0
 11
165.5
 21
-13.5
 31
0.0
  0
LINE
  5
3F5
330
1E
100
AcDbEntity
  8
0
 62
     7
100
AcDbLine
 10
171.5
 20
21.49999999999999
 30
0.0
 11
165.5
 21
21.49999999999999
 31
0.0
  0
LINE
  5
3F6
330
1E
100
AcDbEntity
  8
0
 62
     7
100
AcDbLine
 10
171.5
 20
13.5
 30
0.0
 11
165.5
 21
13.5
 31
0.0
  0
LINE
  5
3F7
330
1E
100
AcDbEntity
  8
0
 62
     2
100
AcDbLine
 10
165.125
 20
21.125
 30
0.0
 11
171.5
 21
21.125
 31
0.0
  0
LINE
  5
3F8
330
1E
100
AcDbEntity
  8
0
 62
     2
100
AcDbLine
 10
171.5
 20
13.875
 30
0.0
 11
165.125
 21
13.875
 31
0.0
  0
LINE
  5
3F9
330
1E
100
AcDbEntity
  8
0
  6
CENTER
 62
     2
100
AcDbLine
 10
173.5
 20
17.5
 30
0.0
 11
163.0
 21
17.5
 31
0.0
  0
LINE
  5
3FA
330
1E
100
AcDbEntity
  8
0
 62
     7
100
AcDbLine
 10
165.5
 20
16.89999999999999
 30
0.0
 11
165.5
 21
13.5
 31
0.0
  0
LINE
  5
3FB
330
1E
100
AcDbEntity
  8
0
 62
     7
100
AcDbLine
 10
165.0
 20
18.1
 30
0.0
 11
165.0
 21
21.0
 31
0.0
  0
LINE
  5
3FC
330
1E
100
AcDbEntity
  8
0
 62
     7
100
AcDbLine
 10
167.0
 20
18.1
 30
0.0
 11
167.0
 21
16.89999999999999
 31
0.0
  0
LINE
  5
3FD
330
1E
100
AcDbEntity
  8
0
 62
     7
100
AcDbLine
 10
167.0
 20
16.89999999999999
 30
0.0
 11
165.0
 21
16.89999999999999
 31
0.0
  0
LINE
  5
3FE
330
1E
100
AcDbEntity
  8
0
 62
     7
100
AcDbLine
 10
167.0
 20
18.1
 30
0.0
 11
165.0
 21
18.1
 31
0.0
  0
LINE
  5
3FF
330
1E
100
AcDbEntity
  8
0
 62
     7
100
AcDbLine
 10
165.5
 20
21.49999999999999
 30
0.0
 11
165.5
 21
18.1
 31
0.0
  0
LINE
  5
400
330
1E
100
AcDbEntity
  8
0
 62
     7
100
AcDbLine
 10
165.5
 20
13.5
 30
0.0
 11
165.0
 21
14.0
 31
0.0
  0
LINE
  5
401
330
1E
100
AcDbEntity
  8
0
 62
     7
100
AcDbLine
 10
165.5
 20
21.49999999999999
 30
0.0
 11
165.0
 21
21.0
 31
0.0
  0
LINE
  5
402
330
1E
100
AcDbEntity
  8
0
 62
     7
100
AcDbLine
 10
165.0
 20
14.0
 30
0.0
 11
165.0
 21
16.89999999999999
 31
0.0
  0
TEXT
  5
403
330
1E
100
AcDbEntity
  8
0
 62
     7
100
AcDbText
 10
-267.6002899999999
 20
186.3499999999999
 30
0.0
 40
6.30000019
  1
ROTARY ACTUATOR
 41
1.04166682
  7
MONOTXT
100
AcDbText
  0
LINE
  5
404
330
1E
100
AcDbEntity
  8
0
 62
     7
100
AcDbLine
 10
282.099854
 20
195.5
 30
0.0
 11
282.099854
 21
-195.0
 31
0.0
  0
LINE
  5
405
330
1E
100
AcDbEntity
  8
0
 62
     7
100
AcDbLine
 10
-281.25
 20
195.5
 30
0.0
 11
282.099854
 21
195.5
 31
0.0
  0
LINE
  5
406
330
1E
100
AcDbEntity
  8
0
 62
     7
100
AcDbLine
 10
-281.25
 20
195.5
 30
0.0
 11
-281.25
 21
-195.0
 31
0.0
  0
LINE
  5
407
330
1E
100
AcDbEntity
  8
0
 62
     7
100
AcDbLine
 10
-281.25
 20
-195.0
 30
0.0
 11
282.099854
 21
-195.0
 31
0.0
  0
LINE
  5
408
330
1E
100
AcDbEntity
  8
0
 62
     7
100
AcDbLine
 10
162.099976
 20
-175.0
 30
0.0
 11
162.099976
 21
-195.0
 31
0.0
  0
LINE
  5
409
330
1E
100
AcDbEntity
  8
0
 62
     7
100
AcDbLine
 10
162.099976
 20
-175.0
 30
0.0
 11
282.099854
 21
-175.0
 31
0.0
  0
LINE
  5
40A
330
1E
100
AcDbEntity
  8
0
 62
     7
100
AcDbLine
 10
162.099976
 20
175.5
 30
0.0
 11
282.099854
 21
175.5
 31
0.0
  0
LINE
  5
40B
330
1E
100
AcDbEntity
  8
0
 62
     7
100
AcDbLine
 10
-281.25
 20
175.5
 30
0.0
 11
-161.25
 21
175.5
 31
0.0
  0
LINE
  5
40C
330
1E
100
AcDbEntity
  8
0
 62
     7
100
AcDbLine
 10
162.099976
 20
195.5
 30
0.0
 11
162.099976
 21
175.5
 31
0.0
  0
LINE
  5
40D
330
1E
100
AcDbEntity
  8
0
 62
     7
100
AcDbLine
 10
-161.25
 20
195.5
 30
0.0
 11
-161.25
 21
175.5
 31
0.0
  0
TEXT
  5
40E
330
1E
100
AcDbEntity
  8
0
 62
     7
100
AcDbText
 10
197.7996899999999
 20
182.3499999999999
 30
0.0
 40
6.30000019
  1
Ver. 1.0
 41
1.08108124
  7
MONOTXT
100
AcDbText
  0
TEXT
  5
40F
330
1E
100
AcDbEntity
  8
0
 62
     7
100
AcDbText
 10
169.885276
 20
-189.4999999999999
 30
0.0
 40
9.0
  1
KOGANEI CORP.
 41
1.04838732
  7
MONOTXT
100
AcDbText
  0
TEXT
  5
410
330
1E
100
AcDbEntity
  8
0
 62
     7
100
AcDbText
 10
-229.800283
 20
178.35
 30
0.0
 40
6.30000019
  1
RAT
 41
1.000000149999999
  7
MONOTXT
100
AcDbText
  0
TEXT
  5
411
330
1E
100
AcDbEntity
  8
0
 62
     7
100
AcDbText
 10
-267.600562
 20
157.3499999999999
 30
0.0
 40
6.30000019
  1
MODEL:RAT10-90
 41
1.000000149999999
  7
MONOTXT
100
AcDbText
  0
ENDSEC
  0
SECTION
  2
OBJECTS
  0
DICTIONARY
  5
C
330
0
100
AcDbDictionary
  3
ACAD_GROUP
350
D
  3
ACAD_MLINESTYLE
350
16
  3
ACAD_PLOTSETTINGS
350
18
  3
ACAD_LAYOUT
350
19
1001
ACAD
1000
TREAT_AS_HARD
1070
     0
  0
DICTIONARY
  5
4FC
330
1E
100
AcDbDictionary
  3
ACAD_LAYOUTSELFREF
350
4FD
  0
DICTIONARY
  5
4FA
330
1A
100
AcDbDictionary
  3
ACAD_LAYOUTSELFREF
350
4FB
  0
DICTIONARY
  5
D
102
{ACAD_REACTORS
330
C
102
}
330
C
100
AcDbDictionary
1001
ACAD
1000
TREAT_AS_HARD
1070
     0
  0
DICTIONARY
  5
16
102
{ACAD_REACTORS
330
C
102
}
330
C
100
AcDbDictionary
  3
STANDARD
350
17
1001
ACAD
1000
TREAT_AS_HARD
1070
     0
  0
DICTIONARY
  5
18
102
{ACAD_REACTORS
330
C
102
}
330
C
100
AcDbDictionary
1001
ACAD
1000
TREAT_AS_HARD
1070
     0
  0
DICTIONARY
  5
19
102
{ACAD_REACTORS
330
C
102
}
330
C
100
AcDbDictionary
1001
ACAD
1000
TREAT_AS_HARD
1070
     0
  0
XRECORD
  5
4FD
102
{ACAD_REACTORS
330
4FC
102
}
330
4FC
100
AcDbXrecord
340
1E
  0
XRECORD
  5
4FB
102
{ACAD_REACTORS
330
4FA
102
}
330
4FA
100
AcDbXrecord
340
1A
  0
MLINESTYLE
  5
17
102
{ACAD_REACTORS
330
16
102
}
330
16
100
AcDbMlineStyle
  2
STANDARD
 70
     0
  3

 62
   256
 51
90.0
 52
90.0
 71
     2
 49
0.5
 62
   256
  6
BYLAYER
 49
-0.5
 62
   256
  6
BYLAYER
  0
ENDSEC
  0
EOF
