  0
SECTION
  2
HEADER
  0
ENDSEC
  0
SECTION
  2
TABLES
  0
TABLE
  2
LTYPE
 70
     4
  0
LTYPE
  2
CONTINUOUS
 70
    64
  3
Solid line
 72
    65
 73
     0
 40
0.000000
  0
LTYPE
  2
DASHED
 70
    64
  3
__ __ __ __ __ __ __ __ __ __ __ __ __ __ __
 72
    65
 73
     2
 40
3.500000
 49
2.000000
 49
-1.500000
  0
LTYPE
  2
CENTER
 70
    64
  3
____ _ ____ _ ____ _ ____ _ ____ _ ____ _ ____
 72
    65
 73
     4
 40
17.500000
 49
13.000000
 49
-1.500000
 49
1.500000
 49
-1.500000
  0
LTYPE
  2
PHANTOM
 70
    64
  3
_____ _ _ _____ _ _ _____ _ _ _____ _ _ ____  
 72
    65
 73
     6
 40
15.500000
 49
8.000000
 49
-1.500000
 49
1.500000
 49
-1.500000
 49
1.500000
 49
-1.500000
  0
LTYPE
  2
DASHED1
 70
    64
  3
__ __ __ __ __ __ __ __ __ __ __ __ __ __ __
 72
    65
 73
     2
 40
1.500000
 49
1.000000
 49
-0.500000
  0
LTYPE
  2
DASHED2
 70
    64
  3
__ __ __ __ __ __ __ __ __ __ __ __ __ __ __
 72
    65
 73
     2
 40
3.500000
 49
2.500000
 49
-1.000000
  0
LTYPE
  2
DASHED3
 70
    64
  3
__ __ __ __ __ __ __ __ __ __ __ __ __ __ __
 72
    65
 73
     2
 40
6.000000
 49
4.000000
 49
-2.000000
  0
LTYPE
  2
DASHED4
 70
    64
  3
__ __ __ __ __ __ __ __ __ __ __ __ __ __ __
 72
    65
 73
     2
 40
12.000000
 49
10.000000
 49
-2.000000
  0
LTYPE
  2
DASHED5
 70
    64
  3
__ __ __ __ __ __ __ __ __ __ __ __ __ __ __
 72
    65
 73
     2
 40
17.000000
 49
15.000000
 49
-2.000000
  0
LTYPE
  2
DASHED6
 70
    64
  3
__ __ __ __ __ __ __ __ __ __ __ __ __ __ __
 72
    65
 73
     2
 40
29.000000
 49
27.000000
 49
-2.000000
  0
LTYPE
  2
PHANTOM1
 70
    64
  3
_____ _ _ _____ _ _ _____ _ _ _____ _ _ ____  
 72
    65
 73
     6
 40
31.000000
 49
25.000000
 49
-1.500000
 49
1.000000
 49
-1.000000
 49
1.000000
 49
-1.500000
  0
LTYPE
  2
PHANTOM2
 70
    64
  3
_____ _ _ _____ _ _ _____ _ _ _____ _ _ ____  
 72
    65
 73
     6
 40
36.000000
 49
27.000000
 49
-1.500000
 49
2.500000
 49
-1.000000
 49
2.500000
 49
-1.500000
  0
LTYPE
  2
PHANTOM3
 70
    64
  3
_____ _ _ _____ _ _ _____ _ _ _____ _ _ ____  
 72
    65
 73
     6
 40
78.000000
 49
64.000000
 49
-2.000000
 49
4.000000
 49
-2.000000
 49
4.000000
 49
-2.000000
  0
LTYPE
  2
CENTER1
 70
    64
  3
____ _ ____ _ ____ _ ____ _ ____ _ ____ _ ____
 72
    65
 73
     4
 40
19.000000
 49
14.000000
 49
-1.000000
 49
3.000000
 49
-1.000000
  0
LTYPE
  2
CENTER2
 70
    64
  3
____ _ ____ _ ____ _ ____ _ ____ _ ____ _ ____
 72
    65
 73
     4
 40
28.500000
 49
25.000000
 49
-1.000000
 49
1.500000
 49
-1.000000
  0
LTYPE
  2
CENTER3
 70
    64
  3
____ _ ____ _ ____ _ ____ _ ____ _ ____ _ ____
 72
    65
 73
     4
 40
31.500000
 49
27.000000
 49
-1.000000
 49
2.500000
 49
-1.000000
  0
LTYPE
  2
CENTER4
 70
    64
  3
____ _ ____ _ ____ _ ____ _ ____ _ ____ _ ____
 72
    65
 73
     4
 40
50.000000
 49
45.000000
 49
-1.000000
 49
3.000000
 49
-1.000000
  0
LTYPE
  2
CENTER5
 70
    64
  3
____ _ ____ _ ____ _ ____ _ ____ _ ____ _ ____
 72
    65
 73
     4
 40
100.000000
 49
92.000000
 49
-2.000000
 49
4.000000
 49
-2.000000
  0
LTYPE
  2
SBK1
 70
    64
  3
______ _ _ _ ______ _ _ _ ______ _ _ _ _____  
 72
    65
 73
     8
 40
60.500000
 49
45.000000
 49
-2.000000
 49
2.500000
 49
-2.000000
 49
2.500000
 49
-2.000000
 49
2.500000
 49
-2.000000
  0
LTYPE
  2
SBK2
 70
    64
  3
______ _ _ _ ______ _ _ _ ______ _ _ _ _____  
 72
    65
 73
     8
 40
84.000000
 49
64.000000
 49
-2.000000
 49
4.000000
 49
-2.000000
 49
4.000000
 49
-2.000000
 49
4.000000
 49
-2.000000
  0
LTYPE
  2
STCH
 70
    64
  3
__ __ __ __ __ __ __ __ __ __ __ __ __ __ __
 72
    65
 73
     2
 40
3.000000
 49
1.000000
 49
-2.000000
  0
LTYPE
  2
MTCH
 70
    64
  3
_____ _ _ _____ _ _ _____ _ _ _____ _ _ ____  
 72
    65
 73
     6
 40
80.000000
 49
66.000000
 49
-2.000000
 49
4.000000
 49
-2.000000
 49
4.000000
 49
-2.000000
  0
ENDTAB
  0
TABLE
  2
LAYER
 70
     1
  0
LAYER
  2
0
 70
     0
 62
     7
  6
CONTINUOUS
  0
ENDTAB
  0
TABLE
  2
STYLE
 70
     1
  0
STYLE
  2
STANDARD
 70
     0
 40
0.000000
 41
1.000000
 50
0.000000
 71
     0
 42
0.200000
  3
txt
  4
BIGFONT
  0
ENDTAB
  0
TABLE
  2
VIEW
 70
     0
  0
ENDTAB
  0
ENDSEC
  0
SECTION
  2
BLOCKS
  0
ENDSEC
  0
SECTION
  2
ENTITIES
  0
POINT
  8
0
 10
195.836792
 20
84.279236
  0
POINT
  8
0
 10
264.836792
 20
84.279236
  0
POINT
  8
0
 10
195.836807
 20
190.926102
  0
POINT
  8
0
 10
264.836792
 20
190.926102
  0
POINT
  8
0
 10
61.166718
 20
84.279221
  0
POINT
  8
0
 10
83.666718
 20
84.279221
  0
POINT
  8
0
 10
322.300262
 20
84.279221
  0
POINT
  8
0
 10
344.800262
 20
84.279221
  0
LINE
  8
0
 62
     3
 10
0.000000
 20
0.000000
 11
0.000000
 21
254.558472
  0
LINE
  8
0
 62
     3
 10
370.873566
 20
254.558472
 11
370.873566
 21
0.000000
  0
LINE
  8
0
 62
     3
 10
0.000000
 20
0.000000
 11
370.873566
 21
0.000000
  0
LINE
  8
0
 62
     3
 10
0.000000
 20
254.558472
 11
370.873566
 21
254.558472
  0
LINE
  8
0
 62
     3
 10
0.000000
 20
240.257431
 11
76.272194
 21
240.257431
  0
LINE
  8
0
 62
     3
 10
76.272194
 20
240.257431
 11
76.272194
 21
254.558472
  0
LINE
  8
0
 62
     3
 10
294.601379
 20
14.301025
 11
370.873566
 21
14.301025
  0
LINE
  8
0
 62
     3
 10
294.601379
 20
240.257431
 11
370.873566
 21
240.257431
  0
LINE
  8
0
 62
     3
 10
294.601379
 20
254.558472
 11
294.601379
 21
240.257431
  0
LINE
  8
0
 62
     3
 10
294.601379
 20
14.301025
 11
294.601379
 21
0.000000
  0
LINE
  8
0
 10
195.836792
 20
190.926025
 11
284.836761
 21
214.773483
  0
LINE
  8
0
 10
195.836777
 20
190.926025
 11
284.836761
 21
167.078552
  0
LINE
  8
0
 10
148.836807
 20
100.279236
 11
264.836792
 21
100.279236
  0
LINE
  8
0
 10
148.836807
 20
68.279236
 11
264.836792
 21
68.279236
  0
LINE
  8
0
 10
253.836792
 20
100.279236
 11
253.836792
 21
85.779236
  0
LINE
  8
0
 10
151.836807
 20
100.279236
 11
151.836807
 21
68.279236
  0
LINE
  8
0
  6
CENTER
 10
146.736801
 20
84.279236
 11
273.586792
 21
84.279236
  0
LINE
  8
0
  6
CENTER
 10
195.836792
 20
123.279236
 11
195.836792
 21
45.279236
  0
LINE
  8
0
  6
CENTER
 10
201.086807
 20
75.779236
 11
210.586792
 21
75.779236
  0
LINE
  8
0
  6
CENTER
 10
205.836807
 20
88.079239
 11
205.836807
 21
66.779251
  0
LINE
  8
0
 10
264.836792
 20
100.279236
 11
264.836792
 21
85.779236
  0
LINE
  8
0
 10
148.836807
 20
100.279236
 11
148.836807
 21
68.279236
  0
LINE
  8
0
 10
202.836807
 20
66.279236
 11
202.836807
 21
68.279236
  0
LINE
  8
0
 10
188.836807
 20
66.279236
 11
202.836807
 21
66.279236
  0
LINE
  8
0
 10
198.836777
 20
65.779282
 11
199.336777
 21
66.279274
  0
LINE
  8
0
 10
192.836807
 20
65.779236
 11
198.836807
 21
65.779236
  0
LINE
  8
0
 10
192.836807
 20
65.779274
 11
192.336807
 21
66.279274
  0
LINE
  8
0
 10
188.836807
 20
66.279236
 11
188.836807
 21
68.279236
  0
LINE
  8
0
  6
PHANTOM
 10
192.836807
 20
48.779236
 11
192.836807
 21
65.779236
  0
LINE
  8
0
  6
PHANTOM
 10
198.836807
 20
58.279236
 11
198.836807
 21
65.779236
  0
LINE
  8
0
  6
PHANTOM
 10
192.836807
 20
48.779236
 11
198.336807
 21
48.779236
  0
LINE
  8
0
  6
PHANTOM
 10
193.336807
 20
48.279236
 11
198.336807
 21
48.279236
  0
LINE
  8
0
  6
PHANTOM
 10
192.836823
 20
48.779247
 11
193.336823
 21
48.279247
  0
LINE
  8
0
  6
PHANTOM
 10
198.836838
 20
58.279217
 11
198.336838
 21
57.779217
  0
LINE
  8
0
  6
PHANTOM
 10
202.086807
 20
87.079239
 11
209.586792
 21
87.079239
  0
LINE
  8
0
  6
PHANTOM
 10
209.586792
 20
87.079239
 11
209.586792
 21
68.779251
  0
LINE
  8
0
  6
PHANTOM
 10
202.086807
 20
87.079239
 11
202.086807
 21
68.779251
  0
LINE
  8
0
  6
PHANTOM
 10
208.836792
 20
86.279236
 11
208.836792
 21
73.579239
  0
LINE
  8
0
  6
PHANTOM
 10
202.836807
 20
86.279236
 11
202.836807
 21
73.579239
  0
LINE
  8
0
  6
PHANTOM
 10
202.836807
 20
86.279236
 11
208.836792
 21
86.279236
  0
LINE
  8
0
  6
PHANTOM
 10
202.836807
 20
73.579239
 11
204.186798
 21
73.579239
  0
LINE
  8
0
  6
PHANTOM
 10
204.336807
 20
73.079239
 11
205.314789
 21
73.079239
  0
LINE
  8
0
  6
PHANTOM
 10
204.336807
 20
73.474350
 11
204.336807
 21
73.079239
  0
LINE
  8
0
  6
PHANTOM
 10
207.336792
 20
73.474350
 11
207.336792
 21
73.079239
  0
LINE
  8
0
  6
PHANTOM
 10
207.486801
 20
73.579239
 11
208.836792
 21
73.579239
  0
LINE
  8
0
  6
PHANTOM
 10
206.358810
 20
73.079239
 11
207.336792
 21
73.079239
  0
LINE
  8
0
  6
PHANTOM
 10
198.586807
 20
82.279236
 11
202.086807
 21
82.279236
  0
LINE
  8
0
  6
PHANTOM
 10
209.586792
 20
82.279236
 11
219.086792
 21
82.279236
  0
LINE
  8
0
  6
PHANTOM
 10
198.586807
 20
86.279236
 11
202.086807
 21
86.279236
  0
LINE
  8
0
  6
PHANTOM
 10
198.586807
 20
86.279236
 11
198.586807
 21
82.279236
  0
LINE
  8
0
  6
PHANTOM
 10
197.086807
 20
85.413193
 11
198.586807
 21
86.279213
  0
LINE
  8
0
  6
PHANTOM
 10
197.086807
 20
85.413223
 11
197.086807
 21
83.145264
  0
LINE
  8
0
  6
PHANTOM
 10
197.086792
 20
83.145248
 11
198.586792
 21
82.279228
  0
LINE
  8
0
  6
PHANTOM
 10
209.586792
 20
86.279236
 11
219.086792
 21
86.279236
  0
LINE
  8
0
  6
PHANTOM
 10
219.086792
 20
86.279236
 11
219.086792
 21
82.279236
  0
LINE
  8
0
  6
PHANTOM
 10
219.086838
 20
86.279228
 11
221.086838
 21
85.779228
  0
LINE
  8
0
  6
PHANTOM
 10
221.086792
 20
85.779236
 11
221.086792
 21
82.779236
  0
LINE
  8
0
  6
PHANTOM
 10
219.086823
 20
82.279167
 11
221.086823
 21
82.779167
  0
LINE
  8
0
  6
PHANTOM
 10
221.086792
 20
82.779236
 11
269.986786
 21
82.779236
  0
LINE
  8
0
  6
PHANTOM
 10
221.086792
 20
85.779236
 11
269.986786
 21
85.779236
  0
LINE
  8
0
  6
CENTER
 10
203.336807
 20
92.779236
 11
208.336792
 21
92.779236
  0
LINE
  8
0
  6
CENTER
 10
205.836807
 20
95.279236
 11
205.836807
 21
90.279236
  0
LINE
  8
0
  6
PHANTOM
 10
202.086807
 20
71.779236
 11
209.586792
 21
71.779236
  0
LINE
  8
0
  6
PHANTOM
 10
202.086807
 20
68.779251
 11
209.586792
 21
68.779251
  0
LINE
  8
0
  6
PHANTOM
 10
198.336807
 20
48.279236
 11
198.336807
 21
57.779221
  0
LINE
  8
0
 10
198.336807
 20
120.279236
 11
198.336807
 21
110.779251
  0
LINE
  8
0
 10
202.836807
 20
102.279236
 11
202.836807
 21
100.279236
  0
LINE
  8
0
 10
188.836807
 20
102.279236
 11
202.836807
 21
102.279236
  0
LINE
  8
0
 10
198.836792
 20
102.779205
 11
199.336792
 21
102.279198
  0
LINE
  8
0
 10
192.836807
 20
102.779236
 11
198.836807
 21
102.779236
  0
LINE
  8
0
 10
192.836823
 20
102.779205
 11
192.336823
 21
102.279205
  0
LINE
  8
0
 10
188.836807
 20
102.279236
 11
188.836807
 21
100.279236
  0
LINE
  8
0
 10
192.836807
 20
119.779236
 11
192.836807
 21
102.779236
  0
LINE
  8
0
 10
198.836807
 20
110.279236
 11
198.836807
 21
102.779236
  0
LINE
  8
0
 10
192.836807
 20
119.779236
 11
198.336807
 21
119.779236
  0
LINE
  8
0
 10
193.336807
 20
120.279236
 11
198.336807
 21
120.279236
  0
LINE
  8
0
 10
192.836807
 20
119.779228
 11
193.336823
 21
120.279228
  0
LINE
  8
0
 10
198.836792
 20
110.279259
 11
198.336777
 21
110.779266
  0
LINE
  8
0
  6
PHANTOM
 10
204.776184
 20
74.718582
 11
206.897491
 21
76.839874
  0
LINE
  8
0
  6
PHANTOM
 10
204.776138
 20
76.839912
 11
206.897476
 21
74.718575
  0
LINE
  8
0
 10
253.836792
 20
82.779236
 11
253.836792
 21
68.279236
  0
LINE
  8
0
 10
264.836792
 20
82.779236
 11
264.836792
 21
68.279236
  0
LINE
  8
0
 10
151.836792
 20
213.426102
 11
151.836792
 21
168.426102
  0
LINE
  8
0
 10
148.836807
 20
168.426102
 11
264.836792
 21
168.426102
  0
LINE
  8
0
 10
148.836807
 20
213.426102
 11
264.836792
 21
213.426102
  0
LINE
  8
0
 10
264.836792
 20
213.426102
 11
264.836792
 21
168.426102
  0
LINE
  8
0
 10
148.836807
 20
213.426102
 11
148.836807
 21
168.426102
  0
LINE
  8
0
  6
CENTER
 10
195.836807
 20
216.426102
 11
195.836807
 21
165.426102
  0
LINE
  8
0
  6
CENTER
 10
184.086807
 20
198.926102
 11
191.586807
 21
198.926102
  0
LINE
  8
0
  6
CENTER
 10
200.086807
 20
198.926102
 11
207.586792
 21
198.926102
  0
LINE
  8
0
  6
CENTER
 10
200.086807
 20
182.926102
 11
207.586792
 21
182.926102
  0
LINE
  8
0
  6
CENTER
 10
184.086807
 20
182.926102
 11
191.586792
 21
182.926102
  0
LINE
  8
0
  6
CENTER
 10
187.836807
 20
186.676102
 11
187.836807
 21
179.176102
  0
LINE
  8
0
  6
CENTER
 10
203.836807
 20
186.676102
 11
203.836807
 21
179.176102
  0
LINE
  8
0
  6
CENTER
 10
203.836807
 20
202.676102
 11
203.836807
 21
195.176102
  0
LINE
  8
0
  6
CENTER
 10
187.836807
 20
202.676102
 11
187.836807
 21
195.176102
  0
LINE
  8
0
  6
PHANTOM
 10
193.686798
 20
216.560074
 11
193.686798
 21
214.292130
  0
LINE
  8
0
  6
PHANTOM
 10
195.186798
 20
217.426102
 11
195.186798
 21
213.426102
  0
LINE
  8
0
  6
PHANTOM
 10
195.186798
 20
217.426102
 11
198.686798
 21
217.426102
  0
LINE
  8
0
  6
PHANTOM
 10
206.186798
 20
217.426102
 11
215.686798
 21
217.426102
  0
LINE
  8
0
  6
PHANTOM
 10
193.686798
 20
216.560089
 11
195.186813
 21
217.426117
  0
LINE
  8
0
  6
PHANTOM
 10
193.686844
 20
214.292130
 11
195.186829
 21
213.426117
  0
LINE
  8
0
  6
PHANTOM
 10
215.686798
 20
217.426102
 11
215.686798
 21
213.426102
  0
LINE
  8
0
  6
PHANTOM
 10
217.686798
 20
213.926102
 11
262.186798
 21
213.926102
  0
LINE
  8
0
  6
PHANTOM
 10
217.686798
 20
216.926102
 11
262.186798
 21
216.926102
  0
LINE
  8
0
  6
PHANTOM
 10
217.686798
 20
216.926102
 11
217.686798
 21
213.926102
  0
LINE
  8
0
  6
PHANTOM
 10
215.686829
 20
217.426270
 11
217.686829
 21
216.926270
  0
LINE
  8
0
  6
PHANTOM
 10
215.686798
 20
213.426224
 11
217.686798
 21
213.926224
  0
LINE
  8
0
  6
CENTER
 10
265.186798
 20
215.426102
 11
214.686798
 21
215.426102
  0
LINE
  8
0
  6
CENTER
 10
202.436798
 20
222.926102
 11
202.436798
 21
211.426102
  0
LINE
  8
0
  6
PHANTOM
 10
206.186798
 20
218.926102
 11
206.186798
 21
213.926102
  0
LINE
  8
0
  6
PHANTOM
 10
198.686798
 20
218.926102
 11
198.686798
 21
213.926102
  0
LINE
  8
0
  6
PHANTOM
 10
198.686798
 20
213.926102
 11
206.186798
 21
213.926102
  0
LINE
  8
0
  6
PHANTOM
 10
198.686798
 20
218.926102
 11
206.186798
 21
218.926102
  0
LINE
  8
0
  6
PHANTOM
 62
     3
 10
205.186798
 20
219.725754
 11
205.186798
 21
218.926102
  0
LINE
  8
0
  6
PHANTOM
 62
     3
 10
199.686798
 20
219.725754
 11
199.686798
 21
218.926102
  0
LINE
  8
0
  6
PHANTOM
 10
193.686798
 20
165.292130
 11
193.686798
 21
167.560074
  0
LINE
  8
0
  6
PHANTOM
 10
195.186798
 20
164.426102
 11
195.186798
 21
168.426102
  0
LINE
  8
0
  6
PHANTOM
 10
195.186798
 20
164.426102
 11
198.686798
 21
164.426102
  0
LINE
  8
0
  6
PHANTOM
 10
206.186798
 20
164.426102
 11
215.686798
 21
164.426102
  0
LINE
  8
0
  6
PHANTOM
 10
193.686859
 20
165.292175
 11
195.186859
 21
164.426163
  0
LINE
  8
0
  6
PHANTOM
 10
193.686813
 20
167.560028
 11
195.186813
 21
168.426056
  0
LINE
  8
0
  6
PHANTOM
 10
215.686798
 20
164.426102
 11
215.686798
 21
168.426102
  0
LINE
  8
0
  6
PHANTOM
 10
217.686798
 20
167.926102
 11
262.186798
 21
167.926102
  0
LINE
  8
0
  6
PHANTOM
 10
217.686798
 20
164.926102
 11
262.186798
 21
164.926102
  0
LINE
  8
0
  6
PHANTOM
 10
217.686798
 20
164.926102
 11
217.686798
 21
167.926102
  0
LINE
  8
0
  6
PHANTOM
 10
215.686798
 20
164.426086
 11
217.686798
 21
164.926086
  0
LINE
  8
0
  6
PHANTOM
 10
215.686813
 20
168.426086
 11
217.686813
 21
167.926086
  0
LINE
  8
0
  6
CENTER
 10
265.186798
 20
166.426102
 11
214.686798
 21
166.426102
  0
LINE
  8
0
  6
CENTER
 10
202.436798
 20
158.926102
 11
202.436798
 21
170.426102
  0
LINE
  8
0
  6
PHANTOM
 10
206.186798
 20
162.926102
 11
206.186798
 21
167.926102
  0
LINE
  8
0
  6
PHANTOM
 10
198.686798
 20
162.926102
 11
198.686798
 21
167.926102
  0
LINE
  8
0
  6
PHANTOM
 10
198.686798
 20
167.926102
 11
206.186798
 21
167.926102
  0
LINE
  8
0
  6
PHANTOM
 10
198.686798
 20
162.926102
 11
206.186798
 21
162.926102
  0
LINE
  8
0
  6
PHANTOM
 62
     3
 10
205.186798
 20
162.126450
 11
205.186798
 21
162.926102
  0
LINE
  8
0
  6
PHANTOM
 62
     3
 10
199.686798
 20
162.126450
 11
199.686798
 21
162.926102
  0
LINE
  8
0
 10
253.836792
 20
213.426102
 11
253.836792
 21
168.426102
  0
LINE
  8
0
  6
CENTER
 10
181.836807
 20
197.176102
 11
181.836807
 21
184.676102
  0
LINE
  8
0
  6
CENTER
 10
209.836792
 20
197.176102
 11
209.836792
 21
184.676102
  0
LINE
  8
0
 10
198.336807
 20
192.584412
 11
198.336807
 21
189.267792
  0
LINE
  8
0
  6
CENTER
 10
145.836807
 20
190.926102
 11
270.555603
 21
190.926102
  0
LINE
  8
0
 10
186.917603
 20
183.845367
 11
188.756058
 21
182.006912
  0
LINE
  8
0
 10
186.917542
 20
182.006851
 11
188.756042
 21
183.845352
  0
LINE
  8
0
 10
186.917511
 20
199.845322
 11
188.756012
 21
198.006805
  0
LINE
  8
0
 10
186.917557
 20
198.006821
 11
188.756012
 21
199.845276
  0
LINE
  8
0
 10
204.756042
 20
182.006836
 11
202.917542
 21
183.845337
  0
LINE
  8
0
 10
204.756042
 20
183.845337
 11
202.917587
 21
182.006882
  0
LINE
  8
0
 10
204.756042
 20
199.845322
 11
202.917542
 21
198.006821
  0
LINE
  8
0
 10
204.756012
 20
198.006851
 11
202.917557
 21
199.845306
  0
LINE
  8
0
 10
42.666733
 20
68.279221
 11
79.666718
 21
68.279221
  0
LINE
  8
0
 10
42.666733
 20
100.279221
 11
79.666718
 21
100.279221
  0
LINE
  8
0
 10
38.666733
 20
96.279221
 11
38.666733
 21
72.279221
  0
LINE
  8
0
 10
83.666718
 20
96.279221
 11
83.666718
 21
72.279221
  0
LINE
  8
0
  6
CENTER
 10
30.166718
 20
84.279221
 11
92.166718
 21
84.279221
  0
LINE
  8
0
  6
CENTER
 10
61.166718
 20
123.279221
 11
61.166718
 21
45.279221
  0
LINE
  8
0
  6
PHANTOM
 10
58.166737
 20
48.779274
 11
58.666737
 21
48.279274
  0
LINE
  8
0
 10
58.166737
 20
119.779152
 11
58.666725
 21
120.279137
  0
LINE
  8
0
 10
58.166718
 20
119.779221
 11
64.166718
 21
119.779221
  0
LINE
  8
0
 10
58.166718
 20
119.779221
 11
58.166718
 21
102.779221
  0
LINE
  8
0
 10
64.166733
 20
119.779236
 11
63.666733
 21
120.279236
  0
LINE
  8
0
 10
64.166718
 20
119.779221
 11
64.166718
 21
102.779221
  0
LINE
  8
0
 10
58.166718
 20
102.779221
 11
64.166718
 21
102.779221
  0
LINE
  8
0
 10
54.166718
 20
102.279221
 11
68.166718
 21
102.279221
  0
LINE
  8
0
 10
64.166733
 20
102.779243
 11
64.666733
 21
102.279243
  0
LINE
  8
0
 10
58.166725
 20
102.779198
 11
57.666725
 21
102.279198
  0
LINE
  8
0
 10
68.166718
 20
102.279221
 11
68.166718
 21
100.279221
  0
LINE
  8
0
 10
68.166718
 20
66.279221
 11
68.166718
 21
68.279221
  0
LINE
  8
0
 10
54.166718
 20
66.279221
 11
68.166718
 21
66.279221
  0
LINE
  8
0
 10
64.166725
 20
65.779243
 11
64.666718
 21
66.279236
  0
LINE
  8
0
 10
58.166718
 20
65.779221
 11
64.166718
 21
65.779221
  0
LINE
  8
0
 10
58.166740
 20
65.779259
 11
57.666740
 21
66.279259
  0
LINE
  8
0
 10
54.166718
 20
66.279221
 11
54.166718
 21
68.279221
  0
LINE
  8
0
  6
PHANTOM
 10
58.166718
 20
48.779221
 11
58.166718
 21
65.779221
  0
LINE
  8
0
  6
PHANTOM
 10
64.166718
 20
48.779221
 11
64.166718
 21
65.779221
  0
LINE
  8
0
  6
PHANTOM
 10
58.166718
 20
48.779221
 11
64.166718
 21
48.779221
  0
LINE
  8
0
  6
PHANTOM
 10
64.166748
 20
48.779209
 11
63.666748
 21
48.279205
  0
LINE
  8
0
  6
PHANTOM
 10
58.666718
 20
48.279221
 11
63.666718
 21
48.279221
  0
LINE
  8
0
  6
PHANTOM
 10
34.666702
 20
86.279221
 11
34.666702
 21
82.279221
  0
LINE
  8
0
  6
PHANTOM
 10
35.532700
 20
83.145248
 11
37.800705
 21
83.145248
  0
LINE
  8
0
  6
PHANTOM
 10
34.666702
 20
82.279221
 11
38.666702
 21
82.279221
  0
LINE
  8
0
  6
PHANTOM
 10
34.666702
 20
86.279221
 11
38.666702
 21
86.279221
  0
LINE
  8
0
  6
PHANTOM
 10
35.532700
 20
85.413193
 11
37.800705
 21
85.413193
  0
LINE
  8
0
  6
PHANTOM
 10
35.532700
 20
85.413193
 11
35.532700
 21
83.145248
  0
LINE
  8
0
  6
PHANTOM
 10
37.800705
 20
85.413193
 11
37.800705
 21
83.145248
  0
LINE
  8
0
  6
PHANTOM
 10
34.666847
 20
86.279396
 11
35.532837
 21
85.413383
  0
LINE
  8
0
  6
PHANTOM
 10
35.532707
 20
83.145218
 11
34.666725
 21
82.279213
  0
LINE
  8
0
  6
PHANTOM
 10
37.800716
 20
83.145279
 11
38.666718
 21
82.279251
  0
LINE
  8
0
  6
PHANTOM
 10
37.800800
 20
85.413071
 11
38.666801
 21
86.279106
  0
LINE
  8
0
  6
PHANTOM
 10
33.166718
 20
87.079224
 11
38.166718
 21
87.079224
  0
LINE
  8
0
  6
PHANTOM
 10
38.166718
 20
87.079224
 11
38.166718
 21
86.279221
  0
LINE
  8
0
  6
PHANTOM
 10
38.166718
 20
82.279221
 11
38.166718
 21
75.779236
  0
LINE
  8
0
  6
PHANTOM
 10
33.166718
 20
87.079224
 11
33.166718
 21
71.779221
  0
LINE
  8
0
  6
CENTER
 10
30.166718
 20
75.779221
 11
39.666718
 21
75.779221
  0
LINE
  8
0
  6
PHANTOM
 62
     3
 10
32.367065
 20
78.529221
 11
33.166718
 21
78.529221
  0
LINE
  8
0
  6
PHANTOM
 62
     3
 10
32.367065
 20
73.029221
 11
33.166718
 21
73.029221
  0
LINE
  8
0
  6
PHANTOM
 62
     1
 10
38.166718
 20
77.029221
 11
38.666718
 21
77.029221
  0
LINE
  8
0
  6
PHANTOM
 62
     1
 10
38.166718
 20
76.758728
 11
38.666718
 21
76.758728
  0
LINE
  8
0
 10
54.166718
 20
102.279221
 11
54.166718
 21
100.279221
  0
LINE
  8
0
 10
58.666687
 20
120.279175
 11
63.666763
 21
120.279175
  0
LINE
  8
0
  6
PHANTOM
 10
36.166718
 20
68.779221
 11
39.666718
 21
68.779221
  0
LINE
  8
0
  6
PHANTOM
 10
36.166832
 20
68.779350
 11
33.166843
 21
71.779335
  0
LINE
  8
0
  6
CENTER
 10
39.666718
 20
95.279221
 11
47.666718
 21
95.279221
  0
LINE
  8
0
  6
CENTER
 10
39.666718
 20
73.279221
 11
47.666718
 21
73.279221
  0
LINE
  8
0
  6
CENTER
 10
74.666718
 20
73.279221
 11
82.666718
 21
73.279221
  0
LINE
  8
0
  6
CENTER
 10
74.666718
 20
95.279221
 11
82.666718
 21
95.279221
  0
LINE
  8
0
  6
CENTER
 10
43.666718
 20
99.279221
 11
43.666718
 21
91.279221
  0
LINE
  8
0
  6
CENTER
 10
43.666718
 20
77.279221
 11
43.666718
 21
69.279221
  0
LINE
  8
0
  6
CENTER
 10
78.666718
 20
77.279221
 11
78.666718
 21
69.279221
  0
LINE
  8
0
  6
CENTER
 10
78.666718
 20
99.279221
 11
78.666718
 21
91.279221
  0
LINE
  8
0
  6
PHANTOM
 10
39.666718
 20
69.633499
 11
39.666718
 21
68.779236
  0
LINE
  8
0
  6
PHANTOM
 10
87.666733
 20
86.279221
 11
87.666733
 21
82.279221
  0
LINE
  8
0
  6
PHANTOM
 10
86.800735
 20
83.145248
 11
84.532730
 21
83.145248
  0
LINE
  8
0
  6
PHANTOM
 10
87.666733
 20
82.279221
 11
83.666733
 21
82.279221
  0
LINE
  8
0
  6
PHANTOM
 10
87.666733
 20
86.279221
 11
83.666733
 21
86.279221
  0
LINE
  8
0
  6
PHANTOM
 10
86.800735
 20
85.413193
 11
84.532730
 21
85.413193
  0
LINE
  8
0
  6
PHANTOM
 10
86.800735
 20
85.413193
 11
86.800735
 21
83.145248
  0
LINE
  8
0
  6
PHANTOM
 10
84.532730
 20
85.413193
 11
84.532730
 21
83.145248
  0
LINE
  8
0
  6
PHANTOM
 10
87.666687
 20
86.279327
 11
86.800682
 21
85.413300
  0
LINE
  8
0
  6
PHANTOM
 10
86.800720
 20
83.145203
 11
87.666725
 21
82.279175
  0
LINE
  8
0
  6
PHANTOM
 10
84.532753
 20
83.145302
 11
83.666733
 21
82.279266
  0
LINE
  8
0
  6
PHANTOM
 10
84.532707
 20
85.413200
 11
83.666702
 21
86.279236
  0
LINE
  8
0
  6
PHANTOM
 10
89.166718
 20
87.079224
 11
84.166718
 21
87.079224
  0
LINE
  8
0
  6
PHANTOM
 10
84.166718
 20
87.079224
 11
84.166718
 21
86.279221
  0
LINE
  8
0
  6
PHANTOM
 10
84.166718
 20
82.279221
 11
84.166718
 21
75.779236
  0
LINE
  8
0
  6
PHANTOM
 10
89.166718
 20
87.079224
 11
89.166718
 21
71.779221
  0
LINE
  8
0
  6
CENTER
 10
92.166718
 20
75.779221
 11
82.666718
 21
75.779221
  0
LINE
  8
0
  6
PHANTOM
 62
     3
 10
89.966370
 20
78.529221
 11
89.166718
 21
78.529221
  0
LINE
  8
0
  6
PHANTOM
 62
     3
 10
89.966370
 20
73.029221
 11
89.166718
 21
73.029221
  0
LINE
  8
0
  6
PHANTOM
 62
     1
 10
84.166718
 20
77.029221
 11
83.666718
 21
77.029221
  0
LINE
  8
0
  6
PHANTOM
 62
     1
 10
84.166718
 20
76.758728
 11
83.666718
 21
76.758728
  0
LINE
  8
0
  6
PHANTOM
 10
86.166718
 20
68.779221
 11
82.666718
 21
68.779221
  0
LINE
  8
0
  6
PHANTOM
 10
86.166725
 20
68.779213
 11
89.166733
 21
71.779213
  0
LINE
  8
0
  6
PHANTOM
 10
82.666718
 20
69.633499
 11
82.666718
 21
68.779236
  0
LINE
  8
0
 10
42.393909
 20
96.552010
 11
44.939476
 21
94.006439
  0
LINE
  8
0
 10
42.393890
 20
94.006470
 11
44.939449
 21
96.552025
  0
LINE
  8
0
 10
79.939529
 20
96.552002
 11
77.393959
 21
94.006432
  0
LINE
  8
0
 10
79.939545
 20
94.006454
 11
77.393982
 21
96.552010
  0
LINE
  8
0
 10
42.393909
 20
72.006416
 11
44.939476
 21
74.551987
  0
LINE
  8
0
 10
42.393898
 20
74.552010
 11
44.939457
 21
72.006447
  0
LINE
  8
0
 10
79.939522
 20
72.006424
 11
77.393959
 21
74.551994
  0
LINE
  8
0
 10
79.939545
 20
74.551994
 11
77.393990
 21
72.006439
  0
LINE
  8
0
 10
303.800293
 20
68.279221
 11
340.800262
 21
68.279221
  0
LINE
  8
0
 10
303.800293
 20
100.279221
 11
340.800262
 21
100.279221
  0
LINE
  8
0
 10
299.800293
 20
96.279221
 11
299.800293
 21
72.279221
  0
LINE
  8
0
 10
344.800262
 20
96.279221
 11
344.800262
 21
72.279221
  0
LINE
  8
0
  6
CENTER
 10
291.300262
 20
84.279221
 11
353.300262
 21
84.279221
  0
LINE
  8
0
  6
CENTER
 10
322.300262
 20
123.279221
 11
322.300262
 21
45.279221
  0
LINE
  8
0
  6
PHANTOM
 10
319.300262
 20
48.779266
 11
319.800293
 21
48.279259
  0
LINE
  8
0
 10
319.300201
 20
119.779167
 11
319.800201
 21
120.279160
  0
LINE
  8
0
 10
319.300262
 20
119.779221
 11
325.300262
 21
119.779221
  0
LINE
  8
0
 10
319.300262
 20
119.779221
 11
319.300262
 21
102.779221
  0
LINE
  8
0
 10
325.300232
 20
119.779213
 11
324.800232
 21
120.279213
  0
LINE
  8
0
 10
325.300262
 20
119.779221
 11
325.300262
 21
102.779221
  0
LINE
  8
0
 10
319.300262
 20
102.779221
 11
325.300262
 21
102.779221
  0
LINE
  8
0
 10
315.300262
 20
102.279221
 11
329.300262
 21
102.279221
  0
LINE
  8
0
 10
325.300232
 20
102.779243
 11
325.800232
 21
102.279236
  0
LINE
  8
0
 10
319.300232
 20
102.779205
 11
318.800201
 21
102.279190
  0
LINE
  8
0
 10
329.300262
 20
102.279221
 11
329.300262
 21
100.279221
  0
LINE
  8
0
 10
329.300262
 20
66.279221
 11
329.300262
 21
68.279221
  0
LINE
  8
0
 10
315.300262
 20
66.279221
 11
329.300262
 21
66.279221
  0
LINE
  8
0
 10
325.300232
 20
65.779259
 11
325.800232
 21
66.279243
  0
LINE
  8
0
 10
319.300262
 20
65.779221
 11
325.300262
 21
65.779221
  0
LINE
  8
0
 10
319.300232
 20
65.779251
 11
318.800262
 21
66.279243
  0
LINE
  8
0
 10
315.300262
 20
66.279221
 11
315.300262
 21
68.279221
  0
LINE
  8
0
  6
PHANTOM
 10
319.300262
 20
48.779221
 11
319.300262
 21
65.779221
  0
LINE
  8
0
  6
PHANTOM
 10
325.300262
 20
48.779221
 11
325.300262
 21
65.779221
  0
LINE
  8
0
  6
PHANTOM
 10
319.300262
 20
48.779221
 11
325.300262
 21
48.779221
  0
LINE
  8
0
  6
PHANTOM
 10
325.300262
 20
48.779209
 11
324.800232
 21
48.279198
  0
LINE
  8
0
  6
PHANTOM
 10
319.800262
 20
48.279221
 11
324.800262
 21
48.279221
  0
LINE
  8
0
  6
PHANTOM
 10
295.800232
 20
86.279221
 11
295.800232
 21
82.279221
  0
LINE
  8
0
  6
PHANTOM
 10
295.800232
 20
82.279221
 11
299.800232
 21
82.279221
  0
LINE
  8
0
  6
PHANTOM
 10
295.800232
 20
86.279221
 11
299.800232
 21
86.279221
  0
LINE
  8
0
  6
PHANTOM
 10
294.300262
 20
87.079224
 11
299.300262
 21
87.079224
  0
LINE
  8
0
  6
PHANTOM
 10
299.300262
 20
87.079224
 11
299.300262
 21
86.279221
  0
LINE
  8
0
  6
PHANTOM
 10
299.300262
 20
82.279221
 11
299.300262
 21
75.779236
  0
LINE
  8
0
  6
PHANTOM
 10
294.300262
 20
87.079224
 11
294.300262
 21
71.779221
  0
LINE
  8
0
  6
CENTER
 10
291.300262
 20
75.779221
 11
300.800262
 21
75.779221
  0
LINE
  8
0
  6
PHANTOM
 62
     3
 10
293.500610
 20
78.529221
 11
294.300262
 21
78.529221
  0
LINE
  8
0
  6
PHANTOM
 62
     3
 10
293.500610
 20
73.029221
 11
294.300262
 21
73.029221
  0
LINE
  8
0
  6
PHANTOM
 62
     1
 10
299.300262
 20
77.029221
 11
299.800262
 21
77.029221
  0
LINE
  8
0
  6
PHANTOM
 62
     1
 10
299.300262
 20
76.758728
 11
299.800262
 21
76.758728
  0
LINE
  8
0
 10
315.300262
 20
102.279221
 11
315.300262
 21
100.279221
  0
LINE
  8
0
 10
319.800232
 20
120.279175
 11
324.800293
 21
120.279175
  0
LINE
  8
0
  6
PHANTOM
 10
297.300262
 20
68.779221
 11
300.800262
 21
68.779221
  0
LINE
  8
0
  6
PHANTOM
 10
297.300201
 20
68.779213
 11
294.300201
 21
71.779205
  0
LINE
  8
0
  6
PHANTOM
 10
300.800262
 20
69.633499
 11
300.800262
 21
68.779236
  0
LINE
  8
0
  6
PHANTOM
 10
348.800293
 20
86.279221
 11
348.800293
 21
82.279221
  0
LINE
  8
0
  6
PHANTOM
 10
348.800293
 20
82.279221
 11
344.800293
 21
82.279221
  0
LINE
  8
0
  6
PHANTOM
 10
348.800293
 20
86.279221
 11
344.800293
 21
86.279221
  0
LINE
  8
0
  6
PHANTOM
 10
350.300262
 20
87.079224
 11
345.300262
 21
87.079224
  0
LINE
  8
0
  6
PHANTOM
 10
345.300262
 20
87.079224
 11
345.300262
 21
86.279221
  0
LINE
  8
0
  6
PHANTOM
 10
345.300262
 20
82.279221
 11
345.300262
 21
75.779236
  0
LINE
  8
0
  6
PHANTOM
 10
350.300262
 20
87.079224
 11
350.300262
 21
71.779221
  0
LINE
  8
0
  6
CENTER
 10
353.300262
 20
75.779221
 11
343.800262
 21
75.779221
  0
LINE
  8
0
  6
PHANTOM
 62
     3
 10
351.099915
 20
78.529221
 11
350.300262
 21
78.529221
  0
LINE
  8
0
  6
PHANTOM
 62
     3
 10
351.099915
 20
73.029221
 11
350.300262
 21
73.029221
  0
LINE
  8
0
  6
PHANTOM
 62
     1
 10
345.300262
 20
77.029221
 11
344.800262
 21
77.029221
  0
LINE
  8
0
  6
PHANTOM
 62
     1
 10
345.300262
 20
76.758728
 11
344.800262
 21
76.758728
  0
LINE
  8
0
  6
PHANTOM
 10
347.300262
 20
68.779221
 11
343.800262
 21
68.779221
  0
LINE
  8
0
  6
PHANTOM
 10
347.300079
 20
68.779312
 11
350.300079
 21
71.779312
  0
LINE
  8
0
  6
PHANTOM
 10
343.800262
 20
69.633499
 11
343.800262
 21
68.779236
  0
LINE
  8
0
  6
CENTER
 10
297.800262
 20
88.279221
 11
297.800262
 21
80.279221
  0
LINE
  8
0
  6
CENTER
 10
346.800262
 20
88.279221
 11
346.800262
 21
80.279221
  0
LINE
  8
0
  6
CENTER
 10
314.300262
 20
95.279221
 11
314.300262
 21
83.279221
  0
LINE
  8
0
  6
CENTER
 10
330.300262
 20
85.279221
 11
330.300262
 21
73.279221
  0
LINE
  8
0
  6
CENTER
 10
308.300262
 20
89.279221
 11
320.300262
 21
89.279221
  0
LINE
  8
0
  6
CENTER
 10
324.300262
 20
79.279221
 11
336.300262
 21
79.279221
  0
LINE
  8
0
 62
     3
 10
303.300262
 20
96.145248
 11
303.300262
 21
94.413193
  0
LINE
  8
0
 62
     3
 10
306.300262
 20
96.145248
 11
306.300262
 21
94.413193
  0
LINE
  8
0
 62
     3
 10
303.300262
 20
96.145226
 11
304.800262
 21
97.011253
  0
LINE
  8
0
 62
     3
 10
304.800262
 20
93.547150
 11
306.300262
 21
94.413177
  0
LINE
  8
0
 62
     3
 10
304.800262
 20
97.011276
 11
306.300262
 21
96.145248
  0
LINE
  8
0
 62
     3
 10
303.300262
 20
94.413185
 11
304.800293
 21
93.547157
  0
LINE
  8
0
 62
     3
 10
303.300262
 20
74.145248
 11
303.300262
 21
72.413193
  0
LINE
  8
0
 62
     3
 10
306.300262
 20
74.145248
 11
306.300262
 21
72.413193
  0
LINE
  8
0
 62
     3
 10
303.300262
 20
74.145226
 11
304.800262
 21
75.011253
  0
LINE
  8
0
 62
     3
 10
304.800262
 20
71.547150
 11
306.300262
 21
72.413177
  0
LINE
  8
0
 62
     3
 10
304.800293
 20
75.011269
 11
306.300293
 21
74.145241
  0
LINE
  8
0
 62
     3
 10
303.300293
 20
72.413193
 11
304.800293
 21
71.547165
  0
LINE
  8
0
 62
     3
 10
338.300262
 20
74.145248
 11
338.300262
 21
72.413193
  0
LINE
  8
0
 62
     3
 10
341.300262
 20
74.145248
 11
341.300262
 21
72.413193
  0
LINE
  8
0
 62
     3
 10
338.300293
 20
74.145233
 11
339.800293
 21
75.011261
  0
LINE
  8
0
 62
     3
 10
339.800293
 20
71.547157
 11
341.300293
 21
72.413185
  0
LINE
  8
0
 62
     3
 10
339.800262
 20
75.011276
 11
341.300293
 21
74.145248
  0
LINE
  8
0
 62
     3
 10
338.300262
 20
72.413216
 11
339.800262
 21
71.547188
  0
LINE
  8
0
 62
     3
 10
338.300262
 20
96.145248
 11
338.300262
 21
94.413193
  0
LINE
  8
0
 62
     3
 10
341.300262
 20
96.145248
 11
341.300262
 21
94.413193
  0
LINE
  8
0
 62
     3
 10
338.300262
 20
96.145233
 11
339.800293
 21
97.011261
  0
LINE
  8
0
 62
     3
 10
339.800262
 20
93.547157
 11
341.300293
 21
94.413185
  0
LINE
  8
0
 62
     3
 10
339.800262
 20
97.011269
 11
341.300262
 21
96.145241
  0
LINE
  8
0
 62
     3
 10
338.300262
 20
94.413216
 11
339.800262
 21
93.547188
  0
LINE
  8
0
  6
CENTER
 10
304.800262
 20
99.779221
 11
304.800262
 21
90.779221
  0
LINE
  8
0
  6
CENTER
 10
339.800262
 20
99.779221
 11
339.800262
 21
90.779221
  0
LINE
  8
0
  6
CENTER
 10
339.800262
 20
77.779221
 11
339.800262
 21
68.779221
  0
LINE
  8
0
  6
CENTER
 10
304.800262
 20
77.779221
 11
304.800262
 21
68.779221
  0
LINE
  8
0
  6
CENTER
 10
300.300262
 20
73.279221
 11
309.300262
 21
73.279221
  0
LINE
  8
0
  6
CENTER
 10
300.300262
 20
95.279221
 11
309.300262
 21
95.279221
  0
LINE
  8
0
  6
CENTER
 10
335.300262
 20
95.279221
 11
344.300262
 21
95.279221
  0
LINE
  8
0
  6
CENTER
 10
335.300262
 20
73.279221
 11
344.300262
 21
73.279221
  0
CIRCLE
  8
0
 10
205.836807
 20
92.779236
 40
1.500000
  0
CIRCLE
  8
0
 10
205.836807
 20
92.779236
 40
1.229500
  0
CIRCLE
  8
0
  6
PHANTOM
 62
     3
 10
205.836807
 20
75.779236
 40
2.750000
  0
ARC
  8
0
  6
PHANTOM
 10
269.325348
 20
85.029236
 40
1.000000
 50
311.409637
 51
48.590370
  0
ARC
  8
0
  6
PHANTOM
 10
270.648224
 20
83.529236
 40
1.000000
 50
131.409622
 51
228.590378
  0
ARC
  8
0
  6
PHANTOM
 10
269.325348
 20
83.529236
 40
1.000000
 50
311.409637
 51
48.590370
  0
CIRCLE
  8
0
 10
195.836807
 20
190.926102
 40
3.000000
  0
CIRCLE
  8
0
 10
195.836807
 20
190.926102
 40
2.500000
  0
ARC
  8
0
 10
195.836807
 20
190.926102
 40
15.500000
 50
17.598831
 51
162.401169
  0
ARC
  8
0
 10
195.836807
 20
190.926102
 40
15.500000
 50
197.598831
 51
342.401184
  0
CIRCLE
  8
0
 10
195.836807
 20
190.926102
 40
7.000000
  0
CIRCLE
  8
0
 62
     3
 10
187.836807
 20
198.926102
 40
2.599999
  0
CIRCLE
  8
0
 62
     3
 10
203.836807
 20
198.926102
 40
2.599999
  0
CIRCLE
  8
0
 62
     3
 10
203.836807
 20
182.926102
 40
2.599999
  0
CIRCLE
  8
0
 62
     3
 10
187.836807
 20
182.926102
 40
2.599999
  0
ARC
  8
0
  6
PHANTOM
 10
261.525360
 20
214.676102
 40
1.000000
 50
311.409637
 51
48.590370
  0
ARC
  8
0
  6
PHANTOM
 10
261.525360
 20
216.176102
 40
1.000000
 50
311.409637
 51
48.590370
  0
ARC
  8
0
  6
PHANTOM
 10
262.848236
 20
216.176102
 40
1.000000
 50
131.409622
 51
228.590378
  0
ARC
  8
0
  6
PHANTOM
 62
     3
 10
202.436798
 20
215.926102
 40
4.999999
 50
61.264629
 51
118.735367
  0
ARC
  8
0
  6
PHANTOM
 62
     3
 10
204.520096
 20
219.725754
 40
0.666702
 50
0.000000
 51
61.264580
  0
ARC
  8
0
  6
PHANTOM
 62
     3
 10
200.353500
 20
219.725754
 40
0.666699
 50
118.735420
 51
180.000000
  0
ARC
  8
0
  6
PHANTOM
 62
     3
 10
200.353500
 20
162.126450
 40
0.666702
 50
180.000000
 51
241.264587
  0
ARC
  8
0
  6
PHANTOM
 10
261.525360
 20
165.676102
 40
1.000000
 50
311.409637
 51
48.590370
  0
ARC
  8
0
  6
PHANTOM
 10
261.525360
 20
167.176102
 40
1.000000
 50
311.409637
 51
48.590370
  0
ARC
  8
0
  6
PHANTOM
 10
262.848236
 20
167.176102
 40
1.000000
 50
131.409622
 51
228.590378
  0
ARC
  8
0
  6
PHANTOM
 62
     3
 10
202.436798
 20
165.926102
 40
4.999999
 50
241.264633
 51
298.735382
  0
ARC
  8
0
  6
PHANTOM
 62
     3
 10
204.520096
 20
162.126450
 40
0.666699
 50
298.735413
 51
0.000000
  0
CIRCLE
  8
0
 10
181.836807
 20
190.926102
 40
2.750000
  0
CIRCLE
  8
0
 10
209.836792
 20
190.926102
 40
2.750000
  0
CIRCLE
  8
0
 10
209.836792
 20
190.926102
 40
4.750000
  0
CIRCLE
  8
0
 10
181.836807
 20
190.926102
 40
4.750000
  0
CIRCLE
  8
0
 62
     3
 10
78.666718
 20
95.279221
 40
3.000000
  0
CIRCLE
  8
0
 62
     3
 10
78.666718
 20
73.279221
 40
3.000000
  0
ARC
  8
0
 10
42.666733
 20
96.279221
 40
4.000000
 50
90.000000
 51
180.000000
  0
CIRCLE
  8
0
 62
     3
 10
43.666718
 20
73.279221
 40
3.000000
  0
ARC
  8
0
  6
PHANTOM
 62
     3
 10
89.966370
 20
77.862518
 40
0.666699
 50
28.735418
 51
90.000000
  0
ARC
  8
0
  6
PHANTOM
 62
     3
 10
89.966370
 20
73.695923
 40
0.666702
 50
270.000000
 51
331.264587
  0
ARC
  8
0
 10
79.666718
 20
96.279221
 40
4.000000
 50
0.000000
 51
90.000000
  0
ARC
  8
0
 10
79.666718
 20
72.279221
 40
4.000000
 50
270.000000
 51
0.000000
  0
ARC
  8
0
 10
42.666733
 20
72.279221
 40
4.000000
 50
180.000000
 51
270.000000
  0
ARC
  8
0
  6
PHANTOM
 62
     3
 10
86.166718
 20
75.779221
 40
4.999999
 50
331.264618
 51
28.735369
  0
ARC
  8
0
  6
PHANTOM
 62
     3
 10
36.166718
 20
75.779221
 40
4.999999
 50
151.264633
 51
208.735352
  0
ARC
  8
0
  6
PHANTOM
 62
     3
 10
32.367065
 20
77.862518
 40
0.666702
 50
90.000000
 51
151.264587
  0
ARC
  8
0
  6
PHANTOM
 62
     3
 10
32.367065
 20
73.695923
 40
0.666699
 50
208.735413
 51
270.000000
  0
CIRCLE
  8
0
 62
     3
 10
43.666718
 20
95.279221
 40
3.000000
  0
CIRCLE
  8
0
 62
     3
 10
339.800262
 20
73.279221
 40
3.500000
  0
CIRCLE
  8
0
 62
     3
 10
339.800262
 20
95.279221
 40
2.807179
  0
CIRCLE
  8
0
 62
     3
 10
339.800262
 20
73.279221
 40
2.807179
  0
CIRCLE
  8
0
 62
     3
 10
339.800262
 20
95.279221
 40
3.500000
  0
ARC
  8
0
  6
PHANTOM
 62
     3
 10
297.300262
 20
75.779221
 40
4.999999
 50
151.264633
 51
208.735367
  0
ARC
  8
0
  6
PHANTOM
 62
     3
 10
293.500610
 20
77.862518
 40
0.666702
 50
90.000000
 51
151.264587
  0
ARC
  8
0
  6
PHANTOM
 62
     3
 10
293.500610
 20
73.695923
 40
0.666699
 50
208.735413
 51
270.000000
  0
ARC
  8
0
 10
303.800293
 20
72.279221
 40
4.000000
 50
180.000000
 51
270.000000
  0
ARC
  8
0
 10
303.800293
 20
96.279221
 40
4.000000
 50
90.000000
 51
180.000000
  0
ARC
  8
0
 10
340.800262
 20
96.279221
 40
4.000000
 50
0.000000
 51
90.000000
  0
ARC
  8
0
 10
340.800262
 20
72.279221
 40
4.000000
 50
270.000000
 51
0.000000
  0
ARC
  8
0
  6
PHANTOM
 62
     3
 10
351.099915
 20
73.695923
 40
0.666702
 50
270.000000
 51
331.264587
  0
ARC
  8
0
  6
PHANTOM
 62
     3
 10
351.099915
 20
77.862518
 40
0.666699
 50
28.735418
 51
90.000000
  0
ARC
  8
0
  6
PHANTOM
 62
     3
 10
347.300262
 20
75.779221
 40
4.999999
 50
331.264618
 51
28.735369
  0
CIRCLE
  8
0
  6
PHANTOM
 10
297.800262
 20
84.279221
 40
1.500000
  0
CIRCLE
  8
0
  6
PHANTOM
 10
346.800262
 20
84.279221
 40
1.500000
  0
CIRCLE
  8
0
 10
314.300262
 20
89.279221
 40
4.283000
  0
CIRCLE
  8
0
 10
330.300262
 20
79.279221
 40
4.283000
  0
CIRCLE
  8
0
 10
330.300262
 20
79.279221
 40
4.573500
  0
CIRCLE
  8
0
 10
314.300262
 20
89.279221
 40
4.573500
  0
CIRCLE
  8
0
 62
     3
 10
304.800262
 20
95.279221
 40
3.500000
  0
CIRCLE
  8
0
 62
     3
 10
304.800262
 20
95.279221
 40
2.807179
  0
CIRCLE
  8
0
 62
     3
 10
304.800262
 20
73.279221
 40
3.500000
  0
CIRCLE
  8
0
 62
     3
 10
304.800262
 20
73.279221
 40
2.807179
  0
TEXT
  8
0
 10
298.797760
 20
244.589584
 40
4.242641
  1
DATE : MAR ,1992
 50
0.000000
 41
1.052631
 51
0.000000
  7
STANDARD
  0
TEXT
  8
0
 10
2.113382
 20
243.907959
 40
5.000000
  1
ROTARY ACUTUATOR
 50
0.000000
 41
0.937799
 51
0.000000
  7
STANDARD
  0
TEXT
  8
0
 10
22.035715
 20
211.757431
 40
5.000000
  1
MODEL : RAPS5-360
 50
0.000000
 41
1.052632
 51
0.000000
  7
STANDARD
  0
TEXT
  8
0
 10
2.113382
 20
243.907959
 40
5.000000
  1
ROTARY ACUTUATOR
 50
0.000000
 41
0.937799
 51
0.000000
  7
STANDARD
  0
TEXT
  8
0
 10
276.310944
 20
178.614685
 40
3.500000
  1
〃
 50
90.000000
 41
0.833333
 51
0.000000
  7
STANDARD
  0
TEXT
  8
0
 10
276.310944
 20
199.237808
 40
3.500000
  1
〃
 50
90.000000
 41
0.833333
 51
0.000000
  7
STANDARD
  0
TEXT
  8
0
 10
282.986786
 20
188.926056
 40
3.500000
  1
D
 50
90.000000
 41
1.052632
 51
0.000000
  7
STANDARD
  0
TEXT
  8
0
 10
302.273193
 20
3.650512
 40
5.000000
  1
KOGANEI,CORP
 50
0.000000
 41
1.052632
 51
0.000000
  7
STANDARD
  0
LINE
  8
0
 10
312.013489
 20
93.239983
 11
299.289154
 21
115.279213
  0
LINE
  8
0
 10
299.289154
 20
115.279213
 11
275.856018
 21
115.279213
  0
LINE
  8
0
 10
312.013489
 20
93.239983
 11
311.237030
 21
96.137764
  0
LINE
  8
0
 10
312.013489
 20
93.239983
 11
309.892181
 21
95.361305
  0
TEXT
  8
0
 10
276.106018
 20
116.279213
 40
3.200000
  1
2-Rc1/8
 50
0.000000
 41
1.052632
 51
0.000000
  7
STANDARD
  0
TEXT
  8
0
 10
273.663483
 20
212.677734
 40
3.200000
  1
       
 50
277.500000
 41
1.052632
 51
0.000000
  7
STANDARD
  0
ARC
  8
0
 10
195.837051
 20
190.926117
 40
78.999741
 50
0.000000
 51
14.999993
  0
LINE
  8
0
 10
274.836792
 20
190.926117
 11
274.005524
 21
193.808456
  0
LINE
  8
0
 10
274.836792
 20
190.926117
 11
275.558044
 21
193.837936
  0
LINE
  8
0
 10
272.144928
 20
211.372742
 11
273.595245
 21
208.746811
  0
LINE
  8
0
 10
272.144928
 20
211.372742
 11
272.087982
 21
208.373459
  0
LINE
  8
0
 10
270.555603
 20
190.926117
 11
277.122803
 21
190.926117
  0
LINE
  8
0
 10
284.836761
 20
214.773544
 11
269.936829
 21
210.781128
  0
TEXT
  8
0
 10
283.818024
 20
180.177811
 40
3.500000
  1
　　　
 50
89.900002
 41
0.833333
 51
0.000000
  7
STANDARD
  0
ARC
  8
0
 10
195.836807
 20
190.926056
 40
88.999992
 50
345.000000
 51
14.999992
  0
LINE
  8
0
 10
281.804199
 20
167.891174
 11
281.753632
 21
170.890610
  0
LINE
  8
0
 10
281.804199
 20
167.891174
 11
283.260132
 21
170.514053
  0
LINE
  8
0
 10
281.804199
 20
213.960937
 11
283.260132
 21
211.338074
  0
LINE
  8
0
 10
281.804199
 20
213.960937
 11
281.753632
 21
210.961517
  0
LINE
  8
0
 10
309.336792
 20
160.513840
 11
279.596100
 21
168.482834
  0
LINE
  8
0
 10
309.336792
 20
221.338257
 11
279.596100
 21
213.369278
  0
TEXT
  8
0
 10
271.889404
 20
171.021820
 40
3.200000
  1
　　　
 50
82.500000
 41
0.833333
 51
0.000000
  7
STANDARD
  0
ARC
  8
0
 10
195.836563
 20
190.926117
 40
79.000229
 50
345.000000
 51
0.000000
  0
LINE
  8
0
 10
272.144928
 20
170.479355
 11
272.087952
 21
173.478638
  0
LINE
  8
0
 10
272.144928
 20
170.479355
 11
273.595245
 21
173.105301
  0
LINE
  8
0
 10
274.836792
 20
190.926117
 11
275.558044
 21
188.014297
  0
LINE
  8
0
 10
274.836792
 20
190.926117
 11
274.005524
 21
188.043777
  0
LINE
  8
0
 10
284.836761
 20
167.078568
 11
269.936798
 21
171.071014
  0
LINE
  8
0
 10
270.555603
 20
190.926117
 11
277.122803
 21
190.926117
  0
ENDSEC
  0
EOF
