  0
SECTION
  2
HEADER
  0
ENDSEC
  0
SECTION
  2
TABLES
  0
TABLE
  2
LTYPE
 70
     4
  0
LTYPE
  2
CONTINUOUS
 70
    64
  3
Solid line
 72
    65
 73
     0
 40
0.000000
  0
LTYPE
  2
DASHED
 70
    64
  3
__ __ __ __ __ __ __ __ __ __ __ __ __ __ __
 72
    65
 73
     2
 40
3.500000
 49
2.000000
 49
-1.500000
  0
LTYPE
  2
CENTER
 70
    64
  3
____ _ ____ _ ____ _ ____ _ ____ _ ____ _ ____
 72
    65
 73
     4
 40
17.500000
 49
13.000000
 49
-1.500000
 49
1.500000
 49
-1.500000
  0
LTYPE
  2
PHANTOM
 70
    64
  3
_____ _ _ _____ _ _ _____ _ _ _____ _ _ ____  
 72
    65
 73
     6
 40
15.500000
 49
8.000000
 49
-1.500000
 49
1.500000
 49
-1.500000
 49
1.500000
 49
-1.500000
  0
LTYPE
  2
DASHED1
 70
    64
  3
__ __ __ __ __ __ __ __ __ __ __ __ __ __ __
 72
    65
 73
     2
 40
1.500000
 49
1.000000
 49
-0.500000
  0
LTYPE
  2
DASHED2
 70
    64
  3
__ __ __ __ __ __ __ __ __ __ __ __ __ __ __
 72
    65
 73
     2
 40
3.500000
 49
2.500000
 49
-1.000000
  0
LTYPE
  2
DASHED3
 70
    64
  3
__ __ __ __ __ __ __ __ __ __ __ __ __ __ __
 72
    65
 73
     2
 40
6.000000
 49
4.000000
 49
-2.000000
  0
LTYPE
  2
DASHED4
 70
    64
  3
__ __ __ __ __ __ __ __ __ __ __ __ __ __ __
 72
    65
 73
     2
 40
12.000000
 49
10.000000
 49
-2.000000
  0
LTYPE
  2
DASHED5
 70
    64
  3
__ __ __ __ __ __ __ __ __ __ __ __ __ __ __
 72
    65
 73
     2
 40
17.000000
 49
15.000000
 49
-2.000000
  0
LTYPE
  2
DASHED6
 70
    64
  3
__ __ __ __ __ __ __ __ __ __ __ __ __ __ __
 72
    65
 73
     2
 40
29.000000
 49
27.000000
 49
-2.000000
  0
LTYPE
  2
PHANTOM1
 70
    64
  3
_____ _ _ _____ _ _ _____ _ _ _____ _ _ ____  
 72
    65
 73
     6
 40
31.000000
 49
25.000000
 49
-1.500000
 49
1.000000
 49
-1.000000
 49
1.000000
 49
-1.500000
  0
LTYPE
  2
PHANTOM2
 70
    64
  3
_____ _ _ _____ _ _ _____ _ _ _____ _ _ ____  
 72
    65
 73
     6
 40
36.000000
 49
27.000000
 49
-1.500000
 49
2.500000
 49
-1.000000
 49
2.500000
 49
-1.500000
  0
LTYPE
  2
PHANTOM3
 70
    64
  3
_____ _ _ _____ _ _ _____ _ _ _____ _ _ ____  
 72
    65
 73
     6
 40
78.000000
 49
64.000000
 49
-2.000000
 49
4.000000
 49
-2.000000
 49
4.000000
 49
-2.000000
  0
LTYPE
  2
CENTER1
 70
    64
  3
____ _ ____ _ ____ _ ____ _ ____ _ ____ _ ____
 72
    65
 73
     4
 40
19.000000
 49
14.000000
 49
-1.000000
 49
3.000000
 49
-1.000000
  0
LTYPE
  2
CENTER2
 70
    64
  3
____ _ ____ _ ____ _ ____ _ ____ _ ____ _ ____
 72
    65
 73
     4
 40
28.500000
 49
25.000000
 49
-1.000000
 49
1.500000
 49
-1.000000
  0
LTYPE
  2
CENTER3
 70
    64
  3
____ _ ____ _ ____ _ ____ _ ____ _ ____ _ ____
 72
    65
 73
     4
 40
31.500000
 49
27.000000
 49
-1.000000
 49
2.500000
 49
-1.000000
  0
LTYPE
  2
CENTER4
 70
    64
  3
____ _ ____ _ ____ _ ____ _ ____ _ ____ _ ____
 72
    65
 73
     4
 40
50.000000
 49
45.000000
 49
-1.000000
 49
3.000000
 49
-1.000000
  0
LTYPE
  2
CENTER5
 70
    64
  3
____ _ ____ _ ____ _ ____ _ ____ _ ____ _ ____
 72
    65
 73
     4
 40
100.000000
 49
92.000000
 49
-2.000000
 49
4.000000
 49
-2.000000
  0
LTYPE
  2
SBK1
 70
    64
  3
______ _ _ _ ______ _ _ _ ______ _ _ _ _____  
 72
    65
 73
     8
 40
60.500000
 49
45.000000
 49
-2.000000
 49
2.500000
 49
-2.000000
 49
2.500000
 49
-2.000000
 49
2.500000
 49
-2.000000
  0
LTYPE
  2
SBK2
 70
    64
  3
______ _ _ _ ______ _ _ _ ______ _ _ _ _____  
 72
    65
 73
     8
 40
84.000000
 49
64.000000
 49
-2.000000
 49
4.000000
 49
-2.000000
 49
4.000000
 49
-2.000000
 49
4.000000
 49
-2.000000
  0
LTYPE
  2
STCH
 70
    64
  3
__ __ __ __ __ __ __ __ __ __ __ __ __ __ __
 72
    65
 73
     2
 40
3.000000
 49
1.000000
 49
-2.000000
  0
LTYPE
  2
MTCH
 70
    64
  3
_____ _ _ _____ _ _ _____ _ _ _____ _ _ ____  
 72
    65
 73
     6
 40
80.000000
 49
66.000000
 49
-2.000000
 49
4.000000
 49
-2.000000
 49
4.000000
 49
-2.000000
  0
ENDTAB
  0
TABLE
  2
LAYER
 70
     1
  0
LAYER
  2
0
 70
     0
 62
     7
  6
CONTINUOUS
  0
ENDTAB
  0
TABLE
  2
STYLE
 70
     1
  0
STYLE
  2
STANDARD
 70
     0
 40
0.000000
 41
1.000000
 50
0.000000
 71
     0
 42
0.200000
  3
txt
  4
BIGFONT
  0
ENDTAB
  0
TABLE
  2
VIEW
 70
     0
  0
ENDTAB
  0
ENDSEC
  0
SECTION
  2
BLOCKS
  0
ENDSEC
  0
SECTION
  2
ENTITIES
  0
POINT
  8
0
 10
282.247223
 20
110.000053
  0
POINT
  8
0
 10
381.247223
 20
110.000053
  0
POINT
  8
0
 10
282.247253
 20
256.646942
  0
POINT
  8
0
 10
381.247223
 20
256.646942
  0
POINT
  8
0
 10
97.077225
 20
110.000053
  0
POINT
  8
0
 10
126.577225
 20
110.000053
  0
POINT
  8
0
 10
459.261932
 20
109.999992
  0
POINT
  8
0
 10
488.761932
 20
109.999992
  0
LINE
  8
0
 62
     3
 10
0.000000
 20
0.000000
 11
0.000000
 21
360.000092
  0
LINE
  8
0
 62
     3
 10
524.494446
 20
360.000092
 11
524.494446
 21
0.000000
  0
LINE
  8
0
 62
     3
 10
0.000000
 20
0.000000
 11
524.494446
 21
0.000000
  0
LINE
  8
0
 62
     3
 10
0.000000
 20
360.000092
 11
524.494446
 21
360.000092
  0
LINE
  8
0
 62
     3
 10
0.000000
 20
339.775330
 11
107.865173
 21
339.775330
  0
LINE
  8
0
 62
     3
 10
107.865173
 20
339.775330
 11
107.865173
 21
360.000092
  0
LINE
  8
0
 62
     3
 10
416.629272
 20
20.224701
 11
524.494446
 21
20.224701
  0
LINE
  8
0
 62
     3
 10
416.629272
 20
339.775330
 11
524.494446
 21
339.775330
  0
LINE
  8
0
 62
     3
 10
416.629272
 20
360.000092
 11
416.629272
 21
339.775330
  0
LINE
  8
0
 62
     3
 10
416.629272
 20
20.224701
 11
416.629272
 21
0.000000
  0
LINE
  8
0
 10
282.247223
 20
256.646820
 11
411.247223
 21
291.212250
  0
LINE
  8
0
 10
282.247223
 20
256.646790
 11
411.247192
 21
222.081375
  0
LINE
  8
0
 10
209.247238
 20
131.000061
 11
381.247253
 21
131.000061
  0
LINE
  8
0
 10
209.247238
 20
89.000053
 11
381.247253
 21
89.000053
  0
LINE
  8
0
 10
370.247223
 20
131.000061
 11
370.247223
 21
111.500053
  0
LINE
  8
0
 10
213.247238
 20
131.000061
 11
213.247238
 21
89.000053
  0
LINE
  8
0
  6
CENTER
 10
206.247238
 20
110.000053
 11
389.997223
 21
110.000053
  0
LINE
  8
0
  6
CENTER
 10
282.247223
 20
164.000000
 11
282.247223
 21
56.000069
  0
LINE
  8
0
  6
CENTER
 10
299.688995
 20
101.500053
 11
309.397217
 21
101.500053
  0
LINE
  8
0
  6
CENTER
 10
304.647217
 20
113.800056
 11
304.647217
 21
87.500069
  0
LINE
  8
0
 10
381.247223
 20
131.000061
 11
381.247223
 21
111.500053
  0
LINE
  8
0
 10
209.247238
 20
131.000061
 11
209.247238
 21
89.000053
  0
LINE
  8
0
  6
PHANTOM
 10
300.897217
 20
112.800056
 11
308.397217
 21
112.800056
  0
LINE
  8
0
  6
PHANTOM
 10
308.397217
 20
112.800056
 11
308.397217
 21
89.500069
  0
LINE
  8
0
  6
PHANTOM
 10
300.897217
 20
112.800056
 11
300.897217
 21
89.500069
  0
LINE
  8
0
  6
PHANTOM
 10
307.647217
 20
112.000053
 11
307.647217
 21
99.300087
  0
LINE
  8
0
  6
PHANTOM
 10
301.647217
 20
112.000053
 11
301.647217
 21
99.300087
  0
LINE
  8
0
  6
PHANTOM
 10
301.647217
 20
112.000053
 11
307.647217
 21
112.000053
  0
LINE
  8
0
  6
PHANTOM
 10
301.647217
 20
99.300087
 11
302.997253
 21
99.300087
  0
LINE
  8
0
  6
PHANTOM
 10
303.147217
 20
98.800087
 11
304.125214
 21
98.800087
  0
LINE
  8
0
  6
PHANTOM
 10
303.147217
 20
99.195198
 11
303.147217
 21
98.800087
  0
LINE
  8
0
  6
PHANTOM
 10
306.147217
 20
99.195198
 11
306.147217
 21
98.800087
  0
LINE
  8
0
  6
PHANTOM
 10
306.297241
 20
99.300087
 11
307.647217
 21
99.300087
  0
LINE
  8
0
  6
PHANTOM
 10
305.169250
 20
98.800087
 11
306.147217
 21
98.800087
  0
LINE
  8
0
  6
PHANTOM
 10
297.397217
 20
108.000053
 11
300.897217
 21
108.000053
  0
LINE
  8
0
  6
PHANTOM
 10
308.397217
 20
108.000053
 11
317.897217
 21
108.000053
  0
LINE
  8
0
  6
PHANTOM
 10
297.397217
 20
112.000053
 11
300.897217
 21
112.000053
  0
LINE
  8
0
  6
PHANTOM
 10
297.397217
 20
112.000053
 11
297.397217
 21
108.000053
  0
LINE
  8
0
  6
PHANTOM
 10
295.897247
 20
111.134033
 11
297.397278
 21
112.000061
  0
LINE
  8
0
  6
PHANTOM
 10
295.897217
 20
111.134041
 11
295.897217
 21
108.866081
  0
LINE
  8
0
  6
PHANTOM
 10
295.897217
 20
108.866066
 11
297.397217
 21
108.000038
  0
LINE
  8
0
  6
PHANTOM
 10
308.397217
 20
112.000053
 11
317.897217
 21
112.000053
  0
LINE
  8
0
  6
PHANTOM
 10
317.897217
 20
112.000053
 11
317.897217
 21
108.000053
  0
LINE
  8
0
  6
PHANTOM
 10
317.897247
 20
112.000053
 11
319.897247
 21
111.500053
  0
LINE
  8
0
  6
PHANTOM
 10
319.997253
 20
111.500053
 11
319.997253
 21
108.500053
  0
LINE
  8
0
  6
PHANTOM
 10
317.897278
 20
107.999977
 11
319.897278
 21
108.499977
  0
LINE
  8
0
  6
PHANTOM
 10
319.997253
 20
108.500053
 11
386.397247
 21
108.500053
  0
LINE
  8
0
  6
PHANTOM
 10
319.997253
 20
111.500053
 11
386.397247
 21
111.500053
  0
LINE
  8
0
  6
CENTER
 10
302.147217
 20
118.500053
 11
307.147217
 21
118.500053
  0
LINE
  8
0
  6
CENTER
 10
304.647217
 20
121.000053
 11
304.647217
 21
116.000053
  0
LINE
  8
0
  6
PHANTOM
 10
300.897217
 20
96.368752
 11
308.397217
 21
96.368752
  0
LINE
  8
0
  6
PHANTOM
 10
300.897217
 20
89.500069
 11
308.397217
 21
89.500069
  0
LINE
  8
0
  6
PHANTOM
 10
277.247253
 20
59.500122
 11
277.747253
 21
59.000122
  0
LINE
  8
0
 10
277.247223
 20
160.499985
 11
277.747223
 21
160.999969
  0
LINE
  8
0
 10
277.247223
 20
160.500061
 11
287.247253
 21
160.500061
  0
LINE
  8
0
 10
277.247223
 20
160.500061
 11
277.247223
 21
133.000061
  0
LINE
  8
0
 10
287.247192
 20
160.500061
 11
286.747223
 21
161.000046
  0
LINE
  8
0
 10
287.247223
 20
160.500061
 11
287.247223
 21
133.000061
  0
LINE
  8
0
 10
272.247253
 20
133.000061
 11
292.247253
 21
133.000061
  0
LINE
  8
0
 10
292.247253
 20
133.000061
 11
292.247253
 21
131.000061
  0
LINE
  8
0
 10
290.247253
 20
87.000053
 11
290.247253
 21
89.000053
  0
LINE
  8
0
 10
274.247253
 20
87.000053
 11
290.247253
 21
87.000053
  0
LINE
  8
0
 10
274.247253
 20
87.000053
 11
274.247253
 21
89.000053
  0
LINE
  8
0
  6
PHANTOM
 10
277.247253
 20
59.500053
 11
277.247253
 21
87.000053
  0
LINE
  8
0
  6
PHANTOM
 10
287.247253
 20
59.500038
 11
287.247253
 21
87.000053
  0
LINE
  8
0
  6
PHANTOM
 10
277.247253
 20
59.500038
 11
287.247223
 21
59.500038
  0
LINE
  8
0
  6
PHANTOM
 10
287.247192
 20
59.500084
 11
286.747223
 21
59.000095
  0
LINE
  8
0
  6
PHANTOM
 10
277.747223
 20
59.000069
 11
288.447235
 21
59.000069
  0
LINE
  8
0
 10
272.247253
 20
133.000061
 11
272.247253
 21
131.000061
  0
LINE
  8
0
 10
277.747192
 20
161.000000
 11
288.447235
 21
161.000000
  0
LINE
  8
0
 10
277.747253
 20
86.500053
 11
286.747253
 21
86.500053
  0
LINE
  8
0
 10
277.247223
 20
87.000069
 11
277.747253
 21
86.500069
  0
LINE
  8
0
 10
287.247192
 20
87.000084
 11
286.747162
 21
86.500069
  0
LINE
  8
0
 10
288.447235
 20
161.000000
 11
288.447235
 21
141.000000
  0
LINE
  8
0
 10
287.247253
 20
141.000000
 11
288.447235
 21
141.000000
  0
LINE
  8
0
  6
PHANTOM
 10
288.447205
 20
59.000053
 11
288.447205
 21
79.000053
  0
LINE
  8
0
  6
PHANTOM
 10
287.247223
 20
79.000053
 11
288.447235
 21
79.000053
  0
LINE
  8
0
 10
370.247223
 20
108.500053
 11
370.247223
 21
89.000053
  0
LINE
  8
0
 10
381.247223
 20
108.500053
 11
381.247223
 21
89.000053
  0
LINE
  8
0
  6
PHANTOM
 10
303.586609
 20
100.439407
 11
305.707916
 21
102.560707
  0
LINE
  8
0
  6
PHANTOM
 10
303.586609
 20
102.560745
 11
305.707947
 21
100.439392
  0
LINE
  8
0
 10
209.247238
 20
227.146942
 11
381.247223
 21
227.146942
  0
LINE
  8
0
 10
209.247238
 20
286.146942
 11
381.247223
 21
286.146942
  0
LINE
  8
0
 10
381.247223
 20
286.146942
 11
381.247223
 21
227.146942
  0
LINE
  8
0
 10
209.247238
 20
286.146942
 11
209.247238
 21
227.146942
  0
LINE
  8
0
  6
CENTER
 10
206.247238
 20
256.646942
 11
384.247223
 21
256.646942
  0
LINE
  8
0
  6
CENTER
 10
282.247253
 20
289.146942
 11
282.247253
 21
224.146942
  0
LINE
  8
0
  6
PHANTOM
 10
295.897217
 20
289.280914
 11
295.897217
 21
287.012970
  0
LINE
  8
0
  6
PHANTOM
 10
297.397217
 20
290.146942
 11
297.397217
 21
286.146942
  0
LINE
  8
0
  6
PHANTOM
 10
297.397217
 20
290.146942
 11
300.897217
 21
290.146942
  0
LINE
  8
0
  6
PHANTOM
 10
308.397217
 20
290.146942
 11
317.897217
 21
290.146942
  0
LINE
  8
0
  6
PHANTOM
 10
295.897247
 20
289.280975
 11
297.397278
 21
290.147003
  0
LINE
  8
0
  6
PHANTOM
 10
295.897247
 20
287.013062
 11
297.397247
 21
286.147034
  0
LINE
  8
0
  6
PHANTOM
 10
317.897217
 20
290.146942
 11
317.897217
 21
286.146942
  0
LINE
  8
0
  6
PHANTOM
 10
319.897217
 20
286.646942
 11
384.997223
 21
286.646942
  0
LINE
  8
0
  6
PHANTOM
 10
319.897217
 20
289.646942
 11
384.997223
 21
289.646942
  0
LINE
  8
0
  6
PHANTOM
 10
319.897217
 20
289.646942
 11
319.897217
 21
286.646942
  0
LINE
  8
0
  6
PHANTOM
 10
317.897308
 20
290.147186
 11
319.897308
 21
289.647186
  0
LINE
  8
0
  6
PHANTOM
 10
317.897217
 20
286.147186
 11
319.897186
 21
286.647186
  0
LINE
  8
0
  6
CENTER
 10
387.997253
 20
288.146942
 11
316.897217
 21
288.146942
  0
LINE
  8
0
  6
CENTER
 10
304.647217
 20
295.646942
 11
304.647217
 21
284.146942
  0
LINE
  8
0
  6
PHANTOM
 10
308.397217
 20
291.646942
 11
308.397217
 21
286.646942
  0
LINE
  8
0
  6
PHANTOM
 10
300.897217
 20
291.646942
 11
300.897217
 21
286.646942
  0
LINE
  8
0
  6
PHANTOM
 10
300.897217
 20
286.646942
 11
308.397217
 21
286.646942
  0
LINE
  8
0
  6
PHANTOM
 10
300.897217
 20
291.646942
 11
308.397217
 21
291.646942
  0
LINE
  8
0
  6
PHANTOM
 62
     3
 10
307.397217
 20
292.446594
 11
307.397217
 21
291.646942
  0
LINE
  8
0
  6
PHANTOM
 62
     3
 10
301.897217
 20
292.446594
 11
301.897217
 21
291.646942
  0
LINE
  8
0
  6
PHANTOM
 10
295.897217
 20
224.012970
 11
295.897217
 21
226.280914
  0
LINE
  8
0
  6
PHANTOM
 10
297.397217
 20
223.146942
 11
297.397217
 21
227.146942
  0
LINE
  8
0
  6
PHANTOM
 10
297.397217
 20
223.146942
 11
300.897217
 21
223.146942
  0
LINE
  8
0
  6
PHANTOM
 10
308.397217
 20
223.146942
 11
317.897217
 21
223.146942
  0
LINE
  8
0
  6
PHANTOM
 10
295.897369
 20
224.013123
 11
297.397369
 21
223.147095
  0
LINE
  8
0
  6
PHANTOM
 10
295.897308
 20
226.280869
 11
297.397278
 21
227.146881
  0
LINE
  8
0
  6
PHANTOM
 10
317.897217
 20
223.146942
 11
317.897217
 21
227.146942
  0
LINE
  8
0
  6
PHANTOM
 10
319.897217
 20
226.646942
 11
384.997223
 21
226.646942
  0
LINE
  8
0
  6
PHANTOM
 10
319.897217
 20
223.646942
 11
384.997223
 21
223.646942
  0
LINE
  8
0
  6
PHANTOM
 10
319.897217
 20
223.646942
 11
319.897217
 21
226.646942
  0
LINE
  8
0
  6
PHANTOM
 10
317.897217
 20
223.146973
 11
319.897217
 21
223.646973
  0
LINE
  8
0
  6
PHANTOM
 10
317.897247
 20
227.146957
 11
319.897247
 21
226.646957
  0
LINE
  8
0
  6
CENTER
 10
387.997253
 20
225.146942
 11
316.897217
 21
225.146942
  0
LINE
  8
0
  6
CENTER
 10
304.647217
 20
217.646942
 11
304.647217
 21
229.146942
  0
LINE
  8
0
  6
PHANTOM
 10
308.397217
 20
221.646942
 11
308.397217
 21
226.646942
  0
LINE
  8
0
  6
PHANTOM
 10
300.897217
 20
221.646942
 11
300.897217
 21
226.646942
  0
LINE
  8
0
  6
PHANTOM
 10
300.897217
 20
226.646942
 11
308.397217
 21
226.646942
  0
LINE
  8
0
  6
PHANTOM
 10
300.897217
 20
221.646942
 11
308.397217
 21
221.646942
  0
LINE
  8
0
  6
PHANTOM
 62
     3
 10
307.397217
 20
220.847290
 11
307.397217
 21
221.646942
  0
LINE
  8
0
  6
PHANTOM
 62
     3
 10
301.897217
 20
220.847290
 11
301.897217
 21
221.646942
  0
LINE
  8
0
 10
370.247192
 20
286.146912
 11
370.247192
 21
227.146912
  0
LINE
  8
0
  6
CENTER
 10
279.247253
 20
280.646942
 11
285.747253
 21
280.646942
  0
LINE
  8
0
  6
CENTER
 10
258.247253
 20
260.146942
 11
258.247253
 21
253.646942
  0
LINE
  8
0
  6
CENTER
 10
306.247253
 20
260.146942
 11
306.247253
 21
253.646942
  0
LINE
  8
0
 10
213.247238
 20
286.146942
 11
213.247238
 21
227.146942
  0
LINE
  8
0
  6
CENTER
 10
279.247253
 20
232.646942
 11
285.747253
 21
232.646942
  0
LINE
  8
0
  6
CENTER
 10
267.247253
 20
260.646942
 11
267.247253
 21
252.646942
  0
LINE
  8
0
  6
CENTER
 10
297.247253
 20
260.646942
 11
297.247253
 21
252.646942
  0
LINE
  8
0
  6
CENTER
 10
278.247253
 20
241.646942
 11
286.247253
 21
241.646942
  0
LINE
  8
0
  6
CENTER
 10
278.247253
 20
271.646942
 11
286.247253
 21
271.646942
  0
LINE
  8
0
 10
285.447235
 20
258.146942
 11
288.447235
 21
258.146942
  0
LINE
  8
0
 10
285.447235
 20
258.146942
 11
285.447235
 21
255.146942
  0
LINE
  8
0
 10
288.447235
 20
258.146942
 11
288.447235
 21
255.146942
  0
LINE
  8
0
 10
285.447235
 20
255.146942
 11
288.447235
 21
255.146942
  0
LINE
  8
0
 10
268.413971
 20
257.813660
 11
266.080536
 21
255.480240
  0
LINE
  8
0
 10
266.080536
 20
257.813690
 11
268.414001
 21
255.480225
  0
LINE
  8
0
 10
281.080566
 20
242.813690
 11
283.414032
 21
240.480255
  0
LINE
  8
0
 10
281.080536
 20
240.480225
 11
283.414001
 21
242.813690
  0
LINE
  8
0
 10
296.080505
 20
255.480240
 11
298.413940
 21
257.813690
  0
LINE
  8
0
 10
298.414001
 20
255.480225
 11
296.080536
 21
257.813690
  0
LINE
  8
0
 10
283.413971
 20
270.480255
 11
281.080536
 21
272.813690
  0
LINE
  8
0
 10
283.413971
 20
272.813660
 11
281.080505
 21
270.480194
  0
LINE
  8
0
 10
71.577240
 20
89.000053
 11
122.577225
 21
89.000053
  0
LINE
  8
0
 10
71.577240
 20
131.000061
 11
122.577225
 21
131.000061
  0
LINE
  8
0
 10
67.577225
 20
127.000053
 11
67.577225
 21
93.000053
  0
LINE
  8
0
 10
126.577225
 20
127.000053
 11
126.577225
 21
93.000053
  0
LINE
  8
0
  6
CENTER
 10
59.077225
 20
110.000053
 11
135.077225
 21
110.000053
  0
LINE
  8
0
  6
CENTER
 10
97.077225
 20
164.000000
 11
97.077225
 21
56.000053
  0
LINE
  8
0
  6
PHANTOM
 10
63.577225
 20
112.000053
 11
63.577225
 21
108.000053
  0
LINE
  8
0
  6
PHANTOM
 10
64.443207
 20
108.866081
 11
66.711212
 21
108.866081
  0
LINE
  8
0
  6
PHANTOM
 10
63.577209
 20
108.000053
 11
67.577209
 21
108.000053
  0
LINE
  8
0
  6
PHANTOM
 10
63.577209
 20
112.000053
 11
67.577209
 21
112.000053
  0
LINE
  8
0
  6
PHANTOM
 10
64.443207
 20
111.134026
 11
66.711212
 21
111.134026
  0
LINE
  8
0
  6
PHANTOM
 10
64.443192
 20
111.134026
 11
64.443192
 21
108.866081
  0
LINE
  8
0
  6
PHANTOM
 10
66.711197
 20
111.134026
 11
66.711197
 21
108.866081
  0
LINE
  8
0
  6
PHANTOM
 10
63.577492
 20
112.000359
 11
64.443481
 21
111.134338
  0
LINE
  8
0
  6
PHANTOM
 10
64.443260
 20
108.866005
 11
63.577271
 21
107.999985
  0
LINE
  8
0
  6
PHANTOM
 10
66.711212
 20
108.866158
 11
67.577217
 21
108.000130
  0
LINE
  8
0
  6
PHANTOM
 10
66.711418
 20
111.133842
 11
67.577408
 21
111.999863
  0
LINE
  8
0
  6
PHANTOM
 10
62.077225
 20
112.800056
 11
67.077225
 21
112.800056
  0
LINE
  8
0
  6
PHANTOM
 10
67.077225
 20
112.800056
 11
67.077225
 21
112.000053
  0
LINE
  8
0
  6
PHANTOM
 10
67.077225
 20
108.000053
 11
67.077225
 21
101.500053
  0
LINE
  8
0
  6
PHANTOM
 10
62.077225
 20
112.800056
 11
62.077225
 21
96.368767
  0
LINE
  8
0
  6
PHANTOM
 62
     3
 10
61.277573
 20
104.250053
 11
62.077225
 21
104.250053
  0
LINE
  8
0
  6
PHANTOM
 62
     3
 10
61.277573
 20
98.750053
 11
62.077225
 21
98.750053
  0
LINE
  8
0
  6
PHANTOM
 62
     1
 10
67.077225
 20
102.750053
 11
67.577225
 21
102.750053
  0
LINE
  8
0
  6
PHANTOM
 62
     1
 10
67.077225
 20
102.479561
 11
67.577225
 21
102.479561
  0
LINE
  8
0
  6
PHANTOM
 10
64.577240
 20
89.500053
 11
68.577225
 21
89.500053
  0
LINE
  8
0
  6
PHANTOM
 10
68.577225
 20
90.354332
 11
68.577225
 21
89.500069
  0
LINE
  8
0
  6
PHANTOM
 10
130.577240
 20
112.000053
 11
130.577240
 21
108.000053
  0
LINE
  8
0
  6
PHANTOM
 10
129.711243
 20
108.866081
 11
127.443237
 21
108.866081
  0
LINE
  8
0
  6
PHANTOM
 10
130.577240
 20
108.000053
 11
126.577240
 21
108.000053
  0
LINE
  8
0
  6
PHANTOM
 10
130.577240
 20
112.000053
 11
126.577240
 21
112.000053
  0
LINE
  8
0
  6
PHANTOM
 10
129.711243
 20
111.134026
 11
127.443237
 21
111.134026
  0
LINE
  8
0
  6
PHANTOM
 10
129.711243
 20
111.134026
 11
129.711243
 21
108.866081
  0
LINE
  8
0
  6
PHANTOM
 10
127.443237
 20
111.134026
 11
127.443237
 21
108.866081
  0
LINE
  8
0
  6
PHANTOM
 10
130.577148
 20
112.000175
 11
129.711151
 21
111.134148
  0
LINE
  8
0
  6
PHANTOM
 10
129.711166
 20
108.865982
 11
130.577148
 21
107.999969
  0
LINE
  8
0
  6
PHANTOM
 10
127.443214
 20
108.866135
 11
126.577209
 21
108.000107
  0
LINE
  8
0
  6
PHANTOM
 10
127.443237
 20
111.134048
 11
126.577232
 21
112.000084
  0
LINE
  8
0
  6
PHANTOM
 10
132.077225
 20
112.800056
 11
127.077225
 21
112.800056
  0
LINE
  8
0
  6
PHANTOM
 10
127.077225
 20
112.800056
 11
127.077225
 21
112.000053
  0
LINE
  8
0
  6
PHANTOM
 10
127.077225
 20
108.000053
 11
127.077225
 21
101.500053
  0
LINE
  8
0
  6
PHANTOM
 10
132.077225
 20
112.800056
 11
132.077225
 21
96.368752
  0
LINE
  8
0
  6
CENTER
 10
135.077225
 20
101.500053
 11
125.577225
 21
101.500053
  0
LINE
  8
0
  6
PHANTOM
 62
     3
 10
132.876877
 20
104.250053
 11
132.077225
 21
104.250053
  0
LINE
  8
0
  6
PHANTOM
 62
     3
 10
132.876877
 20
98.750053
 11
132.077225
 21
98.750053
  0
LINE
  8
0
  6
PHANTOM
 62
     1
 10
127.077225
 20
102.750053
 11
126.577225
 21
102.750053
  0
LINE
  8
0
  6
PHANTOM
 62
     1
 10
127.077225
 20
102.479561
 11
126.577225
 21
102.479561
  0
LINE
  8
0
  6
PHANTOM
 10
129.577225
 20
89.500053
 11
125.577225
 21
89.500053
  0
LINE
  8
0
  6
PHANTOM
 10
125.577225
 20
90.354332
 11
125.577225
 21
89.500069
  0
LINE
  8
0
  6
PHANTOM
 10
92.077225
 20
59.500053
 11
102.077225
 21
59.500053
  0
LINE
  8
0
 10
92.077240
 20
160.499969
 11
92.577232
 21
160.999954
  0
LINE
  8
0
 10
92.077225
 20
160.500061
 11
102.077225
 21
160.500061
  0
LINE
  8
0
 10
92.077225
 20
160.500061
 11
92.077225
 21
133.000061
  0
LINE
  8
0
 10
102.077240
 20
160.500092
 11
101.577248
 21
161.000076
  0
LINE
  8
0
 10
102.077225
 20
160.500061
 11
102.077225
 21
133.000061
  0
LINE
  8
0
 10
87.077225
 20
133.000061
 11
107.077225
 21
133.000061
  0
LINE
  8
0
 10
107.077225
 20
133.000061
 11
107.077225
 21
131.000061
  0
LINE
  8
0
 10
87.077225
 20
133.000061
 11
87.077225
 21
131.000061
  0
LINE
  8
0
 10
92.577194
 20
161.000000
 11
101.577271
 21
161.000000
  0
LINE
  8
0
  6
PHANTOM
 10
92.577225
 20
59.000053
 11
101.577225
 21
59.000053
  0
LINE
  8
0
 10
92.577240
 20
86.500053
 11
101.577225
 21
86.500053
  0
LINE
  8
0
 10
102.077240
 20
87.000015
 11
101.577232
 21
86.500008
  0
LINE
  8
0
  6
PHANTOM
 10
102.077202
 20
59.499996
 11
101.577209
 21
59.000008
  0
LINE
  8
0
 10
92.077286
 20
87.000084
 11
92.577293
 21
86.500092
  0
LINE
  8
0
  6
PHANTOM
 10
92.077271
 20
59.500191
 11
92.577271
 21
59.000191
  0
LINE
  8
0
 10
107.077225
 20
87.000053
 11
107.077225
 21
89.000053
  0
LINE
  8
0
 10
87.077225
 20
87.000053
 11
107.077225
 21
87.000053
  0
LINE
  8
0
 10
87.077225
 20
87.000053
 11
87.077225
 21
89.000053
  0
LINE
  8
0
  6
PHANTOM
 10
92.077225
 20
59.500053
 11
92.077225
 21
87.000053
  0
LINE
  8
0
  6
PHANTOM
 10
102.077225
 20
59.500053
 11
102.077225
 21
87.000053
  0
LINE
  8
0
  6
CENTER
 10
59.077225
 20
101.500053
 11
68.577225
 21
101.500053
  0
LINE
  8
0
  6
CENTER
 10
67.577225
 20
125.000053
 11
79.577225
 21
125.000053
  0
LINE
  8
0
  6
CENTER
 10
67.577225
 20
95.000053
 11
79.577225
 21
95.000053
  0
LINE
  8
0
  6
CENTER
 10
114.577225
 20
95.000053
 11
126.577225
 21
95.000053
  0
LINE
  8
0
  6
CENTER
 10
114.577225
 20
125.000053
 11
126.577225
 21
125.000053
  0
LINE
  8
0
  6
CENTER
 10
73.577225
 20
131.000061
 11
73.577225
 21
119.000053
  0
LINE
  8
0
  6
CENTER
 10
73.577225
 20
101.000053
 11
73.577225
 21
89.000053
  0
LINE
  8
0
  6
CENTER
 10
120.577225
 20
101.000053
 11
120.577225
 21
89.000053
  0
LINE
  8
0
  6
CENTER
 10
120.577225
 20
131.000061
 11
120.577225
 21
119.000053
  0
LINE
  8
0
  6
PHANTOM
 10
64.577339
 20
89.500084
 11
62.077324
 21
96.368805
  0
LINE
  8
0
  6
PHANTOM
 10
129.577225
 20
89.500053
 11
132.077225
 21
96.368744
  0
LINE
  8
0
 10
71.668022
 20
93.090904
 11
75.486374
 21
96.909256
  0
LINE
  8
0
 10
71.668037
 20
96.909225
 11
75.486397
 21
93.090858
  0
LINE
  8
0
 10
71.667976
 20
126.909195
 11
75.486336
 21
123.090843
  0
LINE
  8
0
 10
71.668030
 20
123.090881
 11
75.486389
 21
126.909241
  0
LINE
  8
0
 10
122.486450
 20
93.090866
 11
118.668091
 21
96.909218
  0
LINE
  8
0
 10
122.486412
 20
96.909218
 11
118.668053
 21
93.090858
  0
LINE
  8
0
 10
122.486450
 20
126.909210
 11
118.668083
 21
123.090851
  0
LINE
  8
0
 10
122.486420
 20
123.090881
 11
118.668060
 21
126.909248
  0
LINE
  8
0
 10
433.761963
 20
88.999992
 11
484.761932
 21
88.999992
  0
LINE
  8
0
 10
433.761963
 20
131.000000
 11
484.761932
 21
131.000000
  0
LINE
  8
0
 10
429.761932
 20
126.999992
 11
429.761932
 21
92.999992
  0
LINE
  8
0
 10
488.761932
 20
126.999992
 11
488.761932
 21
92.999992
  0
LINE
  8
0
  6
CENTER
 10
421.261932
 20
109.999992
 11
497.261932
 21
109.999992
  0
LINE
  8
0
  6
CENTER
 10
459.261932
 20
163.999939
 11
459.261932
 21
55.999992
  0
LINE
  8
0
  6
PHANTOM
 10
425.761932
 20
111.999992
 11
425.761932
 21
107.999992
  0
LINE
  8
0
  6
PHANTOM
 10
426.627930
 20
108.866020
 11
428.895935
 21
108.866020
  0
LINE
  8
0
  6
PHANTOM
 10
425.761902
 20
107.999992
 11
429.761902
 21
107.999992
  0
LINE
  8
0
  6
PHANTOM
 10
425.761902
 20
111.999992
 11
429.761902
 21
111.999992
  0
LINE
  8
0
  6
PHANTOM
 10
426.627930
 20
111.133965
 11
428.895935
 21
111.133965
  0
LINE
  8
0
  6
PHANTOM
 10
426.627899
 20
111.133965
 11
426.627899
 21
108.866020
  0
LINE
  8
0
  6
PHANTOM
 10
428.895905
 20
111.133965
 11
428.895905
 21
108.866020
  0
LINE
  8
0
  6
PHANTOM
 10
425.762024
 20
112.000160
 11
426.627991
 21
111.134155
  0
LINE
  8
0
  6
PHANTOM
 10
426.627899
 20
108.865959
 11
425.761902
 21
107.999931
  0
LINE
  8
0
  6
PHANTOM
 10
428.895874
 20
108.866051
 11
429.761871
 21
108.000023
  0
LINE
  8
0
  6
PHANTOM
 10
428.895935
 20
111.133911
 11
429.761932
 21
111.999939
  0
LINE
  8
0
  6
PHANTOM
 10
424.261932
 20
112.799995
 11
429.261932
 21
112.799995
  0
LINE
  8
0
  6
PHANTOM
 10
429.261932
 20
112.799995
 11
429.261932
 21
111.999992
  0
LINE
  8
0
  6
PHANTOM
 10
429.261932
 20
107.999992
 11
429.261932
 21
101.499992
  0
LINE
  8
0
  6
PHANTOM
 10
424.261932
 20
112.799995
 11
424.261932
 21
96.368706
  0
LINE
  8
0
  6
PHANTOM
 62
     3
 10
423.462280
 20
104.249992
 11
424.261932
 21
104.249992
  0
LINE
  8
0
  6
PHANTOM
 62
     3
 10
423.462280
 20
98.749992
 11
424.261932
 21
98.749992
  0
LINE
  8
0
  6
PHANTOM
 62
     1
 10
429.261932
 20
102.749992
 11
429.761932
 21
102.749992
  0
LINE
  8
0
  6
PHANTOM
 62
     1
 10
429.261932
 20
102.479500
 11
429.761932
 21
102.479500
  0
LINE
  8
0
  6
PHANTOM
 10
426.761963
 20
89.499992
 11
430.761932
 21
89.499992
  0
LINE
  8
0
  6
PHANTOM
 10
430.761932
 20
90.354271
 11
430.761932
 21
89.500008
  0
LINE
  8
0
  6
PHANTOM
 10
492.761963
 20
111.999992
 11
492.761963
 21
107.999992
  0
LINE
  8
0
  6
PHANTOM
 10
491.895935
 20
108.866020
 11
489.627930
 21
108.866020
  0
LINE
  8
0
  6
PHANTOM
 10
492.761963
 20
107.999992
 11
488.761963
 21
107.999992
  0
LINE
  8
0
  6
PHANTOM
 10
492.761963
 20
111.999992
 11
488.761963
 21
111.999992
  0
LINE
  8
0
  6
PHANTOM
 10
491.895935
 20
111.133965
 11
489.627930
 21
111.133965
  0
LINE
  8
0
  6
PHANTOM
 10
491.895935
 20
111.133965
 11
491.895935
 21
108.866020
  0
LINE
  8
0
  6
PHANTOM
 10
489.627930
 20
111.133965
 11
489.627930
 21
108.866020
  0
LINE
  8
0
  6
PHANTOM
 10
492.761902
 20
112.000046
 11
491.895905
 21
111.134018
  0
LINE
  8
0
  6
PHANTOM
 10
491.895935
 20
108.865990
 11
492.761932
 21
107.999962
  0
LINE
  8
0
  6
PHANTOM
 10
489.627991
 20
108.865982
 11
488.761993
 21
107.999954
  0
LINE
  8
0
  6
PHANTOM
 10
489.627869
 20
111.133934
 11
488.761871
 21
111.999962
  0
LINE
  8
0
  6
PHANTOM
 10
494.261932
 20
112.799995
 11
489.261932
 21
112.799995
  0
LINE
  8
0
  6
PHANTOM
 10
489.261932
 20
112.799995
 11
489.261932
 21
111.999992
  0
LINE
  8
0
  6
PHANTOM
 10
489.261932
 20
107.999992
 11
489.261932
 21
101.499992
  0
LINE
  8
0
  6
PHANTOM
 10
494.261932
 20
112.799995
 11
494.261932
 21
96.368690
  0
LINE
  8
0
  6
CENTER
 10
497.261932
 20
101.499992
 11
487.761932
 21
101.499992
  0
LINE
  8
0
  6
PHANTOM
 62
     3
 10
495.061584
 20
104.249992
 11
494.261932
 21
104.249992
  0
LINE
  8
0
  6
PHANTOM
 62
     3
 10
495.061584
 20
98.749992
 11
494.261932
 21
98.749992
  0
LINE
  8
0
  6
PHANTOM
 62
     1
 10
489.261932
 20
102.749992
 11
488.761932
 21
102.749992
  0
LINE
  8
0
  6
PHANTOM
 62
     1
 10
489.261932
 20
102.479500
 11
488.761932
 21
102.479500
  0
LINE
  8
0
  6
PHANTOM
 10
491.761932
 20
89.499992
 11
487.761932
 21
89.499992
  0
LINE
  8
0
  6
PHANTOM
 10
487.761932
 20
90.354271
 11
487.761932
 21
89.500008
  0
LINE
  8
0
  6
PHANTOM
 10
454.261932
 20
59.499992
 11
457.761932
 21
59.499992
  0
LINE
  8
0
 10
454.261902
 20
160.499924
 11
454.761902
 21
160.999908
  0
LINE
  8
0
 10
454.261932
 20
160.500000
 11
457.761932
 21
160.500000
  0
LINE
  8
0
 10
454.261932
 20
160.500000
 11
454.261932
 21
133.000000
  0
LINE
  8
0
 10
464.261902
 20
160.499985
 11
463.761902
 21
161.000000
  0
LINE
  8
0
 10
464.261932
 20
160.500000
 11
464.261932
 21
133.000000
  0
LINE
  8
0
 10
449.261932
 20
133.000000
 11
469.261932
 21
133.000000
  0
LINE
  8
0
 10
469.261932
 20
133.000000
 11
469.261932
 21
131.000000
  0
LINE
  8
0
 10
449.261932
 20
133.000000
 11
449.261932
 21
131.000000
  0
LINE
  8
0
 10
454.761902
 20
160.999939
 11
463.761963
 21
160.999939
  0
LINE
  8
0
  6
PHANTOM
 10
454.761932
 20
58.999992
 11
463.761932
 21
58.999992
  0
LINE
  8
0
 10
454.761963
 20
86.499992
 11
463.761932
 21
86.499992
  0
LINE
  8
0
 10
464.261871
 20
87.000008
 11
463.761871
 21
86.499992
  0
LINE
  8
0
  6
PHANTOM
 10
464.261871
 20
59.500008
 11
463.761902
 21
59.000019
  0
LINE
  8
0
 10
454.261963
 20
86.999985
 11
454.761963
 21
86.500008
  0
LINE
  8
0
  6
PHANTOM
 10
454.261932
 20
59.500072
 11
454.761932
 21
59.000084
  0
LINE
  8
0
 10
469.261932
 20
86.999992
 11
469.261932
 21
88.999992
  0
LINE
  8
0
 10
449.261932
 20
86.999992
 11
469.261932
 21
86.999992
  0
LINE
  8
0
 10
449.261932
 20
86.999992
 11
449.261932
 21
88.999992
  0
LINE
  8
0
  6
PHANTOM
 10
454.261932
 20
59.499992
 11
454.261932
 21
86.999992
  0
LINE
  8
0
  6
PHANTOM
 10
464.261932
 20
59.499992
 11
464.261932
 21
86.999992
  0
LINE
  8
0
  6
CENTER
 10
421.261932
 20
101.499992
 11
430.761932
 21
101.499992
  0
LINE
  8
0
  6
PHANTOM
 10
426.761932
 20
89.499969
 11
424.261902
 21
96.368698
  0
LINE
  8
0
  6
PHANTOM
 10
491.761932
 20
89.500015
 11
494.261932
 21
96.368706
  0
LINE
  8
0
 10
457.761932
 20
160.999939
 11
457.761932
 21
140.999939
  0
LINE
  8
0
 10
460.761932
 20
160.999939
 11
460.761932
 21
140.999939
  0
LINE
  8
0
 10
457.761932
 20
140.999939
 11
460.761932
 21
140.999939
  0
LINE
  8
0
  6
PHANTOM
 10
457.761932
 20
78.999992
 11
460.761932
 21
78.999992
  0
LINE
  8
0
  6
PHANTOM
 10
457.761932
 20
78.999992
 11
457.761932
 21
58.999992
  0
LINE
  8
0
  6
PHANTOM
 10
460.761932
 20
78.999992
 11
460.761932
 21
58.999992
  0
LINE
  8
0
 10
460.761932
 20
160.500000
 11
464.261932
 21
160.500000
  0
LINE
  8
0
  6
PHANTOM
 10
460.761932
 20
59.499992
 11
464.261932
 21
59.499992
  0
LINE
  8
0
  6
CENTER
 10
443.261932
 20
118.999992
 11
455.261932
 21
118.999992
  0
LINE
  8
0
  6
CENTER
 10
463.261932
 20
100.999992
 11
475.261932
 21
100.999992
  0
LINE
  8
0
  6
CENTER
 10
469.261932
 20
106.999992
 11
469.261932
 21
94.999992
  0
LINE
  8
0
  6
CENTER
 10
449.261932
 20
124.999992
 11
449.261932
 21
112.999992
  0
LINE
  8
0
  6
CENTER
 10
430.261932
 20
124.999992
 11
441.261932
 21
124.999992
  0
LINE
  8
0
  6
CENTER
 10
477.261932
 20
124.999992
 11
488.261932
 21
124.999992
  0
LINE
  8
0
  6
CENTER
 10
477.261932
 20
94.999992
 11
488.261932
 21
94.999992
  0
LINE
  8
0
  6
CENTER
 10
430.261932
 20
94.999992
 11
441.261932
 21
94.999992
  0
LINE
  8
0
  6
CENTER
 10
435.761932
 20
100.499992
 11
435.761932
 21
89.499992
  0
LINE
  8
0
  6
CENTER
 10
435.761932
 20
130.500000
 11
435.761932
 21
119.499992
  0
LINE
  8
0
  6
CENTER
 10
482.761932
 20
130.500000
 11
482.761932
 21
119.499992
  0
LINE
  8
0
  6
CENTER
 10
482.761932
 20
100.499992
 11
482.761932
 21
89.499992
  0
LINE
  8
0
 62
     3
 10
433.761932
 20
126.154701
 11
433.761932
 21
123.845299
  0
LINE
  8
0
 62
     3
 10
437.761932
 20
126.154701
 11
437.761932
 21
123.845299
  0
LINE
  8
0
 62
     3
 10
433.761963
 20
126.154701
 11
435.761963
 21
127.309410
  0
LINE
  8
0
 62
     3
 10
435.761963
 20
122.690582
 11
437.761963
 21
123.845276
  0
LINE
  8
0
 62
     3
 10
435.761963
 20
127.309395
 11
437.761963
 21
126.154701
  0
LINE
  8
0
 62
     3
 10
433.761963
 20
123.845291
 11
435.761963
 21
122.690598
  0
LINE
  8
0
 62
     3
 10
480.761932
 20
126.154701
 11
480.761932
 21
123.845299
  0
LINE
  8
0
 62
     3
 10
484.761932
 20
126.154701
 11
484.761932
 21
123.845299
  0
LINE
  8
0
 62
     3
 10
480.761963
 20
126.154686
 11
482.761932
 21
127.309380
  0
LINE
  8
0
 62
     3
 10
482.761963
 20
122.690582
 11
484.761932
 21
123.845276
  0
LINE
  8
0
 62
     3
 10
482.761963
 20
127.309402
 11
484.761932
 21
126.154709
  0
LINE
  8
0
 62
     3
 10
480.761963
 20
123.845299
 11
482.761932
 21
122.690605
  0
LINE
  8
0
 62
     3
 10
480.761932
 20
96.154701
 11
480.761932
 21
93.845299
  0
LINE
  8
0
 62
     3
 10
484.761932
 20
96.154701
 11
484.761932
 21
93.845299
  0
LINE
  8
0
 62
     3
 10
480.761963
 20
96.154678
 11
482.761932
 21
97.309372
  0
LINE
  8
0
 62
     3
 10
482.761993
 20
92.690575
 11
484.761993
 21
93.845268
  0
LINE
  8
0
 62
     3
 10
482.761963
 20
97.309387
 11
484.761932
 21
96.154694
  0
LINE
  8
0
 62
     3
 10
480.761963
 20
93.845291
 11
482.761932
 21
92.690598
  0
LINE
  8
0
 62
     3
 10
433.761932
 20
96.154701
 11
433.761932
 21
93.845299
  0
LINE
  8
0
 62
     3
 10
437.761932
 20
96.154701
 11
437.761932
 21
93.845299
  0
LINE
  8
0
 62
     3
 10
433.761963
 20
96.154686
 11
435.761963
 21
97.309380
  0
LINE
  8
0
 62
     3
 10
435.761963
 20
92.690582
 11
437.761963
 21
93.845276
  0
LINE
  8
0
 62
     3
 10
435.761963
 20
97.309380
 11
437.761963
 21
96.154686
  0
LINE
  8
0
 62
     3
 10
433.761963
 20
93.845284
 11
435.761963
 21
92.690590
  0
CIRCLE
  8
0
 10
304.647217
 20
118.500053
 40
1.500000
  0
CIRCLE
  8
0
 10
304.647217
 20
118.500053
 40
1.229500
  0
CIRCLE
  8
0
  6
PHANTOM
 62
     3
 10
304.647217
 20
101.500084
 40
2.750000
  0
ARC
  8
0
  6
PHANTOM
 10
385.735809
 20
110.750053
 40
1.000000
 50
311.409637
 51
48.590370
  0
ARC
  8
0
  6
PHANTOM
 10
387.058685
 20
109.250053
 40
1.000000
 50
131.409622
 51
228.590378
  0
ARC
  8
0
  6
PHANTOM
 10
385.735809
 20
109.250053
 40
1.000000
 50
311.409637
 51
48.590370
  0
CIRCLE
  8
0
 62
     3
 10
282.247253
 20
241.646942
 40
3.000000
  0
CIRCLE
  8
0
 62
     3
 10
282.247253
 20
271.646942
 40
3.000000
  0
CIRCLE
  8
0
 62
     3
 10
297.247253
 20
256.646942
 40
3.000000
  0
CIRCLE
  8
0
 62
     3
 10
267.247253
 20
256.646942
 40
3.000000
  0
ARC
  8
0
 10
282.247223
 20
256.646942
 40
4.999989
 50
17.457645
 51
342.542358
  0
ARC
  8
0
 10
282.247223
 20
256.646942
 40
4.500004
 50
19.471201
 51
340.528809
  0
ARC
  8
0
  6
PHANTOM
 10
384.335815
 20
287.396942
 40
1.000000
 50
311.409637
 51
48.590370
  0
ARC
  8
0
  6
PHANTOM
 10
384.335815
 20
288.896942
 40
1.000000
 50
311.409637
 51
48.590370
  0
ARC
  8
0
  6
PHANTOM
 10
385.658691
 20
288.896942
 40
1.000000
 50
131.409622
 51
228.590378
  0
ARC
  8
0
  6
PHANTOM
 62
     3
 10
304.647217
 20
288.646942
 40
5.000006
 50
61.264477
 51
118.735214
  0
ARC
  8
0
  6
PHANTOM
 62
     3
 10
306.730530
 20
292.446564
 40
0.666687
 50
0.000000
 51
61.264580
  0
ARC
  8
0
  6
PHANTOM
 62
     3
 10
302.563934
 20
292.446564
 40
0.666699
 50
118.735420
 51
180.000000
  0
ARC
  8
0
  6
PHANTOM
 62
     3
 10
302.563934
 20
220.847290
 40
0.666687
 50
180.000000
 51
241.264587
  0
ARC
  8
0
  6
PHANTOM
 10
384.335815
 20
224.396942
 40
1.000000
 50
311.409637
 51
48.590370
  0
ARC
  8
0
  6
PHANTOM
 10
384.335815
 20
225.896942
 40
1.000000
 50
311.409637
 51
48.590370
  0
ARC
  8
0
  6
PHANTOM
 10
385.658691
 20
225.896942
 40
1.000000
 50
131.409622
 51
228.590378
  0
ARC
  8
0
  6
PHANTOM
 62
     3
 10
304.647217
 20
224.646942
 40
5.000006
 50
241.264481
 51
298.735229
  0
ARC
  8
0
  6
PHANTOM
 62
     3
 10
306.730530
 20
220.847290
 40
0.666699
 50
298.735413
 51
0.000000
  0
CIRCLE
  8
0
 10
282.247253
 20
256.646942
 40
10.000000
  0
CIRCLE
  8
0
 10
282.247253
 20
256.646942
 40
19.000000
  0
CIRCLE
  8
0
 10
258.247253
 20
256.646942
 40
2.066999
  0
CIRCLE
  8
0
 10
282.247253
 20
232.646942
 40
2.066999
  0
CIRCLE
  8
0
 10
306.247253
 20
256.646942
 40
2.066999
  0
CIRCLE
  8
0
 10
258.247253
 20
256.646942
 40
2.500000
  0
CIRCLE
  8
0
 10
306.247253
 20
256.646942
 40
2.500000
  0
CIRCLE
  8
0
 10
282.247253
 20
232.646942
 40
2.500000
  0
CIRCLE
  8
0
 10
282.247253
 20
280.646942
 40
2.500000
  0
CIRCLE
  8
0
 10
282.247253
 20
280.646942
 40
2.066999
  0
CIRCLE
  8
0
 62
     3
 10
73.577225
 20
95.000053
 40
5.000000
  0
CIRCLE
  8
0
 62
     3
 10
73.577225
 20
125.000053
 40
5.000000
  0
CIRCLE
  8
0
 62
     3
 10
120.577225
 20
125.000053
 40
5.000000
  0
CIRCLE
  8
0
 62
     3
 10
120.577225
 20
95.000053
 40
5.000000
  0
ARC
  8
0
 10
71.577225
 20
127.000053
 40
4.000008
 50
90.000000
 51
180.000000
  0
ARC
  8
0
  6
PHANTOM
 62
     3
 10
132.876877
 20
103.583351
 40
0.666699
 50
28.735418
 51
90.000000
  0
ARC
  8
0
  6
PHANTOM
 62
     3
 10
132.876877
 20
99.416756
 40
0.666702
 50
270.000000
 51
331.264587
  0
ARC
  8
0
 10
122.577225
 20
127.000053
 40
4.000000
 50
0.000000
 51
90.000000
  0
ARC
  8
0
 10
122.577225
 20
93.000053
 40
4.000000
 50
270.000000
 51
0.000000
  0
ARC
  8
0
 10
71.577225
 20
93.000053
 40
4.000000
 50
180.000000
 51
270.000000
  0
ARC
  8
0
  6
PHANTOM
 62
     3
 10
129.077225
 20
101.500053
 40
4.999999
 50
331.264618
 51
28.735369
  0
ARC
  8
0
  6
PHANTOM
 62
     3
 10
65.077225
 20
101.500053
 40
4.999999
 50
151.264633
 51
208.735352
  0
ARC
  8
0
  6
PHANTOM
 62
     3
 10
61.277542
 20
103.583351
 40
0.666702
 50
90.000000
 51
151.264587
  0
ARC
  8
0
  6
PHANTOM
 62
     3
 10
61.277542
 20
99.416756
 40
0.666699
 50
208.735413
 51
270.000000
  0
CIRCLE
  8
0
 62
     3
 10
482.761932
 20
94.999992
 40
4.250000
  0
CIRCLE
  8
0
 62
     3
 10
435.761932
 20
94.999992
 40
4.250000
  0
CIRCLE
  8
0
 62
     3
 10
435.761932
 20
94.999992
 40
3.730385
  0
CIRCLE
  8
0
 62
     3
 10
482.761932
 20
94.999992
 40
3.730385
  0
ARC
  8
0
 10
433.761932
 20
126.999992
 40
4.000008
 50
90.000000
 51
180.000000
  0
ARC
  8
0
  6
PHANTOM
 62
     3
 10
495.061584
 20
103.583290
 40
0.666699
 50
28.735418
 51
90.000000
  0
ARC
  8
0
  6
PHANTOM
 62
     3
 10
495.061584
 20
99.416695
 40
0.666702
 50
270.000000
 51
331.264587
  0
ARC
  8
0
 10
484.761932
 20
126.999992
 40
4.000000
 50
0.000000
 51
90.000000
  0
ARC
  8
0
 10
484.761932
 20
92.999992
 40
4.000000
 50
270.000000
 51
0.000000
  0
ARC
  8
0
 10
433.761932
 20
92.999992
 40
4.000000
 50
180.000000
 51
270.000000
  0
ARC
  8
0
  6
PHANTOM
 62
     3
 10
491.261932
 20
101.499992
 40
4.999999
 50
331.264618
 51
28.735369
  0
ARC
  8
0
  6
PHANTOM
 62
     3
 10
427.261932
 20
101.499992
 40
4.999999
 50
151.264633
 51
208.735367
  0
ARC
  8
0
  6
PHANTOM
 62
     3
 10
423.462250
 20
103.583290
 40
0.666702
 50
90.000000
 51
151.264587
  0
ARC
  8
0
  6
PHANTOM
 62
     3
 10
423.462250
 20
99.416695
 40
0.666699
 50
208.735413
 51
270.000000
  0
ARC
  8
0
  6
PHANTOM
 10
459.261932
 20
78.999992
 40
1.500000
 50
0.000000
 51
180.000000
  0
ARC
  8
0
 10
459.261932
 20
140.999939
 40
1.500000
 50
180.000000
 51
0.000000
  0
CIRCLE
  8
0
 10
449.261932
 20
118.999992
 40
4.863999
  0
CIRCLE
  8
0
 10
469.261932
 20
100.999992
 40
4.863999
  0
CIRCLE
  8
0
 10
469.261932
 20
100.999992
 40
4.283000
  0
CIRCLE
  8
0
 10
449.261932
 20
118.999992
 40
4.283000
  0
CIRCLE
  8
0
 62
     3
 10
435.761932
 20
124.999992
 40
4.250000
  0
CIRCLE
  8
0
 62
     3
 10
435.761932
 20
124.999992
 40
3.730385
  0
CIRCLE
  8
0
 62
     3
 10
482.761932
 20
124.999992
 40
4.250000
  0
CIRCLE
  8
0
 62
     3
 10
482.761932
 20
124.999992
 40
3.730385
  0
TEXT
  8
0
 10
422.460297
 20
345.487762
 40
6.000000
  1
DATE : MAR ,1992
 50
0.000000
 41
1.052631
 51
0.000000
  7
STANDARD
  0
TEXT
  8
0
 10
40.750000
 20
289.475342
 40
7.000000
  1
MODEL : RAPS20-360
 50
0.000000
 41
1.052632
 51
0.000000
  7
STANDARD
  0
TEXT
  8
0
 10
2.364407
 20
344.587708
 40
7.000000
  1
ROTARY ACUTUATOR
 50
0.000000
 41
0.956938
 51
0.000000
  7
STANDARD
  0
TEXT
  8
0
 10
398.771973
 20
238.802856
 40
5.000000
  1
〃
 50
90.000000
 41
0.833333
 51
0.000000
  7
STANDARD
  0
TEXT
  8
0
 10
398.771973
 20
268.562836
 40
5.000000
  1
〃
 50
90.000000
 41
0.833333
 51
0.000000
  7
STANDARD
  0
TEXT
  8
0
 10
408.747253
 20
253.682663
 40
5.000000
  1
D
 50
90.000000
 41
1.052632
 51
0.000000
  7
STANDARD
  0
TEXT
  8
0
 10
427.811859
 20
4.812350
 40
7.000000
  1
KOGANEI,CORP
 50
0.000000
 41
1.052632
 51
0.000000
  7
STANDARD
  0
TEXT
  8
0
 10
393.730286
 20
290.898529
 40
3.200000
  1
            
 50
277.500000
 41
1.052632
 51
0.000000
  7
STANDARD
  0
ARC
  8
0
 10
282.247498
 20
256.646942
 40
113.999756
 50
0.000000
 51
15.000003
  0
LINE
  8
0
 10
396.247253
 20
256.646942
 11
395.432770
 21
259.534180
  0
LINE
  8
0
 10
396.247253
 20
256.646942
 11
396.985504
 21
259.554596
  0
LINE
  8
0
 10
392.362793
 20
286.152252
 11
393.828430
 21
283.534760
  0
LINE
  8
0
 10
392.362793
 20
286.152252
 11
392.323334
 21
283.152588
  0
LINE
  8
0
 10
384.247223
 20
256.646942
 11
398.533264
 21
256.646942
  0
LINE
  8
0
 10
411.247284
 20
291.212402
 11
390.154724
 21
285.560669
  0
LINE
  8
0
 10
446.829987
 20
123.212410
 11
430.786804
 21
151.000061
  0
LINE
  8
0
 10
430.786804
 20
151.000061
 11
393.915985
 21
151.000061
  0
LINE
  8
0
 10
446.829987
 20
123.212410
 11
446.053528
 21
126.110191
  0
LINE
  8
0
 10
446.829987
 20
123.212410
 11
444.708679
 21
125.333733
  0
TEXT
  8
0
 10
394.165985
 20
152.000061
 40
5.000000
  1
2-Rc1/8
 50
0.000000
 41
1.052632
 51
0.000000
  7
STANDARD
  0
TEXT
  8
0
 10
410.247253
 20
241.182663
 40
5.000000
  1
　　　
 50
90.000000
 41
0.833333
 51
0.000000
  7
STANDARD
  0
ARC
  8
0
 10
282.247253
 20
256.646912
 40
129.000000
 50
345.000000
 51
14.999990
  0
LINE
  8
0
 10
406.851685
 20
223.259262
 11
406.816803
 21
226.259018
  0
LINE
  8
0
 10
406.851685
 20
223.259262
 11
408.321350
 21
225.874573
  0
LINE
  8
0
 10
406.851685
 20
290.034546
 11
408.321350
 21
287.419250
  0
LINE
  8
0
 10
406.851685
 20
290.034546
 11
406.816803
 21
287.034790
  0
LINE
  8
0
 10
356.912018
 20
236.640518
 11
409.059723
 21
222.667557
  0
LINE
  8
0
 10
355.686798
 20
276.324860
 11
409.059784
 21
290.626160
  0
TEXT
  8
0
 10
393.000427
 20
232.174210
 40
3.200000
  1
　　　
 50
82.500000
 41
0.833333
 51
0.000000
  7
STANDARD
  0
ARC
  8
0
 10
282.247009
 20
256.646942
 40
114.000244
 50
345.000000
 51
0.000000
  0
LINE
  8
0
 10
392.362793
 20
227.141510
 11
392.323334
 21
230.141190
  0
LINE
  8
0
 10
392.362793
 20
227.141510
 11
393.828461
 21
229.759048
  0
LINE
  8
0
 10
396.247253
 20
256.646942
 11
396.985504
 21
253.739288
  0
LINE
  8
0
 10
396.247253
 20
256.646942
 11
395.432770
 21
253.759720
  0
LINE
  8
0
 10
411.247253
 20
222.081451
 11
390.154694
 21
227.733200
  0
LINE
  8
0
 10
384.247223
 20
256.646942
 11
398.533264
 21
256.646942
  0
ENDSEC
  0
EOF
