  0
SECTION
  2
HEADER
  0
ENDSEC
  0
SECTION
  2
TABLES
  0
TABLE
  2
LTYPE
 70
     4
  0
LTYPE
  2
CONTINUOUS
 70
    64
  3
Solid line
 72
    65
 73
     0
 40
0.000000
  0
LTYPE
  2
DASHED
 70
    64
  3
__ __ __ __ __ __ __ __ __ __ __ __ __ __ __
 72
    65
 73
     2
 40
3.500000
 49
2.000000
 49
-1.500000
  0
LTYPE
  2
CENTER
 70
    64
  3
____ _ ____ _ ____ _ ____ _ ____ _ ____ _ ____
 72
    65
 73
     4
 40
17.500000
 49
13.000000
 49
-1.500000
 49
1.500000
 49
-1.500000
  0
LTYPE
  2
PHANTOM
 70
    64
  3
_____ _ _ _____ _ _ _____ _ _ _____ _ _ ____  
 72
    65
 73
     6
 40
15.500000
 49
8.000000
 49
-1.500000
 49
1.500000
 49
-1.500000
 49
1.500000
 49
-1.500000
  0
LTYPE
  2
DASHED1
 70
    64
  3
__ __ __ __ __ __ __ __ __ __ __ __ __ __ __
 72
    65
 73
     2
 40
1.500000
 49
1.000000
 49
-0.500000
  0
LTYPE
  2
DASHED2
 70
    64
  3
__ __ __ __ __ __ __ __ __ __ __ __ __ __ __
 72
    65
 73
     2
 40
3.500000
 49
2.500000
 49
-1.000000
  0
LTYPE
  2
DASHED3
 70
    64
  3
__ __ __ __ __ __ __ __ __ __ __ __ __ __ __
 72
    65
 73
     2
 40
6.000000
 49
4.000000
 49
-2.000000
  0
LTYPE
  2
DASHED4
 70
    64
  3
__ __ __ __ __ __ __ __ __ __ __ __ __ __ __
 72
    65
 73
     2
 40
12.000000
 49
10.000000
 49
-2.000000
  0
LTYPE
  2
DASHED5
 70
    64
  3
__ __ __ __ __ __ __ __ __ __ __ __ __ __ __
 72
    65
 73
     2
 40
17.000000
 49
15.000000
 49
-2.000000
  0
LTYPE
  2
DASHED6
 70
    64
  3
__ __ __ __ __ __ __ __ __ __ __ __ __ __ __
 72
    65
 73
     2
 40
29.000000
 49
27.000000
 49
-2.000000
  0
LTYPE
  2
PHANTOM1
 70
    64
  3
_____ _ _ _____ _ _ _____ _ _ _____ _ _ ____  
 72
    65
 73
     6
 40
31.000000
 49
25.000000
 49
-1.500000
 49
1.000000
 49
-1.000000
 49
1.000000
 49
-1.500000
  0
LTYPE
  2
PHANTOM2
 70
    64
  3
_____ _ _ _____ _ _ _____ _ _ _____ _ _ ____  
 72
    65
 73
     6
 40
36.000000
 49
27.000000
 49
-1.500000
 49
2.500000
 49
-1.000000
 49
2.500000
 49
-1.500000
  0
LTYPE
  2
PHANTOM3
 70
    64
  3
_____ _ _ _____ _ _ _____ _ _ _____ _ _ ____  
 72
    65
 73
     6
 40
78.000000
 49
64.000000
 49
-2.000000
 49
4.000000
 49
-2.000000
 49
4.000000
 49
-2.000000
  0
LTYPE
  2
CENTER1
 70
    64
  3
____ _ ____ _ ____ _ ____ _ ____ _ ____ _ ____
 72
    65
 73
     4
 40
19.000000
 49
14.000000
 49
-1.000000
 49
3.000000
 49
-1.000000
  0
LTYPE
  2
CENTER2
 70
    64
  3
____ _ ____ _ ____ _ ____ _ ____ _ ____ _ ____
 72
    65
 73
     4
 40
28.500000
 49
25.000000
 49
-1.000000
 49
1.500000
 49
-1.000000
  0
LTYPE
  2
CENTER3
 70
    64
  3
____ _ ____ _ ____ _ ____ _ ____ _ ____ _ ____
 72
    65
 73
     4
 40
31.500000
 49
27.000000
 49
-1.000000
 49
2.500000
 49
-1.000000
  0
LTYPE
  2
CENTER4
 70
    64
  3
____ _ ____ _ ____ _ ____ _ ____ _ ____ _ ____
 72
    65
 73
     4
 40
50.000000
 49
45.000000
 49
-1.000000
 49
3.000000
 49
-1.000000
  0
LTYPE
  2
CENTER5
 70
    64
  3
____ _ ____ _ ____ _ ____ _ ____ _ ____ _ ____
 72
    65
 73
     4
 40
100.000000
 49
92.000000
 49
-2.000000
 49
4.000000
 49
-2.000000
  0
LTYPE
  2
SBK1
 70
    64
  3
______ _ _ _ ______ _ _ _ ______ _ _ _ _____  
 72
    65
 73
     8
 40
60.500000
 49
45.000000
 49
-2.000000
 49
2.500000
 49
-2.000000
 49
2.500000
 49
-2.000000
 49
2.500000
 49
-2.000000
  0
LTYPE
  2
SBK2
 70
    64
  3
______ _ _ _ ______ _ _ _ ______ _ _ _ _____  
 72
    65
 73
     8
 40
84.000000
 49
64.000000
 49
-2.000000
 49
4.000000
 49
-2.000000
 49
4.000000
 49
-2.000000
 49
4.000000
 49
-2.000000
  0
LTYPE
  2
STCH
 70
    64
  3
__ __ __ __ __ __ __ __ __ __ __ __ __ __ __
 72
    65
 73
     2
 40
3.000000
 49
1.000000
 49
-2.000000
  0
LTYPE
  2
MTCH
 70
    64
  3
_____ _ _ _____ _ _ _____ _ _ _____ _ _ ____  
 72
    65
 73
     6
 40
80.000000
 49
66.000000
 49
-2.000000
 49
4.000000
 49
-2.000000
 49
4.000000
 49
-2.000000
  0
ENDTAB
  0
TABLE
  2
LAYER
 70
     1
  0
LAYER
  2
0
 70
     0
 62
     7
  6
CONTINUOUS
  0
ENDTAB
  0
TABLE
  2
STYLE
 70
     1
  0
STYLE
  2
STANDARD
 70
     0
 40
0.000000
 41
1.000000
 50
0.000000
 71
     0
 42
0.200000
  3
txt
  4
BIGFONT
  0
ENDTAB
  0
TABLE
  2
VIEW
 70
     0
  0
ENDTAB
  0
ENDSEC
  0
SECTION
  2
BLOCKS
  0
ENDSEC
  0
SECTION
  2
ENTITIES
  0
POINT
  8
0
 10
257.247223
 20
110.000046
  0
POINT
  8
0
 10
257.247223
 20
110.000046
  0
POINT
  8
0
 10
325.247223
 20
110.000046
  0
POINT
  8
0
 10
257.247223
 20
256.646912
  0
POINT
  8
0
 10
325.247223
 20
256.646912
  0
POINT
  8
0
 10
97.077225
 20
110.000053
  0
POINT
  8
0
 10
126.577225
 20
110.000053
  0
POINT
  8
0
 10
429.261902
 20
110.000038
  0
POINT
  8
0
 10
458.761902
 20
110.000038
  0
LINE
  8
0
 62
     3
 10
0.000000
 20
0.000000
 11
0.000000
 21
360.000092
  0
LINE
  8
0
 62
     3
 10
524.494446
 20
360.000092
 11
524.494446
 21
0.000000
  0
LINE
  8
0
 62
     3
 10
0.000000
 20
0.000000
 11
524.494446
 21
0.000000
  0
LINE
  8
0
 62
     3
 10
0.000000
 20
360.000092
 11
524.494446
 21
360.000092
  0
LINE
  8
0
 62
     3
 10
0.000000
 20
339.775330
 11
107.865173
 21
339.775330
  0
LINE
  8
0
 62
     3
 10
107.865173
 20
339.775330
 11
107.865173
 21
360.000092
  0
LINE
  8
0
 62
     3
 10
416.629272
 20
20.224701
 11
524.494446
 21
20.224701
  0
LINE
  8
0
 62
     3
 10
416.629272
 20
339.775330
 11
524.494446
 21
339.775330
  0
LINE
  8
0
 62
     3
 10
416.629272
 20
360.000092
 11
416.629272
 21
339.775330
  0
LINE
  8
0
 62
     3
 10
416.629272
 20
20.224701
 11
416.629272
 21
0.000000
  0
LINE
  8
0
 10
257.247223
 20
256.646881
 11
355.247192
 21
282.905884
  0
LINE
  8
0
 10
257.247253
 20
256.646851
 11
355.247223
 21
230.387833
  0
LINE
  8
0
 10
212.247238
 20
131.000046
 11
325.247253
 21
131.000046
  0
LINE
  8
0
 10
212.247238
 20
89.000046
 11
325.247253
 21
89.000046
  0
LINE
  8
0
 10
314.247223
 20
131.000061
 11
314.247223
 21
111.500046
  0
LINE
  8
0
 10
216.247238
 20
131.000046
 11
216.247238
 21
89.000046
  0
LINE
  8
0
  6
CENTER
 10
209.247238
 20
110.000046
 11
333.997253
 21
110.000046
  0
LINE
  8
0
  6
CENTER
 10
257.247223
 20
164.000000
 11
257.247223
 21
56.000061
  0
LINE
  8
0
  6
CENTER
 10
274.688995
 20
101.500046
 11
284.397247
 21
101.500046
  0
LINE
  8
0
  6
CENTER
 10
279.647247
 20
113.800049
 11
279.647247
 21
87.500061
  0
LINE
  8
0
 10
325.247223
 20
131.000061
 11
325.247223
 21
111.500046
  0
LINE
  8
0
 10
212.247238
 20
131.000046
 11
212.247238
 21
89.000046
  0
LINE
  8
0
  6
PHANTOM
 10
275.897247
 20
112.800049
 11
283.397247
 21
112.800049
  0
LINE
  8
0
  6
PHANTOM
 10
283.397247
 20
112.800049
 11
283.397247
 21
89.500061
  0
LINE
  8
0
  6
PHANTOM
 10
275.897247
 20
112.800049
 11
275.897247
 21
89.500061
  0
LINE
  8
0
  6
PHANTOM
 10
282.647247
 20
112.000046
 11
282.647247
 21
99.300079
  0
LINE
  8
0
  6
PHANTOM
 10
276.647247
 20
112.000046
 11
276.647247
 21
99.300079
  0
LINE
  8
0
  6
PHANTOM
 10
276.647247
 20
112.000046
 11
282.647247
 21
112.000046
  0
LINE
  8
0
  6
PHANTOM
 10
276.647247
 20
99.300079
 11
277.997253
 21
99.300079
  0
LINE
  8
0
  6
PHANTOM
 10
278.147247
 20
98.800079
 11
279.125214
 21
98.800079
  0
LINE
  8
0
  6
PHANTOM
 10
278.147247
 20
99.195190
 11
278.147247
 21
98.800079
  0
LINE
  8
0
  6
PHANTOM
 10
281.147247
 20
99.195190
 11
281.147247
 21
98.800079
  0
LINE
  8
0
  6
PHANTOM
 10
281.297241
 20
99.300079
 11
282.647247
 21
99.300079
  0
LINE
  8
0
  6
PHANTOM
 10
280.169250
 20
98.800079
 11
281.147247
 21
98.800079
  0
LINE
  8
0
  6
PHANTOM
 10
272.397247
 20
108.000046
 11
275.897247
 21
108.000046
  0
LINE
  8
0
  6
PHANTOM
 10
283.397247
 20
108.000046
 11
292.897247
 21
108.000046
  0
LINE
  8
0
  6
PHANTOM
 10
272.397247
 20
112.000046
 11
275.897247
 21
112.000046
  0
LINE
  8
0
  6
PHANTOM
 10
272.397247
 20
112.000046
 11
272.397247
 21
108.000046
  0
LINE
  8
0
  6
PHANTOM
 10
270.897217
 20
111.133995
 11
272.397217
 21
112.000023
  0
LINE
  8
0
  6
PHANTOM
 10
270.897247
 20
111.134033
 11
270.897247
 21
108.866074
  0
LINE
  8
0
  6
PHANTOM
 10
270.897186
 20
108.866074
 11
272.397217
 21
108.000046
  0
LINE
  8
0
  6
PHANTOM
 10
283.397247
 20
112.000046
 11
292.897247
 21
112.000046
  0
LINE
  8
0
  6
PHANTOM
 10
292.897247
 20
112.000046
 11
292.897247
 21
108.000046
  0
LINE
  8
0
  6
PHANTOM
 10
292.897278
 20
112.000023
 11
294.897247
 21
111.500023
  0
LINE
  8
0
  6
PHANTOM
 10
294.997253
 20
111.500046
 11
294.997253
 21
108.500046
  0
LINE
  8
0
  6
PHANTOM
 10
292.897278
 20
107.999954
 11
294.897278
 21
108.499954
  0
LINE
  8
0
  6
PHANTOM
 10
294.997253
 20
108.500046
 11
330.397247
 21
108.500046
  0
LINE
  8
0
  6
PHANTOM
 10
294.997253
 20
111.500046
 11
330.397247
 21
111.500046
  0
LINE
  8
0
  6
CENTER
 10
277.147247
 20
118.500046
 11
282.147247
 21
118.500046
  0
LINE
  8
0
  6
CENTER
 10
279.647247
 20
121.000046
 11
279.647247
 21
116.000046
  0
LINE
  8
0
  6
PHANTOM
 10
275.897247
 20
96.368744
 11
283.397247
 21
96.368744
  0
LINE
  8
0
  6
PHANTOM
 10
275.897247
 20
89.500061
 11
283.397247
 21
89.500061
  0
LINE
  8
0
  6
PHANTOM
 10
252.247238
 20
59.500134
 11
252.747238
 21
59.000137
  0
LINE
  8
0
 10
252.247238
 20
160.499969
 11
252.747253
 21
160.999969
  0
LINE
  8
0
 10
252.247223
 20
160.500046
 11
262.247253
 21
160.500046
  0
LINE
  8
0
 10
252.247223
 20
160.500046
 11
252.247223
 21
133.000046
  0
LINE
  8
0
 10
262.247223
 20
160.500061
 11
261.747253
 21
161.000061
  0
LINE
  8
0
 10
262.247223
 20
160.500046
 11
262.247223
 21
133.000046
  0
LINE
  8
0
 10
247.247238
 20
133.000046
 11
267.247253
 21
133.000046
  0
LINE
  8
0
 10
267.247253
 20
133.000061
 11
267.247253
 21
131.000046
  0
LINE
  8
0
 10
265.247253
 20
87.000046
 11
265.247253
 21
89.000046
  0
LINE
  8
0
 10
249.247238
 20
87.000046
 11
265.247253
 21
87.000046
  0
LINE
  8
0
 10
249.247238
 20
87.000046
 11
249.247238
 21
89.000046
  0
LINE
  8
0
  6
PHANTOM
 10
252.247238
 20
59.500046
 11
252.247238
 21
87.000046
  0
LINE
  8
0
  6
PHANTOM
 10
262.247253
 20
59.500031
 11
262.247253
 21
87.000046
  0
LINE
  8
0
  6
PHANTOM
 10
252.247238
 20
59.500031
 11
262.247223
 21
59.500031
  0
LINE
  8
0
  6
PHANTOM
 10
262.247223
 20
59.500053
 11
261.747223
 21
59.000061
  0
LINE
  8
0
  6
PHANTOM
 10
252.747223
 20
59.000061
 11
263.447235
 21
59.000061
  0
LINE
  8
0
 10
247.247238
 20
133.000046
 11
247.247238
 21
131.000046
  0
LINE
  8
0
 10
252.747192
 20
161.000000
 11
263.447235
 21
161.000000
  0
LINE
  8
0
 10
252.747238
 20
86.500046
 11
261.747253
 21
86.500046
  0
LINE
  8
0
 10
252.247253
 20
87.000061
 11
252.747269
 21
86.500061
  0
LINE
  8
0
 10
262.247192
 20
87.000069
 11
261.747192
 21
86.500069
  0
LINE
  8
0
 10
263.447235
 20
161.000000
 11
263.447235
 21
141.000000
  0
LINE
  8
0
 10
262.247253
 20
141.000000
 11
263.447235
 21
141.000000
  0
LINE
  8
0
  6
PHANTOM
 10
263.447235
 20
59.000046
 11
263.447235
 21
79.000046
  0
LINE
  8
0
  6
PHANTOM
 10
262.247223
 20
79.000046
 11
263.447235
 21
79.000046
  0
LINE
  8
0
 10
314.247223
 20
108.500046
 11
314.247223
 21
89.000046
  0
LINE
  8
0
 10
325.247223
 20
108.500046
 11
325.247223
 21
89.000046
  0
LINE
  8
0
  6
PHANTOM
 10
278.586609
 20
100.439400
 11
280.707916
 21
102.560699
  0
LINE
  8
0
  6
PHANTOM
 10
278.586578
 20
102.560730
 11
280.707916
 21
100.439377
  0
LINE
  8
0
 10
212.247238
 20
227.146927
 11
325.247223
 21
227.146927
  0
LINE
  8
0
 10
212.247238
 20
286.146942
 11
325.247223
 21
286.146942
  0
LINE
  8
0
 10
325.247223
 20
286.146912
 11
325.247223
 21
227.146927
  0
LINE
  8
0
 10
212.247238
 20
286.146912
 11
212.247238
 21
227.146927
  0
LINE
  8
0
  6
CENTER
 10
209.247238
 20
256.646912
 11
328.247223
 21
256.646912
  0
LINE
  8
0
  6
CENTER
 10
257.247223
 20
289.146912
 11
257.247223
 21
224.146927
  0
LINE
  8
0
  6
PHANTOM
 10
270.897217
 20
289.280884
 11
270.897217
 21
287.012939
  0
LINE
  8
0
  6
PHANTOM
 10
272.397217
 20
290.146912
 11
272.397217
 21
286.146912
  0
LINE
  8
0
  6
PHANTOM
 10
272.397217
 20
290.146942
 11
275.897217
 21
290.146942
  0
LINE
  8
0
  6
PHANTOM
 10
283.397217
 20
290.146942
 11
292.897217
 21
290.146942
  0
LINE
  8
0
  6
PHANTOM
 10
270.897278
 20
289.280945
 11
272.397278
 21
290.146973
  0
LINE
  8
0
  6
PHANTOM
 10
270.897247
 20
287.013062
 11
272.397278
 21
286.147034
  0
LINE
  8
0
  6
PHANTOM
 10
292.897217
 20
290.146912
 11
292.897217
 21
286.146912
  0
LINE
  8
0
  6
PHANTOM
 10
294.897217
 20
286.646942
 11
328.997223
 21
286.646942
  0
LINE
  8
0
  6
PHANTOM
 10
294.897217
 20
289.646942
 11
328.997223
 21
289.646942
  0
LINE
  8
0
  6
PHANTOM
 10
294.897217
 20
289.646912
 11
294.897217
 21
286.646912
  0
LINE
  8
0
  6
PHANTOM
 10
292.897308
 20
290.147186
 11
294.897308
 21
289.647186
  0
LINE
  8
0
  6
PHANTOM
 10
292.897217
 20
286.147125
 11
294.897217
 21
286.647125
  0
LINE
  8
0
  6
CENTER
 10
331.997253
 20
288.146942
 11
291.897217
 21
288.146942
  0
LINE
  8
0
  6
CENTER
 10
279.647217
 20
295.646912
 11
279.647217
 21
284.146942
  0
LINE
  8
0
  6
PHANTOM
 10
283.397217
 20
291.646912
 11
283.397217
 21
286.646912
  0
LINE
  8
0
  6
PHANTOM
 10
275.897217
 20
291.646912
 11
275.897217
 21
286.646912
  0
LINE
  8
0
  6
PHANTOM
 10
275.897217
 20
286.646942
 11
283.397217
 21
286.646942
  0
LINE
  8
0
  6
PHANTOM
 10
275.897217
 20
291.646942
 11
283.397217
 21
291.646942
  0
LINE
  8
0
  6
PHANTOM
 62
     3
 10
282.397217
 20
292.446594
 11
282.397217
 21
291.646912
  0
LINE
  8
0
  6
PHANTOM
 62
     3
 10
276.897217
 20
292.446594
 11
276.897217
 21
291.646912
  0
LINE
  8
0
  6
PHANTOM
 10
270.897217
 20
224.012955
 11
270.897217
 21
226.280899
  0
LINE
  8
0
  6
PHANTOM
 10
272.397217
 20
223.146927
 11
272.397217
 21
227.146927
  0
LINE
  8
0
  6
PHANTOM
 10
272.397217
 20
223.146927
 11
275.897217
 21
223.146927
  0
LINE
  8
0
  6
PHANTOM
 10
283.397217
 20
223.146927
 11
292.897217
 21
223.146927
  0
LINE
  8
0
  6
PHANTOM
 10
270.897339
 20
224.013107
 11
272.397339
 21
223.147095
  0
LINE
  8
0
  6
PHANTOM
 10
270.897308
 20
226.280869
 11
272.397278
 21
227.146881
  0
LINE
  8
0
  6
PHANTOM
 10
292.897217
 20
223.146927
 11
292.897217
 21
227.146927
  0
LINE
  8
0
  6
PHANTOM
 10
294.897217
 20
226.646927
 11
328.997223
 21
226.646927
  0
LINE
  8
0
  6
PHANTOM
 10
294.897217
 20
223.646927
 11
328.997223
 21
223.646927
  0
LINE
  8
0
  6
PHANTOM
 10
294.897217
 20
223.646927
 11
294.897217
 21
226.646927
  0
LINE
  8
0
  6
PHANTOM
 10
292.897217
 20
223.146942
 11
294.897217
 21
223.646942
  0
LINE
  8
0
  6
PHANTOM
 10
292.897247
 20
227.146957
 11
294.897247
 21
226.646957
  0
LINE
  8
0
  6
CENTER
 10
331.997253
 20
225.146927
 11
291.897217
 21
225.146927
  0
LINE
  8
0
  6
CENTER
 10
279.647217
 20
217.646927
 11
279.647217
 21
229.146927
  0
LINE
  8
0
  6
PHANTOM
 10
283.397217
 20
221.646927
 11
283.397217
 21
226.646927
  0
LINE
  8
0
  6
PHANTOM
 10
275.897217
 20
221.646927
 11
275.897217
 21
226.646927
  0
LINE
  8
0
  6
PHANTOM
 10
275.897217
 20
226.646927
 11
283.397217
 21
226.646927
  0
LINE
  8
0
  6
PHANTOM
 10
275.897217
 20
221.646927
 11
283.397217
 21
221.646927
  0
LINE
  8
0
  6
PHANTOM
 62
     3
 10
282.397217
 20
220.847275
 11
282.397217
 21
221.646927
  0
LINE
  8
0
  6
PHANTOM
 62
     3
 10
276.897217
 20
220.847275
 11
276.897217
 21
221.646927
  0
LINE
  8
0
 10
314.247192
 20
286.146912
 11
314.247192
 21
227.146896
  0
LINE
  8
0
  6
CENTER
 10
254.247238
 20
280.646912
 11
260.747223
 21
280.646912
  0
LINE
  8
0
  6
CENTER
 10
233.247253
 20
260.146912
 11
233.247253
 21
253.646927
  0
LINE
  8
0
  6
CENTER
 10
281.247253
 20
260.146912
 11
281.247253
 21
253.646927
  0
LINE
  8
0
 10
216.247238
 20
286.146912
 11
216.247238
 21
227.146927
  0
LINE
  8
0
  6
CENTER
 10
254.247238
 20
232.646927
 11
260.747223
 21
232.646927
  0
LINE
  8
0
  6
CENTER
 10
242.247253
 20
260.646912
 11
242.247253
 21
252.646927
  0
LINE
  8
0
  6
CENTER
 10
272.247223
 20
260.646912
 11
272.247223
 21
252.646927
  0
LINE
  8
0
  6
CENTER
 10
253.247238
 20
241.646927
 11
261.247223
 21
241.646927
  0
LINE
  8
0
  6
CENTER
 10
253.247238
 20
271.646912
 11
261.247223
 21
271.646912
  0
LINE
  8
0
 10
260.447235
 20
258.146912
 11
263.447235
 21
258.146912
  0
LINE
  8
0
 10
260.447235
 20
258.146912
 11
260.447235
 21
255.146927
  0
LINE
  8
0
 10
263.447235
 20
258.146912
 11
263.447235
 21
255.146927
  0
LINE
  8
0
 10
260.447235
 20
255.146927
 11
263.447235
 21
255.146927
  0
LINE
  8
0
 10
243.413956
 20
257.813690
 11
241.080536
 21
255.480255
  0
LINE
  8
0
 10
241.080551
 20
257.813690
 11
243.414017
 21
255.480209
  0
LINE
  8
0
 10
256.080536
 20
242.813690
 11
258.413971
 21
240.480255
  0
LINE
  8
0
 10
256.080536
 20
240.480225
 11
258.414001
 21
242.813690
  0
LINE
  8
0
 10
271.080536
 20
255.480255
 11
273.413940
 21
257.813660
  0
LINE
  8
0
 10
273.414001
 20
255.480225
 11
271.080536
 21
257.813690
  0
LINE
  8
0
 10
258.413971
 20
270.480194
 11
256.080536
 21
272.813629
  0
LINE
  8
0
 10
258.413971
 20
272.813660
 11
256.080505
 21
270.480194
  0
LINE
  8
0
 10
71.577240
 20
89.000053
 11
122.577225
 21
89.000053
  0
LINE
  8
0
 10
71.577240
 20
131.000061
 11
122.577225
 21
131.000061
  0
LINE
  8
0
 10
67.577225
 20
127.000053
 11
67.577225
 21
93.000053
  0
LINE
  8
0
 10
126.577225
 20
127.000053
 11
126.577225
 21
93.000053
  0
LINE
  8
0
  6
CENTER
 10
59.077225
 20
110.000053
 11
135.077225
 21
110.000053
  0
LINE
  8
0
  6
CENTER
 10
97.077225
 20
164.000000
 11
97.077225
 21
56.000053
  0
LINE
  8
0
  6
PHANTOM
 10
63.577225
 20
112.000053
 11
63.577225
 21
108.000053
  0
LINE
  8
0
  6
PHANTOM
 10
64.443207
 20
108.866081
 11
66.711212
 21
108.866081
  0
LINE
  8
0
  6
PHANTOM
 10
63.577209
 20
108.000053
 11
67.577209
 21
108.000053
  0
LINE
  8
0
  6
PHANTOM
 10
63.577209
 20
112.000053
 11
67.577209
 21
112.000053
  0
LINE
  8
0
  6
PHANTOM
 10
64.443207
 20
111.134026
 11
66.711212
 21
111.134026
  0
LINE
  8
0
  6
PHANTOM
 10
64.443192
 20
111.134026
 11
64.443192
 21
108.866081
  0
LINE
  8
0
  6
PHANTOM
 10
66.711197
 20
111.134026
 11
66.711197
 21
108.866081
  0
LINE
  8
0
  6
PHANTOM
 10
63.577492
 20
112.000359
 11
64.443481
 21
111.134338
  0
LINE
  8
0
  6
PHANTOM
 10
64.443260
 20
108.866005
 11
63.577271
 21
107.999985
  0
LINE
  8
0
  6
PHANTOM
 10
66.711212
 20
108.866158
 11
67.577217
 21
108.000130
  0
LINE
  8
0
  6
PHANTOM
 10
66.711418
 20
111.133842
 11
67.577408
 21
111.999863
  0
LINE
  8
0
  6
PHANTOM
 10
62.077225
 20
112.800056
 11
67.077225
 21
112.800056
  0
LINE
  8
0
  6
PHANTOM
 10
67.077225
 20
112.800056
 11
67.077225
 21
112.000053
  0
LINE
  8
0
  6
PHANTOM
 10
67.077225
 20
108.000053
 11
67.077225
 21
101.500053
  0
LINE
  8
0
  6
PHANTOM
 10
62.077225
 20
112.800056
 11
62.077225
 21
96.368767
  0
LINE
  8
0
  6
PHANTOM
 62
     3
 10
61.277573
 20
104.250053
 11
62.077225
 21
104.250053
  0
LINE
  8
0
  6
PHANTOM
 62
     3
 10
61.277573
 20
98.750053
 11
62.077225
 21
98.750053
  0
LINE
  8
0
  6
PHANTOM
 62
     1
 10
67.077225
 20
102.750053
 11
67.577225
 21
102.750053
  0
LINE
  8
0
  6
PHANTOM
 62
     1
 10
67.077225
 20
102.479561
 11
67.577225
 21
102.479561
  0
LINE
  8
0
  6
PHANTOM
 10
64.577240
 20
89.500053
 11
68.577225
 21
89.500053
  0
LINE
  8
0
  6
PHANTOM
 10
68.577225
 20
90.354332
 11
68.577225
 21
89.500069
  0
LINE
  8
0
  6
PHANTOM
 10
130.577240
 20
112.000053
 11
130.577240
 21
108.000053
  0
LINE
  8
0
  6
PHANTOM
 10
129.711243
 20
108.866081
 11
127.443237
 21
108.866081
  0
LINE
  8
0
  6
PHANTOM
 10
130.577240
 20
108.000053
 11
126.577240
 21
108.000053
  0
LINE
  8
0
  6
PHANTOM
 10
130.577240
 20
112.000053
 11
126.577240
 21
112.000053
  0
LINE
  8
0
  6
PHANTOM
 10
129.711243
 20
111.134026
 11
127.443237
 21
111.134026
  0
LINE
  8
0
  6
PHANTOM
 10
129.711243
 20
111.134026
 11
129.711243
 21
108.866081
  0
LINE
  8
0
  6
PHANTOM
 10
127.443237
 20
111.134026
 11
127.443237
 21
108.866081
  0
LINE
  8
0
  6
PHANTOM
 10
130.577148
 20
112.000175
 11
129.711151
 21
111.134148
  0
LINE
  8
0
  6
PHANTOM
 10
129.711166
 20
108.865982
 11
130.577148
 21
107.999969
  0
LINE
  8
0
  6
PHANTOM
 10
127.443214
 20
108.866135
 11
126.577209
 21
108.000107
  0
LINE
  8
0
  6
PHANTOM
 10
127.443237
 20
111.134048
 11
126.577232
 21
112.000084
  0
LINE
  8
0
  6
PHANTOM
 10
132.077225
 20
112.800056
 11
127.077225
 21
112.800056
  0
LINE
  8
0
  6
PHANTOM
 10
127.077225
 20
112.800056
 11
127.077225
 21
112.000053
  0
LINE
  8
0
  6
PHANTOM
 10
127.077225
 20
108.000053
 11
127.077225
 21
101.500053
  0
LINE
  8
0
  6
PHANTOM
 10
132.077225
 20
112.800056
 11
132.077225
 21
96.368752
  0
LINE
  8
0
  6
CENTER
 10
135.077225
 20
101.500053
 11
125.577225
 21
101.500053
  0
LINE
  8
0
  6
PHANTOM
 62
     3
 10
132.876877
 20
104.250053
 11
132.077225
 21
104.250053
  0
LINE
  8
0
  6
PHANTOM
 62
     3
 10
132.876877
 20
98.750053
 11
132.077225
 21
98.750053
  0
LINE
  8
0
  6
PHANTOM
 62
     1
 10
127.077225
 20
102.750053
 11
126.577225
 21
102.750053
  0
LINE
  8
0
  6
PHANTOM
 62
     1
 10
127.077225
 20
102.479561
 11
126.577225
 21
102.479561
  0
LINE
  8
0
  6
PHANTOM
 10
129.577225
 20
89.500053
 11
125.577225
 21
89.500053
  0
LINE
  8
0
  6
PHANTOM
 10
125.577225
 20
90.354332
 11
125.577225
 21
89.500069
  0
LINE
  8
0
  6
PHANTOM
 10
92.077225
 20
59.500053
 11
102.077225
 21
59.500053
  0
LINE
  8
0
 10
92.077240
 20
160.499969
 11
92.577232
 21
160.999954
  0
LINE
  8
0
 10
92.077225
 20
160.500061
 11
102.077225
 21
160.500061
  0
LINE
  8
0
 10
92.077225
 20
160.500061
 11
92.077225
 21
133.000061
  0
LINE
  8
0
 10
102.077240
 20
160.500092
 11
101.577248
 21
161.000076
  0
LINE
  8
0
 10
102.077225
 20
160.500061
 11
102.077225
 21
133.000061
  0
LINE
  8
0
 10
87.077225
 20
133.000061
 11
107.077225
 21
133.000061
  0
LINE
  8
0
 10
107.077225
 20
133.000061
 11
107.077225
 21
131.000061
  0
LINE
  8
0
 10
87.077225
 20
133.000061
 11
87.077225
 21
131.000061
  0
LINE
  8
0
 10
92.577194
 20
161.000000
 11
101.577271
 21
161.000000
  0
LINE
  8
0
  6
PHANTOM
 10
92.577225
 20
59.000053
 11
101.577225
 21
59.000053
  0
LINE
  8
0
 10
92.577240
 20
86.500053
 11
101.577225
 21
86.500053
  0
LINE
  8
0
 10
102.077240
 20
87.000015
 11
101.577232
 21
86.500008
  0
LINE
  8
0
  6
PHANTOM
 10
102.077202
 20
59.499996
 11
101.577209
 21
59.000008
  0
LINE
  8
0
 10
92.077286
 20
87.000084
 11
92.577293
 21
86.500092
  0
LINE
  8
0
  6
PHANTOM
 10
92.077271
 20
59.500191
 11
92.577271
 21
59.000191
  0
LINE
  8
0
 10
107.077225
 20
87.000053
 11
107.077225
 21
89.000053
  0
LINE
  8
0
 10
87.077225
 20
87.000053
 11
107.077225
 21
87.000053
  0
LINE
  8
0
 10
87.077225
 20
87.000053
 11
87.077225
 21
89.000053
  0
LINE
  8
0
  6
PHANTOM
 10
92.077225
 20
59.500053
 11
92.077225
 21
87.000053
  0
LINE
  8
0
  6
PHANTOM
 10
102.077225
 20
59.500053
 11
102.077225
 21
87.000053
  0
LINE
  8
0
  6
CENTER
 10
59.077225
 20
101.500053
 11
68.577225
 21
101.500053
  0
LINE
  8
0
  6
CENTER
 10
67.577225
 20
125.000053
 11
79.577225
 21
125.000053
  0
LINE
  8
0
  6
CENTER
 10
67.577225
 20
95.000053
 11
79.577225
 21
95.000053
  0
LINE
  8
0
  6
CENTER
 10
114.577225
 20
95.000053
 11
126.577225
 21
95.000053
  0
LINE
  8
0
  6
CENTER
 10
114.577225
 20
125.000053
 11
126.577225
 21
125.000053
  0
LINE
  8
0
  6
CENTER
 10
73.577225
 20
131.000061
 11
73.577225
 21
119.000053
  0
LINE
  8
0
  6
CENTER
 10
73.577225
 20
101.000053
 11
73.577225
 21
89.000053
  0
LINE
  8
0
  6
CENTER
 10
120.577225
 20
101.000053
 11
120.577225
 21
89.000053
  0
LINE
  8
0
  6
CENTER
 10
120.577225
 20
131.000061
 11
120.577225
 21
119.000053
  0
LINE
  8
0
  6
PHANTOM
 10
64.577339
 20
89.500084
 11
62.077324
 21
96.368805
  0
LINE
  8
0
  6
PHANTOM
 10
129.577225
 20
89.500053
 11
132.077225
 21
96.368744
  0
LINE
  8
0
 10
71.668022
 20
93.090904
 11
75.486374
 21
96.909256
  0
LINE
  8
0
 10
71.668037
 20
96.909225
 11
75.486397
 21
93.090858
  0
LINE
  8
0
 10
71.667976
 20
126.909195
 11
75.486336
 21
123.090843
  0
LINE
  8
0
 10
71.668030
 20
123.090881
 11
75.486389
 21
126.909241
  0
LINE
  8
0
 10
122.486450
 20
93.090866
 11
118.668091
 21
96.909218
  0
LINE
  8
0
 10
122.486412
 20
96.909218
 11
118.668053
 21
93.090858
  0
LINE
  8
0
 10
122.486450
 20
126.909210
 11
118.668083
 21
123.090851
  0
LINE
  8
0
 10
122.486420
 20
123.090881
 11
118.668060
 21
126.909248
  0
LINE
  8
0
 10
403.761932
 20
89.000038
 11
454.761902
 21
89.000038
  0
LINE
  8
0
 10
403.761932
 20
131.000031
 11
454.761902
 21
131.000031
  0
LINE
  8
0
 10
399.761902
 20
127.000038
 11
399.761902
 21
93.000038
  0
LINE
  8
0
 10
458.761902
 20
127.000038
 11
458.761902
 21
93.000038
  0
LINE
  8
0
  6
CENTER
 10
391.261902
 20
110.000038
 11
467.261902
 21
110.000038
  0
LINE
  8
0
  6
CENTER
 10
429.261902
 20
164.000000
 11
429.261902
 21
56.000038
  0
LINE
  8
0
  6
PHANTOM
 10
395.761902
 20
112.000038
 11
395.761902
 21
108.000038
  0
LINE
  8
0
  6
PHANTOM
 10
396.627899
 20
108.866066
 11
398.895905
 21
108.866066
  0
LINE
  8
0
  6
PHANTOM
 10
395.761902
 20
108.000038
 11
399.761902
 21
108.000038
  0
LINE
  8
0
  6
PHANTOM
 10
395.761902
 20
112.000038
 11
399.761902
 21
112.000038
  0
LINE
  8
0
  6
PHANTOM
 10
396.627899
 20
111.134010
 11
398.895905
 21
111.134010
  0
LINE
  8
0
  6
PHANTOM
 10
396.627869
 20
111.134010
 11
396.627869
 21
108.866066
  0
LINE
  8
0
  6
PHANTOM
 10
398.895874
 20
111.134010
 11
398.895874
 21
108.866066
  0
LINE
  8
0
  6
PHANTOM
 10
395.761993
 20
112.000229
 11
396.627991
 21
111.134209
  0
LINE
  8
0
  6
PHANTOM
 10
396.627930
 20
108.866020
 11
395.761932
 21
108.000015
  0
LINE
  8
0
  6
PHANTOM
 10
398.895905
 20
108.866119
 11
399.761902
 21
108.000084
  0
LINE
  8
0
  6
PHANTOM
 10
398.895935
 20
111.133972
 11
399.761902
 21
111.999977
  0
LINE
  8
0
  6
PHANTOM
 10
394.261902
 20
112.800041
 11
399.261902
 21
112.800041
  0
LINE
  8
0
  6
PHANTOM
 10
399.261902
 20
112.800041
 11
399.261902
 21
112.000038
  0
LINE
  8
0
  6
PHANTOM
 10
399.261902
 20
108.000038
 11
399.261902
 21
101.500038
  0
LINE
  8
0
  6
PHANTOM
 10
394.261902
 20
112.800041
 11
394.261902
 21
96.368752
  0
LINE
  8
0
  6
PHANTOM
 62
     3
 10
393.462280
 20
104.250038
 11
394.261902
 21
104.250038
  0
LINE
  8
0
  6
PHANTOM
 62
     3
 10
393.462280
 20
98.750038
 11
394.261902
 21
98.750038
  0
LINE
  8
0
  6
PHANTOM
 62
     1
 10
399.261902
 20
102.750038
 11
399.761902
 21
102.750038
  0
LINE
  8
0
  6
PHANTOM
 62
     1
 10
399.261902
 20
102.479546
 11
399.761902
 21
102.479546
  0
LINE
  8
0
  6
PHANTOM
 10
396.761932
 20
89.500038
 11
400.761902
 21
89.500038
  0
LINE
  8
0
  6
PHANTOM
 10
400.761902
 20
90.354317
 11
400.761902
 21
89.500053
  0
LINE
  8
0
  6
PHANTOM
 10
462.761932
 20
112.000038
 11
462.761932
 21
108.000038
  0
LINE
  8
0
  6
PHANTOM
 10
461.895935
 20
108.866066
 11
459.627930
 21
108.866066
  0
LINE
  8
0
  6
PHANTOM
 10
462.761932
 20
108.000038
 11
458.761932
 21
108.000038
  0
LINE
  8
0
  6
PHANTOM
 10
462.761932
 20
112.000038
 11
458.761932
 21
112.000038
  0
LINE
  8
0
  6
PHANTOM
 10
461.895935
 20
111.134010
 11
459.627930
 21
111.134010
  0
LINE
  8
0
  6
PHANTOM
 10
461.895935
 20
111.134010
 11
461.895935
 21
108.866066
  0
LINE
  8
0
  6
PHANTOM
 10
459.627930
 20
111.134010
 11
459.627930
 21
108.866066
  0
LINE
  8
0
  6
PHANTOM
 10
462.761902
 20
112.000099
 11
461.895905
 21
111.134071
  0
LINE
  8
0
  6
PHANTOM
 10
461.895935
 20
108.866051
 11
462.761932
 21
108.000038
  0
LINE
  8
0
  6
PHANTOM
 10
459.627991
 20
108.866058
 11
458.761932
 21
108.000015
  0
LINE
  8
0
  6
PHANTOM
 10
459.627869
 20
111.133980
 11
458.761871
 21
112.000015
  0
LINE
  8
0
  6
PHANTOM
 10
464.261902
 20
112.800041
 11
459.261902
 21
112.800041
  0
LINE
  8
0
  6
PHANTOM
 10
459.261902
 20
112.800041
 11
459.261902
 21
112.000038
  0
LINE
  8
0
  6
PHANTOM
 10
459.261902
 20
108.000038
 11
459.261902
 21
101.500038
  0
LINE
  8
0
  6
PHANTOM
 10
464.261902
 20
112.800041
 11
464.261902
 21
96.368736
  0
LINE
  8
0
  6
CENTER
 10
467.261902
 20
101.500038
 11
457.761902
 21
101.500038
  0
LINE
  8
0
  6
PHANTOM
 62
     3
 10
465.061584
 20
104.250038
 11
464.261902
 21
104.250038
  0
LINE
  8
0
  6
PHANTOM
 62
     3
 10
465.061584
 20
98.750038
 11
464.261902
 21
98.750038
  0
LINE
  8
0
  6
PHANTOM
 62
     1
 10
459.261902
 20
102.750038
 11
458.761902
 21
102.750038
  0
LINE
  8
0
  6
PHANTOM
 62
     1
 10
459.261902
 20
102.479546
 11
458.761902
 21
102.479546
  0
LINE
  8
0
  6
PHANTOM
 10
461.761902
 20
89.500038
 11
457.761902
 21
89.500038
  0
LINE
  8
0
  6
PHANTOM
 10
457.761902
 20
90.354317
 11
457.761902
 21
89.500053
  0
LINE
  8
0
  6
PHANTOM
 10
424.261902
 20
59.500038
 11
427.761902
 21
59.500038
  0
LINE
  8
0
 10
424.261902
 20
160.499954
 11
424.761902
 21
160.999969
  0
LINE
  8
0
 10
424.261902
 20
160.500031
 11
427.761902
 21
160.500031
  0
LINE
  8
0
 10
424.261902
 20
160.500031
 11
424.261902
 21
133.000031
  0
LINE
  8
0
 10
434.261871
 20
160.500031
 11
433.761871
 21
161.000046
  0
LINE
  8
0
 10
434.261902
 20
160.500031
 11
434.261902
 21
133.000031
  0
LINE
  8
0
 10
419.261902
 20
133.000031
 11
439.261902
 21
133.000031
  0
LINE
  8
0
 10
439.261902
 20
133.000061
 11
439.261902
 21
131.000031
  0
LINE
  8
0
 10
419.261902
 20
133.000031
 11
419.261902
 21
131.000031
  0
LINE
  8
0
 10
424.761902
 20
161.000000
 11
433.761963
 21
161.000000
  0
LINE
  8
0
  6
PHANTOM
 10
424.761902
 20
59.000038
 11
433.761902
 21
59.000038
  0
LINE
  8
0
 10
424.761932
 20
86.500038
 11
433.761902
 21
86.500038
  0
LINE
  8
0
 10
434.261871
 20
87.000015
 11
433.761871
 21
86.500008
  0
LINE
  8
0
  6
PHANTOM
 10
434.261871
 20
59.500031
 11
433.761871
 21
59.000042
  0
LINE
  8
0
 10
424.261993
 20
87.000046
 11
424.761963
 21
86.500069
  0
LINE
  8
0
  6
PHANTOM
 10
424.261902
 20
59.500107
 11
424.761902
 21
59.000118
  0
LINE
  8
0
 10
439.261902
 20
87.000038
 11
439.261902
 21
89.000038
  0
LINE
  8
0
 10
419.261902
 20
87.000038
 11
439.261902
 21
87.000038
  0
LINE
  8
0
 10
419.261902
 20
87.000038
 11
419.261902
 21
89.000038
  0
LINE
  8
0
  6
PHANTOM
 10
424.261902
 20
59.500038
 11
424.261902
 21
87.000038
  0
LINE
  8
0
  6
PHANTOM
 10
434.261902
 20
59.500038
 11
434.261902
 21
87.000038
  0
LINE
  8
0
  6
CENTER
 10
391.261902
 20
101.500038
 11
400.761902
 21
101.500038
  0
LINE
  8
0
  6
PHANTOM
 10
396.761841
 20
89.500000
 11
394.261841
 21
96.368736
  0
LINE
  8
0
  6
PHANTOM
 10
461.761871
 20
89.500069
 11
464.261871
 21
96.368759
  0
LINE
  8
0
 10
427.761902
 20
161.000000
 11
427.761902
 21
141.000000
  0
LINE
  8
0
 10
430.761902
 20
161.000000
 11
430.761902
 21
141.000000
  0
LINE
  8
0
 10
427.761902
 20
141.000000
 11
430.761902
 21
141.000000
  0
LINE
  8
0
  6
PHANTOM
 10
427.761902
 20
79.000038
 11
430.761902
 21
79.000038
  0
LINE
  8
0
  6
PHANTOM
 10
427.761902
 20
79.000038
 11
427.761902
 21
59.000038
  0
LINE
  8
0
  6
PHANTOM
 10
430.761902
 20
79.000038
 11
430.761902
 21
59.000038
  0
LINE
  8
0
 10
430.761902
 20
160.500031
 11
434.261902
 21
160.500031
  0
LINE
  8
0
  6
PHANTOM
 10
430.761902
 20
59.500038
 11
434.261902
 21
59.500038
  0
LINE
  8
0
  6
CENTER
 10
413.261902
 20
119.000038
 11
425.261902
 21
119.000038
  0
LINE
  8
0
  6
CENTER
 10
433.261902
 20
101.000038
 11
445.261902
 21
101.000038
  0
LINE
  8
0
  6
CENTER
 10
439.261902
 20
107.000038
 11
439.261902
 21
95.000038
  0
LINE
  8
0
  6
CENTER
 10
419.261902
 20
125.000038
 11
419.261902
 21
113.000038
  0
LINE
  8
0
  6
CENTER
 10
400.261902
 20
125.000038
 11
411.261902
 21
125.000038
  0
LINE
  8
0
  6
CENTER
 10
447.261902
 20
125.000038
 11
458.261902
 21
125.000038
  0
LINE
  8
0
  6
CENTER
 10
447.261902
 20
95.000038
 11
458.261902
 21
95.000038
  0
LINE
  8
0
  6
CENTER
 10
400.261902
 20
95.000038
 11
411.261902
 21
95.000038
  0
LINE
  8
0
  6
CENTER
 10
405.761902
 20
100.500038
 11
405.761902
 21
89.500038
  0
LINE
  8
0
  6
CENTER
 10
405.761902
 20
130.500031
 11
405.761902
 21
119.500038
  0
LINE
  8
0
  6
CENTER
 10
452.761902
 20
130.500031
 11
452.761902
 21
119.500038
  0
LINE
  8
0
  6
CENTER
 10
452.761902
 20
100.500038
 11
452.761902
 21
89.500038
  0
LINE
  8
0
 62
     3
 10
403.761902
 20
126.154747
 11
403.761902
 21
123.845345
  0
LINE
  8
0
 62
     3
 10
407.761902
 20
126.154747
 11
407.761902
 21
123.845345
  0
LINE
  8
0
 62
     3
 10
403.761932
 20
126.154732
 11
405.761932
 21
127.309441
  0
LINE
  8
0
 62
     3
 10
405.761902
 20
122.690613
 11
407.761902
 21
123.845322
  0
LINE
  8
0
 62
     3
 10
405.761932
 20
127.309456
 11
407.761902
 21
126.154762
  0
LINE
  8
0
 62
     3
 10
403.761932
 20
123.845352
 11
405.761902
 21
122.690659
  0
LINE
  8
0
 62
     3
 10
450.761902
 20
126.154747
 11
450.761902
 21
123.845345
  0
LINE
  8
0
 62
     3
 10
454.761902
 20
126.154747
 11
454.761902
 21
123.845345
  0
LINE
  8
0
 62
     3
 10
450.761932
 20
126.154739
 11
452.761932
 21
127.309433
  0
LINE
  8
0
 62
     3
 10
452.761932
 20
122.690643
 11
454.761932
 21
123.845337
  0
LINE
  8
0
 62
     3
 10
452.761902
 20
127.309464
 11
454.761902
 21
126.154770
  0
LINE
  8
0
 62
     3
 10
450.761932
 20
123.845345
 11
452.761932
 21
122.690651
  0
LINE
  8
0
 62
     3
 10
450.761902
 20
96.154747
 11
450.761902
 21
93.845345
  0
LINE
  8
0
 62
     3
 10
454.761902
 20
96.154747
 11
454.761902
 21
93.845345
  0
LINE
  8
0
 62
     3
 10
450.761963
 20
96.154724
 11
452.761932
 21
97.309418
  0
LINE
  8
0
 62
     3
 10
452.761932
 20
92.690598
 11
454.761932
 21
93.845291
  0
LINE
  8
0
 62
     3
 10
452.761932
 20
97.309433
 11
454.761932
 21
96.154739
  0
LINE
  8
0
 62
     3
 10
450.761963
 20
93.845314
 11
452.761963
 21
92.690620
  0
LINE
  8
0
 62
     3
 10
403.761902
 20
96.154747
 11
403.761902
 21
93.845345
  0
LINE
  8
0
 62
     3
 10
407.761902
 20
96.154747
 11
407.761902
 21
93.845345
  0
LINE
  8
0
 62
     3
 10
403.761932
 20
96.154724
 11
405.761932
 21
97.309433
  0
LINE
  8
0
 62
     3
 10
405.761963
 20
92.690636
 11
407.761932
 21
93.845329
  0
LINE
  8
0
 62
     3
 10
405.761902
 20
97.309441
 11
407.761902
 21
96.154747
  0
LINE
  8
0
 62
     3
 10
403.761902
 20
93.845345
 11
405.761902
 21
92.690651
  0
CIRCLE
  8
0
 10
279.647247
 20
118.500046
 40
1.500000
  0
CIRCLE
  8
0
 10
279.647247
 20
118.500046
 40
1.229500
  0
CIRCLE
  8
0
  6
PHANTOM
 62
     3
 10
279.647247
 20
101.500076
 40
2.750000
  0
ARC
  8
0
  6
PHANTOM
 10
329.735809
 20
110.750046
 40
1.000000
 50
311.409637
 51
48.590370
  0
ARC
  8
0
  6
PHANTOM
 10
331.058685
 20
109.250046
 40
1.000000
 50
131.409622
 51
228.590378
  0
ARC
  8
0
  6
PHANTOM
 10
329.735809
 20
109.250046
 40
1.000000
 50
311.409637
 51
48.590370
  0
CIRCLE
  8
0
 62
     3
 10
257.247223
 20
241.646927
 40
3.000000
  0
CIRCLE
  8
0
 62
     3
 10
257.247223
 20
271.646912
 40
3.000000
  0
CIRCLE
  8
0
 62
     3
 10
272.247223
 20
256.646912
 40
3.000000
  0
CIRCLE
  8
0
 62
     3
 10
242.247253
 20
256.646912
 40
3.000000
  0
ARC
  8
0
 10
257.247223
 20
256.646912
 40
4.999989
 50
17.457645
 51
342.542358
  0
ARC
  8
0
 10
257.247223
 20
256.646912
 40
4.500004
 50
19.471201
 51
340.528809
  0
ARC
  8
0
  6
PHANTOM
 10
328.335815
 20
287.396942
 40
1.000000
 50
311.409637
 51
48.590370
  0
ARC
  8
0
  6
PHANTOM
 10
328.335815
 20
288.896942
 40
1.000000
 50
311.409637
 51
48.590370
  0
ARC
  8
0
  6
PHANTOM
 10
329.658691
 20
288.896942
 40
1.000000
 50
131.409622
 51
228.590378
  0
ARC
  8
0
  6
PHANTOM
 62
     3
 10
279.647217
 20
288.646942
 40
5.000006
 50
61.264477
 51
118.735214
  0
ARC
  8
0
  6
PHANTOM
 62
     3
 10
281.730530
 20
292.446564
 40
0.666687
 50
0.000000
 51
61.264580
  0
ARC
  8
0
  6
PHANTOM
 62
     3
 10
277.563934
 20
292.446564
 40
0.666699
 50
118.735420
 51
180.000000
  0
ARC
  8
0
  6
PHANTOM
 62
     3
 10
277.563934
 20
220.847275
 40
0.666687
 50
180.000000
 51
241.264587
  0
ARC
  8
0
  6
PHANTOM
 10
328.335815
 20
224.396927
 40
1.000000
 50
311.409637
 51
48.590370
  0
ARC
  8
0
  6
PHANTOM
 10
328.335815
 20
225.896927
 40
1.000000
 50
311.409637
 51
48.590370
  0
ARC
  8
0
  6
PHANTOM
 10
329.658691
 20
225.896927
 40
1.000000
 50
131.409622
 51
228.590378
  0
ARC
  8
0
  6
PHANTOM
 62
     3
 10
279.647217
 20
224.646927
 40
5.000006
 50
241.264481
 51
298.735229
  0
ARC
  8
0
  6
PHANTOM
 62
     3
 10
281.730530
 20
220.847275
 40
0.666699
 50
298.735413
 51
0.000000
  0
CIRCLE
  8
0
 10
257.247223
 20
256.646912
 40
10.000000
  0
CIRCLE
  8
0
 10
257.247223
 20
256.646912
 40
19.000000
  0
CIRCLE
  8
0
 10
233.247253
 20
256.646912
 40
2.066999
  0
CIRCLE
  8
0
 10
257.247223
 20
232.646927
 40
2.066999
  0
CIRCLE
  8
0
 10
281.247253
 20
256.646912
 40
2.066999
  0
CIRCLE
  8
0
 10
233.247253
 20
256.646912
 40
2.500000
  0
CIRCLE
  8
0
 10
281.247253
 20
256.646912
 40
2.500000
  0
CIRCLE
  8
0
 10
257.247223
 20
232.646927
 40
2.500000
  0
CIRCLE
  8
0
 10
257.247223
 20
280.646912
 40
2.500000
  0
CIRCLE
  8
0
 10
257.247223
 20
280.646912
 40
2.066999
  0
CIRCLE
  8
0
 62
     3
 10
73.577225
 20
95.000053
 40
5.000000
  0
CIRCLE
  8
0
 62
     3
 10
73.577225
 20
125.000053
 40
5.000000
  0
CIRCLE
  8
0
 62
     3
 10
120.577225
 20
125.000053
 40
5.000000
  0
CIRCLE
  8
0
 62
     3
 10
120.577225
 20
95.000053
 40
5.000000
  0
ARC
  8
0
 10
71.577225
 20
127.000053
 40
4.000008
 50
90.000000
 51
180.000000
  0
ARC
  8
0
  6
PHANTOM
 62
     3
 10
132.876877
 20
103.583351
 40
0.666699
 50
28.735418
 51
90.000000
  0
ARC
  8
0
  6
PHANTOM
 62
     3
 10
132.876877
 20
99.416756
 40
0.666702
 50
270.000000
 51
331.264587
  0
ARC
  8
0
 10
122.577225
 20
127.000053
 40
4.000000
 50
0.000000
 51
90.000000
  0
ARC
  8
0
 10
122.577225
 20
93.000053
 40
4.000000
 50
270.000000
 51
0.000000
  0
ARC
  8
0
 10
71.577225
 20
93.000053
 40
4.000000
 50
180.000000
 51
270.000000
  0
ARC
  8
0
  6
PHANTOM
 62
     3
 10
129.077225
 20
101.500053
 40
4.999999
 50
331.264618
 51
28.735369
  0
ARC
  8
0
  6
PHANTOM
 62
     3
 10
65.077225
 20
101.500053
 40
4.999999
 50
151.264633
 51
208.735352
  0
ARC
  8
0
  6
PHANTOM
 62
     3
 10
61.277542
 20
103.583351
 40
0.666702
 50
90.000000
 51
151.264587
  0
ARC
  8
0
  6
PHANTOM
 62
     3
 10
61.277542
 20
99.416756
 40
0.666699
 50
208.735413
 51
270.000000
  0
CIRCLE
  8
0
 62
     3
 10
452.761902
 20
95.000038
 40
4.250000
  0
CIRCLE
  8
0
 62
     3
 10
405.761902
 20
95.000038
 40
4.250000
  0
CIRCLE
  8
0
 62
     3
 10
405.761902
 20
95.000038
 40
3.730385
  0
CIRCLE
  8
0
 62
     3
 10
452.761902
 20
95.000038
 40
3.730385
  0
ARC
  8
0
 10
403.761902
 20
127.000038
 40
3.999992
 50
90.000000
 51
180.000000
  0
ARC
  8
0
  6
PHANTOM
 62
     3
 10
465.061584
 20
103.583336
 40
0.666699
 50
28.735418
 51
90.000000
  0
ARC
  8
0
  6
PHANTOM
 62
     3
 10
465.061584
 20
99.416740
 40
0.666702
 50
270.000000
 51
331.264587
  0
ARC
  8
0
 10
454.761902
 20
127.000038
 40
4.000000
 50
0.000000
 51
90.000000
  0
ARC
  8
0
 10
454.761902
 20
93.000038
 40
4.000000
 50
270.000000
 51
0.000000
  0
ARC
  8
0
 10
403.761902
 20
93.000038
 40
4.000000
 50
180.000000
 51
270.000000
  0
ARC
  8
0
  6
PHANTOM
 62
     3
 10
461.261902
 20
101.500038
 40
4.999999
 50
331.264618
 51
28.735369
  0
ARC
  8
0
  6
PHANTOM
 62
     3
 10
397.261902
 20
101.500038
 40
4.999999
 50
151.264633
 51
208.735367
  0
ARC
  8
0
  6
PHANTOM
 62
     3
 10
393.462219
 20
103.583336
 40
0.666702
 50
90.000000
 51
151.264587
  0
ARC
  8
0
  6
PHANTOM
 62
     3
 10
393.462219
 20
99.416740
 40
0.666699
 50
208.735413
 51
270.000000
  0
ARC
  8
0
  6
PHANTOM
 10
429.261902
 20
79.000038
 40
1.500000
 50
0.000000
 51
180.000000
  0
ARC
  8
0
 10
429.261902
 20
141.000000
 40
1.500000
 50
180.000000
 51
0.000000
  0
CIRCLE
  8
0
 10
419.261902
 20
119.000038
 40
4.863999
  0
CIRCLE
  8
0
 10
439.261902
 20
101.000038
 40
4.863999
  0
CIRCLE
  8
0
 10
439.261902
 20
101.000038
 40
4.283000
  0
CIRCLE
  8
0
 10
419.261902
 20
119.000038
 40
4.283000
  0
CIRCLE
  8
0
 62
     3
 10
405.761902
 20
125.000038
 40
4.250000
  0
CIRCLE
  8
0
 62
     3
 10
405.761902
 20
125.000038
 40
3.730385
  0
CIRCLE
  8
0
 62
     3
 10
452.761902
 20
125.000038
 40
4.250000
  0
CIRCLE
  8
0
 62
     3
 10
452.761902
 20
125.000038
 40
3.730385
  0
TEXT
  8
0
 10
422.460297
 20
345.487762
 40
6.000000
  1
DATE : MAR ,1992
 50
0.000000
 41
1.052631
 51
0.000000
  7
STANDARD
  0
TEXT
  8
0
 10
35.750000
 20
284.475342
 40
7.000000
  1
        RAPS20-190
 50
0.000000
 41
1.052632
 51
0.000000
  7
STANDARD
  0
TEXT
  8
0
 10
2.364407
 20
344.587708
 40
7.000000
  1
ROTARY ACUTUATOR
 50
0.000000
 41
0.956938
 51
0.000000
  7
STANDARD
  0
TEXT
  8
0
 10
343.036774
 20
242.849228
 40
5.000000
  1
〃
 50
90.000000
 41
0.833333
 51
0.000000
  7
STANDARD
  0
TEXT
  8
0
 10
343.037170
 20
264.516541
 40
5.000000
  1
〃
 50
90.000000
 41
0.833333
 51
0.000000
  7
STANDARD
  0
TEXT
  8
0
 10
352.747223
 20
253.682632
 40
5.000000
  1
D
 50
90.000000
 41
1.052632
 51
0.000000
  7
STANDARD
  0
TEXT
  8
0
 10
35.750000
 20
294.475342
 40
7.000000
  1
MODEL : RAPS20-180
 50
0.000000
 41
1.052632
 51
0.000000
  7
STANDARD
  0
TEXT
  8
0
 10
427.811859
 20
4.812350
 40
7.000000
  1
KOGANEI,CORP
 50
0.000000
 41
1.052632
 51
0.000000
  7
STANDARD
  0
LINE
  8
0
 10
441.694061
 20
96.787682
 11
466.397491
 21
54.000011
  0
LINE
  8
0
 10
466.397491
 20
54.000011
 11
503.770905
 21
54.000015
  0
LINE
  8
0
 10
441.694061
 20
96.787682
 11
442.470520
 21
93.889900
  0
LINE
  8
0
 10
441.694061
 20
96.787682
 11
443.815369
 21
94.666359
  0
TEXT
  8
0
 10
467.592346
 20
55.000015
 40
5.000000
  1
2-Rc1/8
 50
0.000000
 41
1.052632
 51
0.000000
  7
STANDARD
  0
TEXT
  8
0
 10
339.039703
 20
278.920654
 40
3.200000
  1
       
 50
277.500000
 41
1.052632
 51
0.000000
  7
STANDARD
  0
ARC
  8
0
 10
257.247437
 20
256.646912
 40
82.999786
 50
0.000000
 51
15.000007
  0
LINE
  8
0
 10
340.247223
 20
256.646912
 11
339.418579
 21
259.530029
  0
LINE
  8
0
 10
340.247223
 20
256.646912
 11
340.971161
 21
259.558105
  0
LINE
  8
0
 10
337.419067
 20
278.128845
 11
338.871765
 21
275.504242
  0
LINE
  8
0
 10
337.419067
 20
278.128845
 11
337.364838
 21
275.129517
  0
LINE
  8
0
 10
328.247253
 20
256.646912
 11
342.533234
 21
256.646912
  0
LINE
  8
0
 10
355.247223
 20
282.905884
 11
335.210999
 21
277.537201
  0
TEXT
  8
0
 10
354.220215
 20
241.184387
 40
5.000000
  1
　　　
 50
89.900002
 41
0.833333
 51
0.000000
  7
STANDARD
  0
ARC
  8
0
 10
257.247253
 20
256.646912
 40
97.999969
 50
345.000000
 51
14.999999
  0
LINE
  8
0
 10
351.907959
 20
231.282654
 11
351.862061
 21
234.282211
  0
LINE
  8
0
 10
351.907959
 20
231.282654
 11
353.367981
 21
233.903290
  0
LINE
  8
0
 10
351.907959
 20
282.011169
 11
353.367981
 21
279.390533
  0
LINE
  8
0
 10
351.907959
 20
282.011169
 11
351.862061
 21
279.011627
  0
LINE
  8
0
 10
331.912079
 20
236.640564
 11
354.116058
 21
230.690979
  0
LINE
  8
0
 10
330.686829
 20
276.324982
 11
354.116089
 21
282.602905
  0
TEXT
  8
0
 10
337.265228
 20
236.220581
 40
3.200000
  1
　　　
 50
82.500000
 41
0.833333
 51
0.000000
  7
STANDARD
  0
ARC
  8
0
 10
257.247070
 20
256.646912
 40
82.999779
 50
345.000000
 51
0.000000
  0
LINE
  8
0
 10
337.418701
 20
235.164993
 11
337.364502
 21
238.164352
  0
LINE
  8
0
 10
337.418701
 20
235.164993
 11
338.871429
 21
237.789627
  0
LINE
  8
0
 10
340.246857
 20
256.646912
 11
340.970795
 21
253.735733
  0
LINE
  8
0
 10
340.246857
 20
256.646912
 11
339.418213
 21
253.763794
  0
LINE
  8
0
 10
355.247223
 20
230.387848
 11
335.210602
 21
235.756638
  0
LINE
  8
0
 10
328.247253
 20
256.646912
 11
342.532867
 21
256.646912
  0
ENDSEC
  0
EOF
