  0
SECTION
  2
HEADER
  0
ENDSEC
  0
SECTION
  2
TABLES
  0
TABLE
  2
LTYPE
 70
     4
  0
LTYPE
  2
CONTINUOUS
 70
    64
  3
Solid line
 72
    65
 73
     0
 40
0.000000
  0
LTYPE
  2
DASHED
 70
    64
  3
__ __ __ __ __ __ __ __ __ __ __ __ __ __ __
 72
    65
 73
     2
 40
3.500000
 49
2.000000
 49
-1.500000
  0
LTYPE
  2
CENTER
 70
    64
  3
____ _ ____ _ ____ _ ____ _ ____ _ ____ _ ____
 72
    65
 73
     4
 40
17.500000
 49
13.000000
 49
-1.500000
 49
1.500000
 49
-1.500000
  0
LTYPE
  2
PHANTOM
 70
    64
  3
_____ _ _ _____ _ _ _____ _ _ _____ _ _ ____  
 72
    65
 73
     6
 40
15.500000
 49
8.000000
 49
-1.500000
 49
1.500000
 49
-1.500000
 49
1.500000
 49
-1.500000
  0
LTYPE
  2
DASHED1
 70
    64
  3
__ __ __ __ __ __ __ __ __ __ __ __ __ __ __
 72
    65
 73
     2
 40
1.500000
 49
1.000000
 49
-0.500000
  0
LTYPE
  2
DASHED2
 70
    64
  3
__ __ __ __ __ __ __ __ __ __ __ __ __ __ __
 72
    65
 73
     2
 40
3.500000
 49
2.500000
 49
-1.000000
  0
LTYPE
  2
DASHED3
 70
    64
  3
__ __ __ __ __ __ __ __ __ __ __ __ __ __ __
 72
    65
 73
     2
 40
6.000000
 49
4.000000
 49
-2.000000
  0
LTYPE
  2
DASHED4
 70
    64
  3
__ __ __ __ __ __ __ __ __ __ __ __ __ __ __
 72
    65
 73
     2
 40
12.000000
 49
10.000000
 49
-2.000000
  0
LTYPE
  2
DASHED5
 70
    64
  3
__ __ __ __ __ __ __ __ __ __ __ __ __ __ __
 72
    65
 73
     2
 40
17.000000
 49
15.000000
 49
-2.000000
  0
LTYPE
  2
DASHED6
 70
    64
  3
__ __ __ __ __ __ __ __ __ __ __ __ __ __ __
 72
    65
 73
     2
 40
29.000000
 49
27.000000
 49
-2.000000
  0
LTYPE
  2
PHANTOM1
 70
    64
  3
_____ _ _ _____ _ _ _____ _ _ _____ _ _ ____  
 72
    65
 73
     6
 40
31.000000
 49
25.000000
 49
-1.500000
 49
1.000000
 49
-1.000000
 49
1.000000
 49
-1.500000
  0
LTYPE
  2
PHANTOM2
 70
    64
  3
_____ _ _ _____ _ _ _____ _ _ _____ _ _ ____  
 72
    65
 73
     6
 40
36.000000
 49
27.000000
 49
-1.500000
 49
2.500000
 49
-1.000000
 49
2.500000
 49
-1.500000
  0
LTYPE
  2
PHANTOM3
 70
    64
  3
_____ _ _ _____ _ _ _____ _ _ _____ _ _ ____  
 72
    65
 73
     6
 40
78.000000
 49
64.000000
 49
-2.000000
 49
4.000000
 49
-2.000000
 49
4.000000
 49
-2.000000
  0
LTYPE
  2
CENTER1
 70
    64
  3
____ _ ____ _ ____ _ ____ _ ____ _ ____ _ ____
 72
    65
 73
     4
 40
19.000000
 49
14.000000
 49
-1.000000
 49
3.000000
 49
-1.000000
  0
LTYPE
  2
CENTER2
 70
    64
  3
____ _ ____ _ ____ _ ____ _ ____ _ ____ _ ____
 72
    65
 73
     4
 40
28.500000
 49
25.000000
 49
-1.000000
 49
1.500000
 49
-1.000000
  0
LTYPE
  2
CENTER3
 70
    64
  3
____ _ ____ _ ____ _ ____ _ ____ _ ____ _ ____
 72
    65
 73
     4
 40
31.500000
 49
27.000000
 49
-1.000000
 49
2.500000
 49
-1.000000
  0
LTYPE
  2
CENTER4
 70
    64
  3
____ _ ____ _ ____ _ ____ _ ____ _ ____ _ ____
 72
    65
 73
     4
 40
50.000000
 49
45.000000
 49
-1.000000
 49
3.000000
 49
-1.000000
  0
LTYPE
  2
CENTER5
 70
    64
  3
____ _ ____ _ ____ _ ____ _ ____ _ ____ _ ____
 72
    65
 73
     4
 40
100.000000
 49
92.000000
 49
-2.000000
 49
4.000000
 49
-2.000000
  0
LTYPE
  2
SBK1
 70
    64
  3
______ _ _ _ ______ _ _ _ ______ _ _ _ _____  
 72
    65
 73
     8
 40
60.500000
 49
45.000000
 49
-2.000000
 49
2.500000
 49
-2.000000
 49
2.500000
 49
-2.000000
 49
2.500000
 49
-2.000000
  0
LTYPE
  2
SBK2
 70
    64
  3
______ _ _ _ ______ _ _ _ ______ _ _ _ _____  
 72
    65
 73
     8
 40
84.000000
 49
64.000000
 49
-2.000000
 49
4.000000
 49
-2.000000
 49
4.000000
 49
-2.000000
 49
4.000000
 49
-2.000000
  0
LTYPE
  2
STCH
 70
    64
  3
__ __ __ __ __ __ __ __ __ __ __ __ __ __ __
 72
    65
 73
     2
 40
3.000000
 49
1.000000
 49
-2.000000
  0
LTYPE
  2
MTCH
 70
    64
  3
_____ _ _ _____ _ _ _____ _ _ _____ _ _ ____  
 72
    65
 73
     6
 40
80.000000
 49
66.000000
 49
-2.000000
 49
4.000000
 49
-2.000000
 49
4.000000
 49
-2.000000
  0
ENDTAB
  0
TABLE
  2
LAYER
 70
     1
  0
LAYER
  2
0
 70
     0
 62
     7
  6
CONTINUOUS
  0
ENDTAB
  0
TABLE
  2
STYLE
 70
     1
  0
STYLE
  2
STANDARD
 70
     0
 40
0.000000
 41
1.000000
 50
0.000000
 71
     0
 42
0.200000
  3
txt
  4
BIGFONT
  0
ENDTAB
  0
TABLE
  2
VIEW
 70
     0
  0
ENDTAB
  0
ENDSEC
  0
SECTION
  2
BLOCKS
  0
ENDSEC
  0
SECTION
  2
ENTITIES
  0
POINT
  8
0
 10
185.436783
 20
127.279236
  0
POINT
  8
0
 10
63.436844
 20
67.279266
  0
POINT
  8
0
 10
155.436783
 20
67.279236
  0
POINT
  8
0
 10
293.436768
 20
67.279251
  0
POINT
  8
0
 10
155.436783
 20
172.279236
  0
POINT
  8
0
 10
207.936783
 20
67.279236
  0
POINT
  8
0
 10
207.936783
 20
172.279236
  0
POINT
  8
0
 10
81.936844
 20
67.279266
  0
POINT
  8
0
 10
311.936768
 20
67.279251
  0
LINE
  8
0
 62
     3
 10
0.000000
 20
0.000000
 11
0.000000
 21
254.558472
  0
LINE
  8
0
 62
     3
 10
370.873566
 20
254.558472
 11
370.873566
 21
0.000000
  0
LINE
  8
0
 62
     3
 10
0.000000
 20
0.000000
 11
370.873566
 21
0.000000
  0
LINE
  8
0
 62
     3
 10
0.000000
 20
254.558472
 11
370.873566
 21
254.558472
  0
LINE
  8
0
 62
     3
 10
0.000000
 20
240.257431
 11
76.272194
 21
240.257431
  0
LINE
  8
0
 62
     3
 10
76.272194
 20
240.257431
 11
76.272194
 21
254.558472
  0
LINE
  8
0
 62
     3
 10
294.601379
 20
14.301025
 11
370.873566
 21
14.301025
  0
LINE
  8
0
 62
     3
 10
294.601379
 20
240.257431
 11
370.873566
 21
240.257431
  0
LINE
  8
0
 62
     3
 10
294.601379
 20
254.558472
 11
294.601379
 21
240.257431
  0
LINE
  8
0
 62
     3
 10
294.601379
 20
14.301025
 11
294.601379
 21
0.000000
  0
LINE
  8
0
 10
168.436783
 20
48.779236
 11
168.436783
 21
85.779236
  0
LINE
  8
0
 10
140.436798
 20
65.279236
 11
140.436798
 21
69.779236
  0
LINE
  8
0
 10
155.436783
 20
60.279236
 11
155.436783
 21
74.279236
  0
LINE
  8
0
 10
159.436783
 20
48.779236
 11
159.436783
 21
85.779236
  0
LINE
  8
0
 10
159.436783
 20
48.779236
 11
181.936783
 21
48.779236
  0
LINE
  8
0
 10
159.436783
 20
85.779236
 11
181.936783
 21
85.779236
  0
LINE
  8
0
 10
155.436783
 20
60.279236
 11
159.436783
 21
60.279236
  0
LINE
  8
0
 10
155.436783
 20
74.279236
 11
159.436783
 21
74.279236
  0
LINE
  8
0
 10
150.436798
 20
67.632805
 11
140.436798
 21
69.779251
  0
LINE
  8
0
 10
140.436798
 20
67.632812
 11
150.436798
 21
69.779259
  0
LINE
  8
0
 10
150.436798
 20
67.632782
 11
150.436798
 21
69.779236
  0
LINE
  8
0
 10
168.436783
 20
55.529236
 11
181.936783
 21
55.529236
  0
LINE
  8
0
 10
168.436783
 20
79.029236
 11
181.936783
 21
79.029236
  0
LINE
  8
0
 10
140.436798
 20
69.779236
 11
155.436783
 21
69.779236
  0
LINE
  8
0
 10
140.936783
 20
64.779236
 11
155.436783
 21
64.779236
  0
LINE
  8
0
 10
140.436966
 20
65.279419
 11
140.936966
 21
64.779419
  0
LINE
  8
0
 10
140.936783
 20
64.779236
 11
140.936783
 21
67.632782
  0
LINE
  8
0
 10
181.936783
 20
48.779236
 11
181.936783
 21
85.779236
  0
LINE
  8
0
 10
140.436798
 20
67.632782
 11
150.436798
 21
67.632782
  0
LINE
  8
0
 62
     1
 10
207.936783
 20
50.829239
 11
207.936783
 21
86.079239
  0
LINE
  8
0
 62
     1
 10
182.236771
 20
51.029236
 11
205.936783
 21
51.029236
  0
LINE
  8
0
 62
     1
 10
181.936783
 20
77.029236
 11
205.936783
 21
77.029236
  0
LINE
  8
0
 62
     1
 10
181.936783
 20
57.529236
 11
205.936783
 21
57.529236
  0
LINE
  8
0
 62
     1
 10
205.936783
 20
50.829239
 11
205.936783
 21
84.579239
  0
LINE
  8
0
 62
     1
 10
205.936783
 20
50.829239
 11
207.936783
 21
50.829239
  0
LINE
  8
0
 62
     1
 10
181.936783
 20
85.740616
 11
193.836777
 21
85.740616
  0
LINE
  8
0
 62
     1
 10
182.936783
 20
84.579239
 11
182.936783
 21
85.740616
  0
LINE
  8
0
 62
     1
 10
208.225464
 20
82.240616
 11
215.936783
 21
82.240616
  0
LINE
  8
0
 62
     1
 10
208.225464
 20
85.240616
 11
215.661530
 21
85.240616
  0
LINE
  8
0
 62
     1
 10
207.936752
 20
85.740593
 11
208.225433
 21
85.240578
  0
LINE
  8
0
 62
     1
 10
207.936737
 20
81.740112
 11
208.225723
 21
82.240623
  0
LINE
  8
0
 62
     1
 10
208.225464
 20
85.240616
 11
208.225464
 21
82.240097
  0
LINE
  8
0
 62
     1
 10
193.836777
 20
85.153885
 11
193.836777
 21
87.836212
  0
LINE
  8
0
 62
     1
 10
201.036774
 20
85.153885
 11
201.036774
 21
87.836212
  0
LINE
  8
0
 62
     1
 10
194.636780
 20
88.351059
 11
194.636780
 21
87.836212
  0
LINE
  8
0
 62
     1
 10
200.236771
 20
88.351059
 11
200.236771
 21
87.836212
  0
LINE
  8
0
 62
     1
 10
193.836777
 20
87.836212
 11
201.036774
 21
87.836212
  0
LINE
  8
0
 62
     1
 10
193.836777
 20
86.341171
 11
201.036774
 21
86.341171
  0
LINE
  8
0
 62
     1
 10
193.836777
 20
85.153885
 11
201.036774
 21
85.153885
  0
LINE
  8
0
 10
181.936783
 20
86.079239
 11
193.836777
 21
86.079239
  0
LINE
  8
0
 62
     1
 10
201.036774
 20
85.740616
 11
207.936783
 21
85.740616
  0
LINE
  8
0
 10
201.036774
 20
86.079239
 11
207.936783
 21
86.079239
  0
LINE
  8
0
 62
     1
 10
181.936783
 20
84.579239
 11
207.936783
 21
84.579239
  0
LINE
  8
0
 62
     1
 10
205.936783
 20
85.740616
 11
205.936783
 21
86.079239
  0
LINE
  8
0
  6
CENTER
 10
137.436798
 20
67.279236
 11
210.936783
 21
67.279236
  0
LINE
  8
0
  6
CENTER
 62
     1
 10
197.436783
 20
83.153885
 11
197.436783
 21
91.579239
  0
LINE
  8
0
 10
168.436783
 20
190.779236
 11
168.436783
 21
153.779236
  0
LINE
  8
0
 10
140.436798
 20
174.279236
 11
140.436798
 21
169.779236
  0
LINE
  8
0
 10
155.436783
 20
179.279236
 11
155.436783
 21
165.279236
  0
LINE
  8
0
 10
159.436783
 20
190.779236
 11
159.436783
 21
153.779236
  0
LINE
  8
0
 10
181.936783
 20
190.779236
 11
181.936783
 21
153.779236
  0
LINE
  8
0
 10
159.436783
 20
190.779236
 11
181.936783
 21
190.779236
  0
LINE
  8
0
 10
159.436783
 20
153.779236
 11
181.936783
 21
153.779236
  0
LINE
  8
0
 10
155.436783
 20
179.279236
 11
159.436783
 21
179.279236
  0
LINE
  8
0
 10
155.436783
 20
165.279236
 11
159.436783
 21
165.279236
  0
LINE
  8
0
 10
168.436783
 20
184.029236
 11
181.936783
 21
184.029236
  0
LINE
  8
0
 10
168.436783
 20
160.529236
 11
181.936783
 21
160.529236
  0
LINE
  8
0
 10
140.436798
 20
169.779236
 11
155.436783
 21
169.779236
  0
LINE
  8
0
 10
140.936783
 20
174.779236
 11
155.436783
 21
174.779236
  0
LINE
  8
0
 10
140.436981
 20
174.279022
 11
140.936981
 21
174.779022
  0
LINE
  8
0
 10
140.936783
 20
174.779236
 11
140.936783
 21
171.925690
  0
LINE
  8
0
 62
     1
 10
207.936783
 20
188.729233
 11
207.936783
 21
155.829239
  0
LINE
  8
0
 62
     1
 10
182.236771
 20
156.029236
 11
205.936783
 21
156.029236
  0
LINE
  8
0
 62
     1
 10
182.236771
 20
188.529236
 11
205.936783
 21
188.529236
  0
LINE
  8
0
 62
     1
 10
181.936783
 20
162.529236
 11
205.936783
 21
162.529236
  0
LINE
  8
0
 62
     1
 10
181.936783
 20
182.029236
 11
205.936783
 21
182.029236
  0
LINE
  8
0
 62
     1
 10
203.676773
 20
170.279236
 11
206.076782
 21
170.279236
  0
LINE
  8
0
 62
     1
 10
203.676773
 20
174.279236
 11
206.076782
 21
174.279236
  0
LINE
  8
0
 62
     1
 10
206.376785
 20
173.979233
 11
206.376785
 21
170.579239
  0
LINE
  8
0
 62
     1
 10
203.376785
 20
173.979233
 11
203.376785
 21
170.579239
  0
LINE
  8
0
 62
     1
 10
181.936783
 20
167.889236
 11
193.836777
 21
167.889236
  0
LINE
  8
0
 62
     1
 10
181.936783
 20
176.669235
 11
193.836777
 21
176.669235
  0
LINE
  8
0
 62
     1
 10
201.436783
 20
176.669235
 11
201.436783
 21
167.889236
  0
LINE
  8
0
 62
     1
 10
193.436783
 20
176.669235
 11
193.436783
 21
167.889236
  0
LINE
  8
0
 62
     1
 10
205.936783
 20
188.729233
 11
205.936783
 21
180.669739
  0
LINE
  8
0
 62
     1
 10
205.936783
 20
163.888733
 11
205.936783
 21
155.829239
  0
LINE
  8
0
 62
     1
 10
205.936783
 20
155.829239
 11
207.936783
 21
155.829239
  0
LINE
  8
0
 62
     1
 10
205.936783
 20
188.729233
 11
207.936783
 21
188.729233
  0
LINE
  8
0
 62
     1
 10
181.936783
 20
180.669739
 11
207.936783
 21
180.669739
  0
LINE
  8
0
 62
     1
 10
181.936783
 20
163.888733
 11
207.936783
 21
163.888733
  0
LINE
  8
0
 62
     1
 10
182.936783
 20
180.669739
 11
182.936783
 21
176.669235
  0
LINE
  8
0
 62
     1
 10
182.936783
 20
167.889236
 11
182.936783
 21
163.888733
  0
LINE
  8
0
 62
     1
 10
208.225464
 20
177.169739
 11
215.936783
 21
177.169739
  0
LINE
  8
0
 62
     1
 10
208.225464
 20
180.169739
 11
215.661530
 21
180.169739
  0
LINE
  8
0
 62
     1
 10
207.936707
 20
180.669708
 11
208.225388
 21
180.169708
  0
LINE
  8
0
 62
     1
 10
207.936798
 20
176.669220
 11
208.225769
 21
177.169739
  0
LINE
  8
0
 62
     1
 10
208.225464
 20
180.169739
 11
208.225464
 21
177.169220
  0
LINE
  8
0
 62
     1
 10
208.225464
 20
167.388733
 11
215.936783
 21
167.388733
  0
LINE
  8
0
 62
     1
 10
208.225464
 20
164.388733
 11
215.661530
 21
164.388733
  0
LINE
  8
0
 62
     1
 10
207.936768
 20
163.888748
 11
208.225449
 21
164.388763
  0
LINE
  8
0
 62
     1
 10
207.936722
 20
167.889206
 11
208.225693
 21
167.388702
  0
LINE
  8
0
 62
     1
 10
208.225464
 20
164.388733
 11
208.225464
 21
167.389252
  0
LINE
  8
0
 62
     1
 10
193.836777
 20
179.779236
 11
193.836777
 21
164.779236
  0
LINE
  8
0
 62
     1
 10
201.036774
 20
179.779236
 11
201.036774
 21
164.779236
  0
LINE
  8
0
 62
     1
 10
193.836777
 20
164.779236
 11
201.036774
 21
164.779236
  0
LINE
  8
0
 62
     1
 10
193.836777
 20
179.779236
 11
201.036774
 21
179.779236
  0
LINE
  8
0
 62
     1
 10
201.036774
 20
176.669235
 11
207.936783
 21
176.669235
  0
LINE
  8
0
 62
     1
 10
201.036774
 20
167.889236
 11
207.936783
 21
167.889236
  0
LINE
  8
0
 62
     1
 10
193.836777
 20
175.177979
 11
201.036774
 21
175.177979
  0
LINE
  8
0
 62
     1
 10
193.836777
 20
169.380493
 11
201.036774
 21
169.380493
  0
LINE
  8
0
 62
     1
 10
196.163971
 20
173.127823
 11
196.588242
 21
173.552094
  0
LINE
  8
0
 62
     1
 10
198.285294
 20
171.006500
 11
198.709564
 21
171.430771
  0
LINE
  8
0
 62
     1
 10
196.163956
 20
171.430756
 11
196.588226
 21
171.855026
  0
LINE
  8
0
 62
     1
 10
196.588226
 20
171.006485
 11
197.012497
 21
171.430756
  0
LINE
  8
0
 62
     1
 10
196.164047
 20
171.430756
 11
196.588303
 21
171.006500
  0
LINE
  8
0
 62
     1
 10
198.285385
 20
173.552094
 11
198.709656
 21
173.127823
  0
LINE
  8
0
 62
     1
 10
196.164047
 20
173.127777
 11
196.588318
 21
172.703506
  0
LINE
  8
0
 62
     1
 10
196.588333
 20
173.552094
 11
197.012589
 21
173.127823
  0
LINE
  8
0
 62
     1
 10
197.861038
 20
173.127823
 11
198.285278
 21
173.552078
  0
LINE
  8
0
 62
     1
 10
198.285278
 20
172.703537
 11
198.709549
 21
173.127808
  0
LINE
  8
0
 62
     1
 10
197.861115
 20
171.430725
 11
198.285370
 21
171.006454
  0
LINE
  8
0
 62
     1
 10
198.285385
 20
171.855042
 11
198.709641
 21
171.430771
  0
LINE
  8
0
 10
140.436798
 20
171.925690
 11
150.436798
 21
171.925690
  0
LINE
  8
0
 10
150.436798
 20
171.925690
 11
150.436798
 21
169.779236
  0
LINE
  8
0
 10
140.436783
 20
171.925674
 11
150.436783
 21
169.779236
  0
LINE
  8
0
 10
150.436798
 20
171.925674
 11
140.436798
 21
169.779221
  0
LINE
  8
0
  6
CENTER
 10
137.436798
 20
172.279236
 11
210.936783
 21
172.279236
  0
LINE
  8
0
  6
CENTER
 10
171.936783
 20
177.779236
 11
179.936783
 21
177.779236
  0
LINE
  8
0
  6
CENTER
 10
175.936783
 20
181.779236
 11
175.936783
 21
173.779236
  0
LINE
  8
0
  6
CENTER
 10
175.936783
 20
162.779236
 11
175.936783
 21
170.779236
  0
LINE
  8
0
  6
CENTER
 10
171.936783
 20
166.779236
 11
179.936783
 21
166.779236
  0
LINE
  8
0
  6
CENTER
 62
     1
 10
179.936783
 20
165.888733
 11
217.936768
 21
165.888733
  0
LINE
  8
0
  6
CENTER
 62
     1
 10
179.936783
 20
178.669739
 11
217.936768
 21
178.669739
  0
LINE
  8
0
  6
CENTER
 62
     1
 10
197.436783
 20
175.779236
 11
197.436783
 21
168.779236
  0
LINE
  8
0
  6
CENTER
 10
63.436844
 20
45.779266
 11
63.436844
 21
92.836243
  0
LINE
  8
0
 62
     3
 10
49.186844
 20
78.000946
 11
49.186844
 21
76.557587
  0
LINE
  8
0
 62
     3
 10
51.686844
 20
78.000946
 11
51.686844
 21
76.557587
  0
LINE
  8
0
 62
     3
 10
49.186829
 20
78.000961
 11
50.436840
 21
78.722656
  0
LINE
  8
0
 62
     3
 10
50.436848
 20
75.835899
 11
51.686859
 21
76.557594
  0
LINE
  8
0
 62
     3
 10
50.436760
 20
78.722450
 11
51.686771
 21
78.000755
  0
LINE
  8
0
 62
     3
 10
49.186787
 20
76.557411
 11
50.436798
 21
75.835716
  0
LINE
  8
0
 62
     3
 10
74.686859
 20
79.557587
 11
74.686859
 21
81.000946
  0
LINE
  8
0
 62
     3
 10
72.186859
 20
79.557587
 11
72.186859
 21
81.000946
  0
LINE
  8
0
 62
     3
 10
74.686874
 20
79.557510
 11
73.436874
 21
78.835823
  0
LINE
  8
0
 62
     3
 10
73.436882
 20
81.722595
 11
72.186867
 21
81.000900
  0
LINE
  8
0
 62
     3
 10
73.436836
 20
78.835823
 11
72.186821
 21
79.557518
  0
LINE
  8
0
 62
     3
 10
74.686836
 20
81.000908
 11
73.436821
 21
81.722603
  0
LINE
  8
0
 10
63.790363
 20
69.754059
 11
65.911682
 21
67.632736
  0
LINE
  8
0
 10
46.936844
 20
85.779266
 11
79.936836
 21
85.779266
  0
LINE
  8
0
 10
81.936844
 20
83.779266
 11
81.936844
 21
50.779266
  0
LINE
  8
0
 10
44.936844
 20
83.779266
 11
44.936844
 21
50.779266
  0
LINE
  8
0
 10
46.936844
 20
48.779282
 11
79.936836
 21
48.779282
  0
LINE
  8
0
 62
     1
 10
59.046837
 20
86.079285
 11
67.826836
 21
86.079285
  0
LINE
  8
0
 62
     1
 10
67.826843
 20
86.079269
 11
67.826843
 21
85.779266
  0
LINE
  8
0
 62
     1
 10
59.046844
 20
86.079269
 11
59.046844
 21
85.779266
  0
LINE
  8
0
 62
     1
 10
60.538094
 20
87.836243
 11
66.335579
 21
87.836243
  0
LINE
  8
0
 62
     1
 10
55.936844
 20
86.341202
 11
55.936844
 21
85.779266
  0
LINE
  8
0
 62
     1
 10
70.936844
 20
86.341202
 11
70.936844
 21
85.779266
  0
LINE
  8
0
 62
     1
 10
55.936852
 20
86.341156
 11
60.538105
 21
87.836197
  0
LINE
  8
0
 62
     1
 10
66.335579
 20
87.836227
 11
70.936852
 21
86.341187
  0
LINE
  8
0
 62
     1
 10
66.236847
 20
88.351105
 11
66.236847
 21
87.836243
  0
LINE
  8
0
 62
     1
 10
60.636841
 20
88.351105
 11
60.636841
 21
87.836243
  0
LINE
  8
0
 62
     3
 10
52.186844
 20
55.000946
 11
52.186844
 21
53.557587
  0
LINE
  8
0
 62
     3
 10
54.686844
 20
55.000946
 11
54.686844
 21
53.557587
  0
LINE
  8
0
 62
     3
 10
52.186871
 20
55.000931
 11
53.436859
 21
55.722610
  0
LINE
  8
0
 62
     3
 10
53.436832
 20
52.835899
 11
54.686848
 21
53.557594
  0
LINE
  8
0
 62
     3
 10
53.436745
 20
55.722481
 11
54.686760
 21
55.000786
  0
LINE
  8
0
 62
     3
 10
52.186741
 20
53.557411
 11
53.436756
 21
52.835716
  0
LINE
  8
0
 62
     3
 10
75.715157
 20
56.029282
 11
77.158531
 21
56.029282
  0
LINE
  8
0
 62
     3
 10
75.715157
 20
58.529282
 11
77.158531
 21
58.529282
  0
LINE
  8
0
 62
     3
 10
75.715012
 20
56.029228
 11
74.993317
 21
57.279240
  0
LINE
  8
0
 62
     3
 10
77.880112
 20
57.279251
 11
77.158417
 21
58.529263
  0
LINE
  8
0
 62
     3
 10
74.993492
 20
57.279251
 11
75.715187
 21
58.529263
  0
LINE
  8
0
 62
     3
 10
77.158577
 20
56.029247
 11
77.880272
 21
57.279263
  0
LINE
  8
0
  6
CENTER
 10
41.936844
 20
67.279266
 11
84.936836
 21
67.279266
  0
LINE
  8
0
  6
CENTER
 10
51.436844
 20
82.279297
 11
45.436844
 21
82.279297
  0
LINE
  8
0
  6
CENTER
 10
48.436859
 20
79.279266
 11
48.436859
 21
85.279266
  0
LINE
  8
0
  6
CENTER
 10
50.436844
 20
81.779266
 11
50.436844
 21
72.779266
  0
LINE
  8
0
  6
CENTER
 10
54.936844
 20
77.279297
 11
45.936844
 21
77.279297
  0
LINE
  8
0
  6
CENTER
 10
48.436844
 20
55.279266
 11
48.436844
 21
49.279266
  0
LINE
  8
0
  6
CENTER
 10
51.436844
 20
52.279297
 11
45.436844
 21
52.279297
  0
LINE
  8
0
  6
CENTER
 10
48.936844
 20
54.279282
 11
57.936836
 21
54.279282
  0
LINE
  8
0
  6
CENTER
 10
53.436844
 20
58.779266
 11
53.436844
 21
49.779266
  0
LINE
  8
0
  6
CENTER
 10
76.436859
 20
52.779266
 11
76.436859
 21
61.779266
  0
LINE
  8
0
  6
CENTER
 10
71.936836
 20
57.279282
 11
80.936836
 21
57.279282
  0
LINE
  8
0
  6
CENTER
 10
78.436844
 20
55.279266
 11
78.436844
 21
49.279266
  0
LINE
  8
0
  6
CENTER
 10
75.436836
 20
52.279282
 11
81.436836
 21
52.279282
  0
LINE
  8
0
  6
CENTER
 10
77.936836
 20
80.279282
 11
68.936836
 21
80.279282
  0
LINE
  8
0
  6
CENTER
 10
73.436859
 20
75.779266
 11
73.436859
 21
84.779266
  0
LINE
  8
0
  6
CENTER
 10
75.436836
 20
82.279266
 11
81.436836
 21
82.279266
  0
LINE
  8
0
  6
CENTER
 10
78.436859
 20
79.279266
 11
78.436859
 21
85.279266
  0
LINE
  8
0
 10
309.936768
 20
85.779251
 11
300.936768
 21
85.779251
  0
LINE
  8
0
 10
311.936768
 20
83.779236
 11
311.936768
 21
50.779236
  0
LINE
  8
0
 10
309.936768
 20
48.779251
 11
276.936768
 21
48.779251
  0
LINE
  8
0
 10
274.936768
 20
83.779236
 11
274.936768
 21
50.779236
  0
LINE
  8
0
 10
275.936768
 20
55.529251
 11
278.436768
 21
55.529251
  0
LINE
  8
0
 10
275.936768
 20
79.029251
 11
278.436768
 21
79.029251
  0
LINE
  8
0
 10
305.186768
 20
84.779236
 11
305.186768
 21
82.279236
  0
LINE
  8
0
 10
281.686768
 20
84.779236
 11
281.686768
 21
82.279236
  0
LINE
  8
0
 10
281.686768
 20
52.279236
 11
281.686768
 21
49.779236
  0
LINE
  8
0
 10
305.186768
 20
52.279236
 11
305.186768
 21
49.779236
  0
LINE
  8
0
 10
308.436768
 20
79.029251
 11
310.936768
 21
79.029251
  0
LINE
  8
0
 10
308.436768
 20
55.529251
 11
310.936768
 21
55.529251
  0
LINE
  8
0
 62
     1
 10
309.686768
 20
76.029236
 11
309.686768
 21
58.529236
  0
LINE
  8
0
 62
     1
 10
277.186768
 20
76.029236
 11
277.186768
 21
58.529236
  0
LINE
  8
0
 62
     1
 10
308.511475
 20
77.044998
 11
308.760742
 21
77.026512
  0
LINE
  8
0
 62
     1
 10
278.362122
 20
77.044983
 11
278.112823
 21
77.026489
  0
LINE
  8
0
 62
     1
 10
308.511444
 20
57.513538
 11
308.760742
 21
57.532032
  0
LINE
  8
0
 62
     1
 10
278.362122
 20
57.513279
 11
278.112823
 21
57.531773
  0
LINE
  8
0
 62
     1
 10
296.936768
 20
56.353973
 11
296.936768
 21
51.779236
  0
LINE
  8
0
 62
     1
 10
289.936768
 20
56.353973
 11
289.936768
 21
51.779236
  0
LINE
  8
0
 62
     1
 10
290.636780
 20
56.353973
 11
290.636780
 21
51.279236
  0
LINE
  8
0
 62
     1
 10
296.236755
 20
56.353973
 11
296.236755
 21
51.279236
  0
LINE
  8
0
 62
     1
 10
289.936768
 20
56.353989
 11
296.936768
 21
56.353989
  0
LINE
  8
0
 62
     1
 10
290.636780
 20
54.204529
 11
296.236786
 21
54.204529
  0
LINE
  8
0
 62
     1
 10
286.414307
 20
80.579506
 11
285.046234
 21
84.338295
  0
LINE
  8
0
 62
     1
 10
290.267029
 20
81.981789
 11
288.898926
 21
85.740578
  0
LINE
  8
0
 62
     1
 10
300.459259
 20
80.579483
 11
301.827332
 21
84.338257
  0
LINE
  8
0
 62
     1
 10
296.606598
 20
81.981766
 11
297.974670
 21
85.740540
  0
LINE
  8
0
 62
     1
 10
296.606506
 20
81.981758
 11
300.459229
 21
80.579483
  0
LINE
  8
0
 62
     1
 10
286.414246
 20
80.579651
 11
290.266968
 21
81.981918
  0
LINE
  8
0
 62
     1
 10
303.186768
 20
83.831238
 11
303.186768
 21
82.779236
  0
LINE
  8
0
 62
     1
 10
283.686768
 20
83.831238
 11
283.686768
 21
82.779236
  0
LINE
  8
0
 62
     1
 10
284.686768
 20
50.779251
 11
302.186768
 21
50.779251
  0
LINE
  8
0
 10
285.936768
 20
85.779251
 11
276.936768
 21
85.779251
  0
LINE
  8
0
 62
     1
 10
289.046783
 20
86.079254
 11
297.826782
 21
86.079254
  0
LINE
  8
0
 62
     1
 10
285.936768
 20
85.153900
 11
287.287048
 21
85.153900
  0
LINE
  8
0
 62
     1
 10
299.586487
 20
85.153900
 11
300.936768
 21
85.153900
  0
LINE
  8
0
 62
     1
 10
290.636780
 20
88.351059
 11
290.636780
 21
87.836212
  0
LINE
  8
0
 62
     1
 10
297.826782
 20
86.079239
 11
297.826782
 21
85.334457
  0
LINE
  8
0
 62
     1
 10
289.046783
 20
86.079239
 11
289.046783
 21
85.334457
  0
LINE
  8
0
 62
     1
 10
296.335510
 20
87.836174
 11
300.936768
 21
86.341141
  0
LINE
  8
0
 62
     1
 10
296.236755
 20
88.351059
 11
296.236755
 21
87.836212
  0
LINE
  8
0
 62
     1
 10
290.538025
 20
87.836227
 11
296.335510
 21
87.836227
  0
LINE
  8
0
 62
     1
 10
285.936768
 20
86.341171
 11
285.936768
 21
85.153885
  0
LINE
  8
0
 62
     1
 10
300.936768
 20
86.341171
 11
300.936768
 21
85.153885
  0
LINE
  8
0
 62
     1
 10
285.936768
 20
86.341156
 11
290.537994
 21
87.836189
  0
LINE
  8
0
 62
     1
 10
285.046173
 20
84.338394
 11
288.898926
 21
85.740677
  0
LINE
  8
0
 62
     1
 10
297.974579
 20
85.740517
 11
301.827271
 21
84.338249
  0
LINE
  8
0
  6
CENTER
 10
293.436768
 20
92.836212
 11
293.436768
 21
45.779236
  0
LINE
  8
0
  6
CENTER
 10
271.936768
 20
67.279251
 11
314.936768
 21
67.279251
  0
LINE
  8
0
  6
CENTER
 62
     1
 10
297.848877
 20
79.401253
 11
300.585052
 21
86.918793
  0
LINE
  8
0
  6
CENTER
 62
     1
 10
289.024689
 20
79.401276
 11
286.288544
 21
86.918816
  0
LINE
  8
0
  6
CENTER
 10
278.436768
 20
79.279236
 11
278.436768
 21
85.279236
  0
LINE
  8
0
  6
CENTER
 10
281.436768
 20
82.279251
 11
275.436768
 21
82.279251
  0
LINE
  8
0
  6
CENTER
 10
281.436768
 20
52.279251
 11
275.436768
 21
52.279251
  0
LINE
  8
0
  6
CENTER
 10
278.436768
 20
55.279236
 11
278.436768
 21
49.279236
  0
LINE
  8
0
  6
CENTER
 10
305.436768
 20
52.279266
 11
311.436768
 21
52.279266
  0
LINE
  8
0
  6
CENTER
 10
308.436768
 20
55.279236
 11
308.436768
 21
49.279236
  0
LINE
  8
0
  6
CENTER
 10
305.436768
 20
82.279251
 11
311.436768
 21
82.279251
  0
LINE
  8
0
  6
CENTER
 10
308.436768
 20
79.279236
 11
308.436768
 21
85.279236
  0
ARC
  8
0
 62
     1
 10
215.661530
 20
84.465363
 40
0.775251
 50
290.795349
 51
90.000000
  0
ARC
  8
0
 62
     1
 10
199.570114
 20
88.351059
 40
0.666672
 50
0.000000
 51
60.508053
  0
ARC
  8
0
 62
     1
 10
216.249283
 20
82.990616
 40
0.812500
 50
112.619865
 51
247.380142
  0
ARC
  8
0
 62
     1
 10
215.624283
 20
82.990616
 40
0.812500
 50
292.619873
 51
67.380135
  0
ARC
  8
0
 62
     1
 10
195.303452
 20
88.351059
 40
0.666668
 50
119.491943
 51
180.000000
  0
ARC
  8
0
 62
     1
 10
197.436783
 20
84.579239
 40
4.999995
 50
60.507675
 51
119.492325
  0
ARC
  8
0
 10
149.534988
 20
68.706009
 40
1.401806
 50
310.039825
 51
49.960178
  0
ARC
  8
0
 62
     1
 10
182.236771
 20
51.329239
 40
0.300003
 50
180.000000
 51
270.000000
  0
ARC
  8
0
 62
     1
 10
206.076782
 20
173.979233
 40
0.300003
 50
0.000000
 51
90.000000
  0
ARC
  8
0
 62
     1
 10
215.661530
 20
179.394485
 40
0.775251
 50
290.795349
 51
90.000000
  0
ARC
  8
0
 10
149.534973
 20
170.852463
 40
1.401812
 50
310.039612
 51
49.960381
  0
ARC
  8
0
 62
     1
 10
197.436783
 20
171.006439
 40
0.600009
 50
45.000000
 51
135.000000
  0
ARC
  8
0
 62
     1
 10
198.709564
 20
172.279236
 40
0.600009
 50
135.000000
 51
225.000000
  0
ARC
  8
0
 62
     1
 10
196.163986
 20
172.279236
 40
0.600009
 50
315.000000
 51
45.000000
  0
ARC
  8
0
 62
     1
 10
197.436783
 20
173.552032
 40
0.600009
 50
225.000000
 51
315.000000
  0
CIRCLE
  8
0
 62
     1
 10
197.436783
 20
172.279236
 40
2.799999
  0
ARC
  8
0
 62
     1
 10
215.624283
 20
166.638733
 40
0.812500
 50
292.619873
 51
67.380135
  0
ARC
  8
0
 62
     1
 10
216.249283
 20
166.638733
 40
0.812500
 50
112.619865
 51
247.380142
  0
ARC
  8
0
 62
     1
 10
215.661530
 20
165.163986
 40
0.775253
 50
270.000000
 51
69.203606
  0
ARC
  8
0
 62
     1
 10
216.249283
 20
177.919739
 40
0.812500
 50
112.619865
 51
247.380142
  0
ARC
  8
0
 62
     1
 10
215.624283
 20
177.919739
 40
0.812500
 50
292.619873
 51
67.380135
  0
ARC
  8
0
 62
     1
 10
206.076782
 20
170.579239
 40
0.300003
 50
270.000000
 51
0.000000
  0
ARC
  8
0
 62
     1
 10
203.676773
 20
170.579239
 40
0.300003
 50
180.000000
 51
270.000000
  0
ARC
  8
0
 62
     1
 10
203.676773
 20
173.979233
 40
0.300003
 50
90.000000
 51
180.000000
  0
CIRCLE
  8
0
 10
175.936783
 20
177.779236
 40
2.099999
  0
CIRCLE
  8
0
 10
175.936783
 20
166.779236
 40
2.500000
  0
CIRCLE
  8
0
 10
175.936783
 20
166.779236
 40
2.099999
  0
ARC
  8
0
 62
     1
 10
182.236771
 20
188.229233
 40
0.300003
 50
90.000000
 51
180.000000
  0
ARC
  8
0
 62
     1
 10
182.236771
 20
156.329239
 40
0.300003
 50
180.000000
 51
270.000000
  0
CIRCLE
  8
0
 10
175.936783
 20
177.779236
 40
2.500000
  0
CIRCLE
  8
0
 10
48.436844
 20
82.279266
 40
2.000000
  0
CIRCLE
  8
0
 10
63.436836
 20
67.279266
 40
2.500000
  0
CIRCLE
  8
0
 10
78.436836
 20
52.279266
 40
1.650000
  0
CIRCLE
  8
0
 10
78.436836
 20
52.279266
 40
2.000000
  0
CIRCLE
  8
0
 62
     3
 10
76.436836
 20
57.279266
 40
2.750000
  0
CIRCLE
  8
0
 10
76.436836
 20
57.279266
 40
3.000000
  0
CIRCLE
  8
0
 10
48.436844
 20
52.279266
 40
1.650000
  0
CIRCLE
  8
0
 10
48.436844
 20
52.279266
 40
2.000000
  0
CIRCLE
  8
0
 62
     3
 10
53.436844
 20
54.279266
 40
2.750000
  0
CIRCLE
  8
0
 10
53.436844
 20
54.279266
 40
3.000000
  0
CIRCLE
  8
0
 10
63.436836
 20
67.279266
 40
2.000000
  0
ARC
  8
0
 62
     1
 10
65.570168
 20
88.351105
 40
0.666664
 50
0.000000
 51
60.508053
  0
ARC
  8
0
 62
     1
 10
63.436836
 20
84.579269
 40
4.999995
 50
60.507675
 51
119.492363
  0
ARC
  8
0
 62
     1
 10
61.303505
 20
88.351105
 40
0.666670
 50
119.492233
 51
180.000000
  0
CIRCLE
  8
0
 10
78.436836
 20
82.279266
 40
1.650000
  0
ARC
  8
0
 10
46.936844
 20
50.779266
 40
2.000000
 50
180.000000
 51
270.000000
  0
ARC
  8
0
 10
46.936844
 20
83.779266
 40
2.000000
 50
90.000000
 51
180.000000
  0
ARC
  8
0
 10
79.936836
 20
50.779266
 40
2.000000
 50
270.000000
 51
0.000000
  0
ARC
  8
0
 10
79.936836
 20
83.779266
 40
2.000000
 50
0.000000
 51
90.000000
  0
CIRCLE
  8
0
 10
48.436844
 20
82.279266
 40
1.650000
  0
CIRCLE
  8
0
 10
78.436836
 20
82.279266
 40
2.000000
  0
CIRCLE
  8
0
 62
     3
 10
73.436836
 20
80.279266
 40
2.750000
  0
CIRCLE
  8
0
 62
     3
 10
50.436844
 20
77.279266
 40
2.750000
  0
CIRCLE
  8
0
 10
63.436836
 20
67.279266
 40
7.000000
  0
CIRCLE
  8
0
 10
50.436844
 20
77.279266
 40
3.000000
  0
CIRCLE
  8
0
 10
73.436836
 20
80.279266
 40
3.000000
  0
ARC
  8
0
 62
     1
 10
302.186768
 20
51.779236
 40
1.000000
 50
270.000000
 51
0.000000
  0
ARC
  8
0
 62
     1
 10
278.186768
 20
58.529236
 40
1.000000
 50
180.000000
 51
265.757690
  0
ARC
  8
0
 62
     1
 10
291.303467
 20
88.351059
 40
0.666675
 50
119.493088
 51
180.000000
  0
ARC
  8
0
 62
     1
 10
293.436768
 20
84.579239
 40
5.000003
 50
60.507523
 51
119.492477
  0
ARC
  8
0
 62
     1
 10
295.570129
 20
88.351059
 40
0.666656
 50
0.000000
 51
60.506912
  0
ARC
  8
0
 62
     1
 10
284.434784
 20
83.831238
 40
0.747991
 50
20.000082
 51
180.000000
  0
CIRCLE
  8
0
 62
     1
 10
287.656647
 20
83.160034
 40
1.500000
  0
ARC
  8
0
 62
     1
 10
302.438782
 20
83.831238
 40
0.747986
 50
0.000000
 51
159.999924
  0
CIRCLE
  8
0
 62
     1
 10
299.216919
 20
83.160034
 40
1.500000
  0
ARC
  8
0
 62
     1
 10
295.736755
 20
51.279236
 40
0.500000
 50
270.000000
 51
0.000000
  0
ARC
  8
0
 62
     1
 10
291.136780
 20
51.279236
 40
0.500000
 50
180.000000
 51
270.000000
  0
ARC
  8
0
 62
     1
 10
288.936768
 20
51.779236
 40
1.000000
 50
270.000000
 51
0.000000
  0
ARC
  8
0
 62
     1
 10
297.936768
 20
51.779236
 40
1.000000
 50
180.000000
 51
270.000000
  0
ARC
  8
0
 62
     1
 10
284.686768
 20
51.779236
 40
1.000000
 50
180.000000
 51
270.000000
  0
ARC
  8
0
 62
     1
 10
277.936768
 20
51.779236
 40
5.750000
 50
0.000000
 51
85.757690
  0
ARC
  8
0
 62
     1
 10
308.686768
 20
58.529236
 40
1.000001
 50
274.242310
 51
0.000000
  0
ARC
  8
0
 62
     1
 10
308.936768
 20
51.779236
 40
5.750000
 50
94.242310
 51
179.999969
  0
ARC
  8
0
 10
309.936768
 20
83.779236
 40
2.000000
 50
0.000000
 51
90.000000
  0
CIRCLE
  8
0
 10
308.436768
 20
82.279236
 40
1.650000
  0
CIRCLE
  8
0
 10
308.436768
 20
52.279236
 40
1.650000
  0
ARC
  8
0
 10
309.936768
 20
50.779236
 40
2.000000
 50
270.000000
 51
0.000000
  0
CIRCLE
  8
0
 10
278.436768
 20
52.279236
 40
1.650000
  0
ARC
  8
0
 10
276.936768
 20
50.779236
 40
2.000000
 50
180.000000
 51
270.000000
  0
ARC
  8
0
 10
276.936768
 20
83.779236
 40
2.000000
 50
90.000000
 51
180.000000
  0
CIRCLE
  8
0
 10
278.436768
 20
82.279236
 40
1.650000
  0
ARC
  8
0
 10
308.436768
 20
52.279236
 40
3.250000
 50
90.000000
 51
179.999939
  0
ARC
  8
0
 10
308.436768
 20
82.279236
 40
3.250000
 50
180.000000
 51
270.000000
  0
ARC
  8
0
 10
278.436768
 20
82.279236
 40
3.250000
 50
270.000000
 51
0.000000
  0
ARC
  8
0
 10
278.436768
 20
52.279236
 40
3.250000
 50
0.000000
 51
90.000000
  0
ARC
  8
0
 10
282.686768
 20
84.779236
 40
1.000000
 50
90.000000
 51
180.000000
  0
ARC
  8
0
 10
304.186768
 20
84.779236
 40
1.000000
 50
0.000000
 51
90.000000
  0
ARC
  8
0
 10
310.936768
 20
78.029236
 40
1.000000
 50
0.000000
 51
90.000000
  0
ARC
  8
0
 10
310.936768
 20
56.529236
 40
1.000000
 50
270.000000
 51
0.000000
  0
ARC
  8
0
 10
304.186768
 20
49.779236
 40
1.000000
 50
270.000000
 51
0.000000
  0
ARC
  8
0
 10
282.686768
 20
49.779236
 40
1.000000
 50
180.000000
 51
270.000000
  0
ARC
  8
0
 10
275.936768
 20
56.529236
 40
1.000000
 50
180.000000
 51
270.000000
  0
ARC
  8
0
 10
275.936768
 20
78.029236
 40
1.000000
 50
90.000000
 51
180.000000
  0
ARC
  8
0
 62
     1
 10
308.936768
 20
82.779236
 40
5.750000
 50
180.000000
 51
265.757690
  0
ARC
  8
0
 62
     1
 10
308.686768
 20
76.029236
 40
1.000000
 50
0.000000
 51
85.757698
  0
ARC
  8
0
 62
     1
 10
277.936768
 20
82.779236
 40
5.750000
 50
274.242310
 51
0.000000
  0
ARC
  8
0
 62
     1
 10
278.186768
 20
76.029236
 40
1.000001
 50
94.242302
 51
180.000000
  0
TEXT
  8
0
 10
298.797760
 20
244.589584
 40
4.242641
  1
DATE : FEB ,1992
 50
0.000000
 41
1.052631
 51
0.000000
  7
STANDARD
  0
TEXT
  8
0
 10
32.035717
 20
201.757431
 40
5.000000
  1
MODEL : RANS3-*-4
 50
0.000000
 41
1.052632
 51
0.000000
  7
STANDARD
  0
TEXT
  8
0
 10
2.113382
 20
243.907959
 40
5.000000
  1
ROTARY ACUTUATOR
 50
0.000000
 41
0.937799
 51
0.000000
  7
STANDARD
  0
TEXT
  8
0
 10
302.273193
 20
3.650512
 40
5.000000
  1
KOGANEI,CORP
 50
0.000000
 41
1.052632
 51
0.000000
  7
STANDARD
  0
LINE
  8
0
 10
177.186768
 20
179.944305
 11
192.102554
 21
205.779221
  0
LINE
  8
0
 10
192.102554
 20
205.779221
 11
207.471359
 21
205.779251
  0
LINE
  8
0
 10
177.186768
 20
179.944305
 11
179.308090
 21
182.065628
  0
LINE
  8
0
 10
177.186768
 20
179.944305
 11
177.963226
 21
182.842087
  0
TEXT
  8
0
 10
192.721359
 20
206.779251
 40
3.500000
  1
2-M5
 50
0.000000
 41
1.052632
 51
0.000000
  7
STANDARD
  0
ENDSEC
  0
EOF
