  0
SECTION
  2
HEADER
  0
ENDSEC
  0
SECTION
  2
TABLES
  0
TABLE
  2
LTYPE
 70
     4
  0
LTYPE
  2
CONTINUOUS
 70
    64
  3
Solid line
 72
    65
 73
     0
 40
0.000000
  0
LTYPE
  2
DASHED
 70
    64
  3
__ __ __ __ __ __ __ __ __ __ __ __ __ __ __
 72
    65
 73
     2
 40
3.500000
 49
2.000000
 49
-1.500000
  0
LTYPE
  2
CENTER
 70
    64
  3
____ _ ____ _ ____ _ ____ _ ____ _ ____ _ ____
 72
    65
 73
     4
 40
17.500000
 49
13.000000
 49
-1.500000
 49
1.500000
 49
-1.500000
  0
LTYPE
  2
PHANTOM
 70
    64
  3
_____ _ _ _____ _ _ _____ _ _ _____ _ _ ____  
 72
    65
 73
     6
 40
15.500000
 49
8.000000
 49
-1.500000
 49
1.500000
 49
-1.500000
 49
1.500000
 49
-1.500000
  0
LTYPE
  2
DASHED1
 70
    64
  3
__ __ __ __ __ __ __ __ __ __ __ __ __ __ __
 72
    65
 73
     2
 40
1.500000
 49
1.000000
 49
-0.500000
  0
LTYPE
  2
DASHED2
 70
    64
  3
__ __ __ __ __ __ __ __ __ __ __ __ __ __ __
 72
    65
 73
     2
 40
3.500000
 49
2.500000
 49
-1.000000
  0
LTYPE
  2
DASHED3
 70
    64
  3
__ __ __ __ __ __ __ __ __ __ __ __ __ __ __
 72
    65
 73
     2
 40
6.000000
 49
4.000000
 49
-2.000000
  0
LTYPE
  2
DASHED4
 70
    64
  3
__ __ __ __ __ __ __ __ __ __ __ __ __ __ __
 72
    65
 73
     2
 40
12.000000
 49
10.000000
 49
-2.000000
  0
LTYPE
  2
DASHED5
 70
    64
  3
__ __ __ __ __ __ __ __ __ __ __ __ __ __ __
 72
    65
 73
     2
 40
17.000000
 49
15.000000
 49
-2.000000
  0
LTYPE
  2
DASHED6
 70
    64
  3
__ __ __ __ __ __ __ __ __ __ __ __ __ __ __
 72
    65
 73
     2
 40
29.000000
 49
27.000000
 49
-2.000000
  0
LTYPE
  2
PHANTOM1
 70
    64
  3
_____ _ _ _____ _ _ _____ _ _ _____ _ _ ____  
 72
    65
 73
     6
 40
31.000000
 49
25.000000
 49
-1.500000
 49
1.000000
 49
-1.000000
 49
1.000000
 49
-1.500000
  0
LTYPE
  2
PHANTOM2
 70
    64
  3
_____ _ _ _____ _ _ _____ _ _ _____ _ _ ____  
 72
    65
 73
     6
 40
36.000000
 49
27.000000
 49
-1.500000
 49
2.500000
 49
-1.000000
 49
2.500000
 49
-1.500000
  0
LTYPE
  2
PHANTOM3
 70
    64
  3
_____ _ _ _____ _ _ _____ _ _ _____ _ _ ____  
 72
    65
 73
     6
 40
78.000000
 49
64.000000
 49
-2.000000
 49
4.000000
 49
-2.000000
 49
4.000000
 49
-2.000000
  0
LTYPE
  2
CENTER1
 70
    64
  3
____ _ ____ _ ____ _ ____ _ ____ _ ____ _ ____
 72
    65
 73
     4
 40
19.000000
 49
14.000000
 49
-1.000000
 49
3.000000
 49
-1.000000
  0
LTYPE
  2
CENTER2
 70
    64
  3
____ _ ____ _ ____ _ ____ _ ____ _ ____ _ ____
 72
    65
 73
     4
 40
28.500000
 49
25.000000
 49
-1.000000
 49
1.500000
 49
-1.000000
  0
LTYPE
  2
CENTER3
 70
    64
  3
____ _ ____ _ ____ _ ____ _ ____ _ ____ _ ____
 72
    65
 73
     4
 40
31.500000
 49
27.000000
 49
-1.000000
 49
2.500000
 49
-1.000000
  0
LTYPE
  2
CENTER4
 70
    64
  3
____ _ ____ _ ____ _ ____ _ ____ _ ____ _ ____
 72
    65
 73
     4
 40
50.000000
 49
45.000000
 49
-1.000000
 49
3.000000
 49
-1.000000
  0
LTYPE
  2
CENTER5
 70
    64
  3
____ _ ____ _ ____ _ ____ _ ____ _ ____ _ ____
 72
    65
 73
     4
 40
100.000000
 49
92.000000
 49
-2.000000
 49
4.000000
 49
-2.000000
  0
LTYPE
  2
SBK1
 70
    64
  3
______ _ _ _ ______ _ _ _ ______ _ _ _ _____  
 72
    65
 73
     8
 40
60.500000
 49
45.000000
 49
-2.000000
 49
2.500000
 49
-2.000000
 49
2.500000
 49
-2.000000
 49
2.500000
 49
-2.000000
  0
LTYPE
  2
SBK2
 70
    64
  3
______ _ _ _ ______ _ _ _ ______ _ _ _ _____  
 72
    65
 73
     8
 40
84.000000
 49
64.000000
 49
-2.000000
 49
4.000000
 49
-2.000000
 49
4.000000
 49
-2.000000
 49
4.000000
 49
-2.000000
  0
LTYPE
  2
STCH
 70
    64
  3
__ __ __ __ __ __ __ __ __ __ __ __ __ __ __
 72
    65
 73
     2
 40
3.000000
 49
1.000000
 49
-2.000000
  0
LTYPE
  2
MTCH
 70
    64
  3
_____ _ _ _____ _ _ _____ _ _ _____ _ _ ____  
 72
    65
 73
     6
 40
80.000000
 49
66.000000
 49
-2.000000
 49
4.000000
 49
-2.000000
 49
4.000000
 49
-2.000000
  0
ENDTAB
  0
TABLE
  2
LAYER
 70
     1
  0
LAYER
  2
0
 70
     0
 62
     7
  6
CONTINUOUS
  0
ENDTAB
  0
TABLE
  2
STYLE
 70
     1
  0
STYLE
  2
STANDARD
 70
     0
 40
0.000000
 41
1.000000
 50
0.000000
 71
     0
 42
0.200000
  3
txt
  4
BIGFONT
  0
ENDTAB
  0
TABLE
  2
VIEW
 70
     0
  0
ENDTAB
  0
ENDSEC
  0
SECTION
  2
BLOCKS
  0
ENDSEC
  0
SECTION
  2
ENTITIES
  0
POINT
  8
0
 10
185.436783
 20
127.279236
  0
POINT
  8
0
 10
61.436775
 20
67.279236
  0
POINT
  8
0
 10
160.436783
 20
67.279236
  0
POINT
  8
0
 10
160.436783
 20
167.279236
  0
POINT
  8
0
 10
293.436768
 20
67.279243
  0
POINT
  8
0
 10
212.936783
 20
67.279236
  0
POINT
  8
0
 10
212.936783
 20
167.279236
  0
POINT
  8
0
 10
83.936775
 20
67.279236
  0
POINT
  8
0
 10
315.936768
 20
67.279243
  0
LINE
  8
0
 62
     3
 10
0.000000
 20
0.000000
 11
0.000000
 21
254.558472
  0
LINE
  8
0
 62
     3
 10
370.873566
 20
254.558472
 11
370.873566
 21
0.000000
  0
LINE
  8
0
 62
     3
 10
0.000000
 20
0.000000
 11
370.873566
 21
0.000000
  0
LINE
  8
0
 62
     3
 10
0.000000
 20
254.558472
 11
370.873566
 21
254.558472
  0
LINE
  8
0
 62
     3
 10
0.000000
 20
240.257431
 11
76.272194
 21
240.257431
  0
LINE
  8
0
 62
     3
 10
76.272194
 20
240.257431
 11
76.272194
 21
254.558472
  0
LINE
  8
0
 62
     3
 10
294.601379
 20
14.301025
 11
370.873566
 21
14.301025
  0
LINE
  8
0
 62
     3
 10
294.601379
 20
240.257431
 11
370.873566
 21
240.257431
  0
LINE
  8
0
 62
     3
 10
294.601379
 20
254.558472
 11
294.601379
 21
240.257431
  0
LINE
  8
0
 62
     3
 10
294.601379
 20
14.301025
 11
294.601379
 21
0.000000
  0
LINE
  8
0
 10
173.436783
 20
44.779236
 11
173.436783
 21
89.779236
  0
LINE
  8
0
 10
145.436783
 20
65.279236
 11
145.436783
 21
69.779236
  0
LINE
  8
0
 10
160.436783
 20
44.779236
 11
160.436783
 21
89.779236
  0
LINE
  8
0
 10
186.936783
 20
48.779236
 11
186.936783
 21
86.079239
  0
LINE
  8
0
 10
173.436783
 20
48.779236
 11
186.936783
 21
48.779236
  0
LINE
  8
0
 10
173.436783
 20
85.779236
 11
186.936783
 21
85.779236
  0
LINE
  8
0
 10
173.436783
 20
55.529236
 11
186.936783
 21
55.529236
  0
LINE
  8
0
 10
173.436783
 20
79.029236
 11
186.936783
 21
79.029236
  0
LINE
  8
0
 10
145.436783
 20
69.779236
 11
160.436783
 21
69.779236
  0
LINE
  8
0
 10
145.936783
 20
64.779236
 11
160.436783
 21
64.779236
  0
LINE
  8
0
 10
145.436935
 20
65.279381
 11
145.936935
 21
64.779373
  0
LINE
  8
0
 10
145.936783
 20
64.779236
 11
145.936783
 21
67.632782
  0
LINE
  8
0
 62
     1
 10
212.936783
 20
50.829239
 11
212.936783
 21
86.079239
  0
LINE
  8
0
 62
     1
 10
187.236771
 20
51.029236
 11
210.936783
 21
51.029236
  0
LINE
  8
0
 62
     1
 10
186.936783
 20
77.029236
 11
210.936783
 21
77.029236
  0
LINE
  8
0
 62
     1
 10
186.936783
 20
57.529236
 11
210.936783
 21
57.529236
  0
LINE
  8
0
 62
     1
 10
210.936783
 20
50.829239
 11
210.936783
 21
84.579239
  0
LINE
  8
0
 62
     1
 10
210.936783
 20
50.829239
 11
212.936783
 21
50.829239
  0
LINE
  8
0
 62
     1
 10
186.936783
 20
85.740616
 11
198.836777
 21
85.740616
  0
LINE
  8
0
 62
     1
 10
187.936783
 20
84.579239
 11
187.936783
 21
85.740616
  0
LINE
  8
0
 62
     1
 10
213.225464
 20
82.240616
 11
220.936783
 21
82.240616
  0
LINE
  8
0
 62
     1
 10
213.225464
 20
85.240616
 11
220.661530
 21
85.240616
  0
LINE
  8
0
 62
     1
 10
212.936737
 20
85.740585
 11
213.225418
 21
85.240578
  0
LINE
  8
0
 62
     1
 10
212.936722
 20
81.740120
 11
213.225693
 21
82.240616
  0
LINE
  8
0
 62
     1
 10
213.225464
 20
85.240616
 11
213.225464
 21
82.240097
  0
LINE
  8
0
 62
     1
 10
198.836777
 20
85.153885
 11
198.836777
 21
87.836212
  0
LINE
  8
0
 62
     1
 10
206.036774
 20
85.153885
 11
206.036774
 21
87.836212
  0
LINE
  8
0
 10
145.436783
 20
67.632782
 11
155.436783
 21
67.632782
  0
LINE
  8
0
 10
155.436783
 20
67.632782
 11
155.436783
 21
69.779236
  0
LINE
  8
0
 10
145.436783
 20
67.632812
 11
155.436783
 21
69.779259
  0
LINE
  8
0
 10
155.436798
 20
67.632835
 11
145.436813
 21
69.779282
  0
LINE
  8
0
 10
160.436783
 20
89.779236
 11
173.436783
 21
89.779236
  0
LINE
  8
0
 10
160.436783
 20
44.779236
 11
173.436783
 21
44.779236
  0
LINE
  8
0
 62
     1
 10
199.636780
 20
88.351059
 11
199.636780
 21
87.836212
  0
LINE
  8
0
 62
     1
 10
205.236771
 20
88.351059
 11
205.236771
 21
87.836212
  0
LINE
  8
0
 62
     1
 10
198.836777
 20
87.836212
 11
206.036774
 21
87.836212
  0
LINE
  8
0
 62
     1
 10
198.836777
 20
86.341171
 11
206.036774
 21
86.341171
  0
LINE
  8
0
 62
     1
 10
198.836777
 20
85.153885
 11
206.036774
 21
85.153885
  0
LINE
  8
0
 10
186.936783
 20
86.079239
 11
198.836777
 21
86.079239
  0
LINE
  8
0
 62
     1
 10
206.036774
 20
85.740616
 11
212.936783
 21
85.740616
  0
LINE
  8
0
 10
206.036774
 20
86.079239
 11
212.936783
 21
86.079239
  0
LINE
  8
0
 62
     1
 10
186.936783
 20
84.579239
 11
212.936783
 21
84.579239
  0
LINE
  8
0
 62
     1
 10
210.936783
 20
85.740616
 11
210.936783
 21
86.079239
  0
LINE
  8
0
  6
CENTER
 10
142.436783
 20
67.279236
 11
215.936783
 21
67.279236
  0
LINE
  8
0
  6
CENTER
 10
166.436783
 20
80.779236
 11
166.436783
 21
88.779236
  0
LINE
  8
0
  6
CENTER
 10
162.436783
 20
84.779236
 11
170.436783
 21
84.779236
  0
LINE
  8
0
  6
CENTER
 10
166.436783
 20
45.779236
 11
166.436783
 21
53.779236
  0
LINE
  8
0
  6
CENTER
 10
162.436783
 20
49.779236
 11
170.436783
 21
49.779236
  0
LINE
  8
0
  6
CENTER
 62
     1
 10
202.436783
 20
83.153885
 11
202.436783
 21
91.579239
  0
LINE
  8
0
  6
CENTER
 10
166.436783
 20
153.779236
 11
166.436783
 21
145.779236
  0
LINE
  8
0
 10
173.436783
 20
189.779236
 11
173.436783
 21
144.779236
  0
LINE
  8
0
 10
145.436798
 20
169.279236
 11
145.436798
 21
164.779236
  0
LINE
  8
0
 10
160.436783
 20
189.779236
 11
160.436783
 21
144.779236
  0
LINE
  8
0
 10
186.936783
 20
185.779236
 11
186.936783
 21
148.779236
  0
LINE
  8
0
 10
173.436783
 20
185.779236
 11
186.936783
 21
185.779236
  0
LINE
  8
0
 10
173.436783
 20
148.779236
 11
186.936783
 21
148.779236
  0
LINE
  8
0
 10
173.436783
 20
179.029236
 11
186.936783
 21
179.029236
  0
LINE
  8
0
 10
173.436783
 20
155.529236
 11
186.936783
 21
155.529236
  0
LINE
  8
0
 10
145.436798
 20
164.779236
 11
160.436783
 21
164.779236
  0
LINE
  8
0
 10
145.936783
 20
169.779236
 11
160.436783
 21
169.779236
  0
LINE
  8
0
 10
145.436996
 20
169.279007
 11
145.936996
 21
169.779022
  0
LINE
  8
0
 10
145.936783
 20
169.779236
 11
145.936783
 21
166.925690
  0
LINE
  8
0
 62
     1
 10
212.936783
 20
183.729233
 11
212.936783
 21
150.829239
  0
LINE
  8
0
 62
     1
 10
187.236771
 20
151.029236
 11
210.936783
 21
151.029236
  0
LINE
  8
0
 62
     1
 10
187.236771
 20
183.529236
 11
210.936783
 21
183.529236
  0
LINE
  8
0
 62
     1
 10
186.936783
 20
157.529236
 11
210.936783
 21
157.529236
  0
LINE
  8
0
 62
     1
 10
186.936783
 20
177.029236
 11
210.936783
 21
177.029236
  0
LINE
  8
0
 62
     1
 10
208.676773
 20
165.279236
 11
211.076782
 21
165.279236
  0
LINE
  8
0
 62
     1
 10
208.676773
 20
169.279236
 11
211.076782
 21
169.279236
  0
LINE
  8
0
 62
     1
 10
211.376785
 20
168.979233
 11
211.376785
 21
165.579239
  0
LINE
  8
0
 62
     1
 10
208.376785
 20
168.979233
 11
208.376785
 21
165.579239
  0
LINE
  8
0
 62
     1
 10
186.936783
 20
162.889236
 11
198.836777
 21
162.889236
  0
LINE
  8
0
 62
     1
 10
186.936783
 20
171.669235
 11
198.836777
 21
171.669235
  0
LINE
  8
0
 62
     1
 10
206.436783
 20
171.669235
 11
206.436783
 21
162.889236
  0
LINE
  8
0
 62
     1
 10
198.436783
 20
171.669235
 11
198.436783
 21
162.889236
  0
LINE
  8
0
 62
     1
 10
210.936783
 20
183.729233
 11
210.936783
 21
175.669739
  0
LINE
  8
0
 62
     1
 10
210.936783
 20
158.888733
 11
210.936783
 21
150.829239
  0
LINE
  8
0
 62
     1
 10
210.936783
 20
150.829239
 11
212.936783
 21
150.829239
  0
LINE
  8
0
 62
     1
 10
210.936783
 20
183.729233
 11
212.936783
 21
183.729233
  0
LINE
  8
0
 62
     1
 10
186.936783
 20
175.669739
 11
212.936783
 21
175.669739
  0
LINE
  8
0
 62
     1
 10
186.936783
 20
158.888733
 11
212.936783
 21
158.888733
  0
LINE
  8
0
 62
     1
 10
187.936783
 20
175.669739
 11
187.936783
 21
171.669235
  0
LINE
  8
0
 62
     1
 10
187.936783
 20
162.889236
 11
187.936783
 21
158.888733
  0
LINE
  8
0
 62
     1
 10
213.225464
 20
172.169739
 11
220.936783
 21
172.169739
  0
LINE
  8
0
 62
     1
 10
213.225464
 20
175.169739
 11
220.661530
 21
175.169739
  0
LINE
  8
0
 62
     1
 10
212.936737
 20
175.669724
 11
213.225418
 21
175.169708
  0
LINE
  8
0
 62
     1
 10
212.936783
 20
171.669220
 11
213.225754
 21
172.169724
  0
LINE
  8
0
 62
     1
 10
213.225464
 20
175.169739
 11
213.225464
 21
172.169220
  0
LINE
  8
0
 62
     1
 10
213.225464
 20
162.388733
 11
220.936783
 21
162.388733
  0
LINE
  8
0
 62
     1
 10
213.225464
 20
159.388733
 11
220.661530
 21
159.388733
  0
LINE
  8
0
 62
     1
 10
212.936752
 20
158.888779
 11
213.225433
 21
159.388779
  0
LINE
  8
0
 62
     1
 10
212.936722
 20
162.889221
 11
213.225708
 21
162.388702
  0
LINE
  8
0
 62
     1
 10
213.225464
 20
159.388733
 11
213.225464
 21
162.389252
  0
LINE
  8
0
 62
     1
 10
198.836777
 20
174.779236
 11
198.836777
 21
159.779236
  0
LINE
  8
0
 62
     1
 10
206.036774
 20
174.779236
 11
206.036774
 21
159.779236
  0
LINE
  8
0
 62
     1
 10
198.836777
 20
159.779236
 11
206.036774
 21
159.779236
  0
LINE
  8
0
 62
     1
 10
198.836777
 20
174.779236
 11
206.036774
 21
174.779236
  0
LINE
  8
0
 62
     1
 10
206.036774
 20
171.669235
 11
212.936783
 21
171.669235
  0
LINE
  8
0
 62
     1
 10
206.036774
 20
162.889236
 11
212.936783
 21
162.889236
  0
LINE
  8
0
 62
     1
 10
198.836777
 20
170.177979
 11
206.036774
 21
170.177979
  0
LINE
  8
0
 62
     1
 10
198.836777
 20
164.380493
 11
206.036774
 21
164.380493
  0
LINE
  8
0
 62
     1
 10
201.163971
 20
168.127823
 11
201.588211
 21
168.552063
  0
LINE
  8
0
 62
     1
 10
203.285294
 20
166.006500
 11
203.709534
 21
166.430740
  0
LINE
  8
0
 62
     1
 10
201.163956
 20
166.430756
 11
201.588226
 21
166.855026
  0
LINE
  8
0
 62
     1
 10
201.588226
 20
166.006485
 11
202.012482
 21
166.430725
  0
LINE
  8
0
 62
     1
 10
201.164032
 20
166.430771
 11
201.588303
 21
166.006500
  0
LINE
  8
0
 62
     1
 10
203.285385
 20
168.552094
 11
203.709656
 21
168.127823
  0
LINE
  8
0
 62
     1
 10
201.164047
 20
168.127777
 11
201.588318
 21
167.703522
  0
LINE
  8
0
 62
     1
 10
201.588333
 20
168.552078
 11
202.012589
 21
168.127823
  0
LINE
  8
0
 62
     1
 10
202.861038
 20
168.127823
 11
203.285278
 21
168.552078
  0
LINE
  8
0
 62
     1
 10
203.285278
 20
167.703537
 11
203.709549
 21
168.127808
  0
LINE
  8
0
 62
     1
 10
202.861115
 20
166.430725
 11
203.285370
 21
166.006470
  0
LINE
  8
0
 62
     1
 10
203.285385
 20
166.855026
 11
203.709656
 21
166.430756
  0
LINE
  8
0
 10
145.436798
 20
166.925690
 11
155.436783
 21
166.925690
  0
LINE
  8
0
 10
155.436783
 20
166.925690
 11
155.436783
 21
164.779236
  0
LINE
  8
0
 10
145.436783
 20
166.925674
 11
155.436783
 21
164.779221
  0
LINE
  8
0
 10
155.436798
 20
166.925674
 11
145.436813
 21
164.779236
  0
LINE
  8
0
 10
160.436783
 20
144.779236
 11
173.436783
 21
144.779236
  0
LINE
  8
0
 10
160.436783
 20
189.779236
 11
173.436783
 21
189.779236
  0
LINE
  8
0
  6
CENTER
 10
176.936783
 20
172.779236
 11
184.936783
 21
172.779236
  0
LINE
  8
0
  6
CENTER
 10
166.436783
 20
188.779236
 11
166.436783
 21
180.779236
  0
LINE
  8
0
  6
CENTER
 10
162.436783
 20
184.779236
 11
170.436783
 21
184.779236
  0
LINE
  8
0
  6
CENTER
 10
162.436783
 20
149.779236
 11
170.436783
 21
149.779236
  0
LINE
  8
0
  6
CENTER
 10
176.936783
 20
161.779236
 11
184.936783
 21
161.779236
  0
LINE
  8
0
  6
CENTER
 10
180.936783
 20
157.779236
 11
180.936783
 21
165.779236
  0
LINE
  8
0
  6
CENTER
 10
142.436798
 20
167.279236
 11
215.936783
 21
167.279236
  0
LINE
  8
0
  6
CENTER
 62
     1
 10
184.936783
 20
173.669739
 11
222.936768
 21
173.669739
  0
LINE
  8
0
  6
CENTER
 62
     1
 10
184.936783
 20
160.888733
 11
222.936768
 21
160.888733
  0
LINE
  8
0
  6
CENTER
 62
     1
 10
202.436783
 20
170.779236
 11
202.436783
 21
163.779236
  0
LINE
  8
0
  6
CENTER
 10
180.936783
 20
176.779236
 11
180.936783
 21
168.779236
  0
LINE
  8
0
  6
CENTER
 10
75.936760
 20
80.279251
 11
66.936760
 21
80.279251
  0
LINE
  8
0
 62
     3
 10
47.186783
 20
78.000908
 11
47.186783
 21
76.557549
  0
LINE
  8
0
 62
     3
 10
49.686783
 20
78.000908
 11
49.686783
 21
76.557549
  0
LINE
  8
0
 62
     3
 10
47.186783
 20
78.000908
 11
48.436794
 21
78.722603
  0
LINE
  8
0
 62
     3
 10
48.436794
 20
75.835884
 11
49.686806
 21
76.557579
  0
LINE
  8
0
 62
     3
 10
48.436684
 20
78.722389
 11
49.686695
 21
78.000694
  0
LINE
  8
0
 62
     3
 10
47.186676
 20
76.557335
 11
48.436687
 21
75.835640
  0
LINE
  8
0
 62
     3
 10
72.686790
 20
79.557549
 11
72.686790
 21
81.000908
  0
LINE
  8
0
 62
     3
 10
70.186790
 20
79.557549
 11
70.186790
 21
81.000908
  0
LINE
  8
0
 62
     3
 10
72.686806
 20
79.557472
 11
71.436806
 21
78.835785
  0
LINE
  8
0
 62
     3
 10
71.436806
 20
81.722527
 11
70.186798
 21
81.000832
  0
LINE
  8
0
 62
     3
 10
71.436737
 20
78.835793
 11
70.186729
 21
79.557487
  0
LINE
  8
0
 62
     3
 10
72.686768
 20
81.000885
 11
71.436752
 21
81.722580
  0
LINE
  8
0
 10
61.790268
 20
69.754028
 11
63.911587
 21
67.632706
  0
LINE
  8
0
 62
     3
 10
50.186783
 20
55.000908
 11
50.186783
 21
53.557549
  0
LINE
  8
0
 62
     3
 10
52.686783
 20
55.000908
 11
52.686783
 21
53.557549
  0
LINE
  8
0
 62
     3
 10
50.186806
 20
55.000877
 11
51.436794
 21
55.722557
  0
LINE
  8
0
 62
     3
 10
51.436783
 20
52.835857
 11
52.686794
 21
53.557552
  0
LINE
  8
0
 62
     3
 10
51.436668
 20
55.722466
 11
52.686680
 21
55.000771
  0
LINE
  8
0
 62
     3
 10
50.186653
 20
53.557343
 11
51.436665
 21
52.835648
  0
LINE
  8
0
 62
     3
 10
73.715080
 20
56.029251
 11
75.158455
 21
56.029251
  0
LINE
  8
0
 62
     3
 10
73.715080
 20
58.529251
 11
75.158455
 21
58.529251
  0
LINE
  8
0
 62
     3
 10
73.714935
 20
56.029167
 11
72.993248
 21
57.279167
  0
LINE
  8
0
 62
     3
 10
75.880005
 20
57.279190
 11
75.158310
 21
58.529202
  0
LINE
  8
0
 62
     3
 10
72.993431
 20
57.279217
 11
73.715126
 21
58.529228
  0
LINE
  8
0
 62
     3
 10
75.158508
 20
56.029202
 11
75.880203
 21
57.279213
  0
LINE
  8
0
 10
83.936775
 20
47.279228
 11
83.936775
 21
87.279228
  0
LINE
  8
0
 10
38.936783
 20
47.279228
 11
38.936783
 21
87.279228
  0
LINE
  8
0
 10
41.436752
 20
44.779236
 11
81.436760
 21
44.779236
  0
LINE
  8
0
 10
41.436752
 20
89.779236
 11
81.436760
 21
89.779236
  0
LINE
  8
0
  6
CENTER
 10
48.436783
 20
81.779228
 11
48.436783
 21
72.779228
  0
LINE
  8
0
  6
CENTER
 10
52.936752
 20
77.279266
 11
43.936752
 21
77.279266
  0
LINE
  8
0
  6
CENTER
 10
61.436775
 20
41.779228
 11
61.436775
 21
92.779228
  0
LINE
  8
0
  6
CENTER
 10
35.936752
 20
67.279236
 11
86.936760
 21
67.279236
  0
LINE
  8
0
  6
CENTER
 10
51.436783
 20
58.779228
 11
51.436783
 21
49.779228
  0
LINE
  8
0
  6
CENTER
 10
46.936752
 20
54.279251
 11
55.936752
 21
54.279251
  0
LINE
  8
0
  6
CENTER
 10
74.436790
 20
52.779228
 11
74.436790
 21
61.779228
  0
LINE
  8
0
  6
CENTER
 10
69.936760
 20
57.279251
 11
78.936760
 21
57.279251
  0
LINE
  8
0
  6
CENTER
 10
71.436790
 20
75.779228
 11
71.436790
 21
84.779228
  0
LINE
  8
0
 10
304.186798
 20
85.779243
 11
300.936798
 21
85.779243
  0
LINE
  8
0
 10
311.936768
 20
78.029236
 11
311.936768
 21
56.529236
  0
LINE
  8
0
 10
304.186798
 20
48.779243
 11
282.686798
 21
48.779243
  0
LINE
  8
0
 10
274.936768
 20
78.029236
 11
274.936768
 21
56.529236
  0
LINE
  8
0
 10
275.936798
 20
55.529243
 11
278.436798
 21
55.529243
  0
LINE
  8
0
 10
275.936798
 20
79.029243
 11
278.436798
 21
79.029243
  0
LINE
  8
0
 10
305.186768
 20
84.779236
 11
305.186768
 21
82.279236
  0
LINE
  8
0
 10
281.686768
 20
84.779236
 11
281.686768
 21
82.279236
  0
LINE
  8
0
 10
281.686768
 20
52.279236
 11
281.686768
 21
49.779236
  0
LINE
  8
0
 10
305.186768
 20
52.279236
 11
305.186768
 21
49.779236
  0
LINE
  8
0
 10
308.436798
 20
79.029243
 11
310.936798
 21
79.029243
  0
LINE
  8
0
 10
308.436798
 20
55.529243
 11
310.936798
 21
55.529243
  0
LINE
  8
0
 62
     1
 10
309.686768
 20
76.029236
 11
309.686768
 21
58.529236
  0
LINE
  8
0
 62
     1
 10
277.186768
 20
76.029236
 11
277.186768
 21
58.529236
  0
LINE
  8
0
 62
     1
 10
308.511475
 20
77.045006
 11
308.760742
 21
77.026520
  0
LINE
  8
0
 62
     1
 10
278.362122
 20
77.044945
 11
278.112823
 21
77.026451
  0
LINE
  8
0
 62
     1
 10
308.511444
 20
57.513554
 11
308.760742
 21
57.532047
  0
LINE
  8
0
 62
     1
 10
278.362122
 20
57.513279
 11
278.112823
 21
57.531773
  0
LINE
  8
0
 62
     1
 10
296.936768
 20
56.353973
 11
296.936768
 21
51.779236
  0
LINE
  8
0
 62
     1
 10
289.936768
 20
56.353973
 11
289.936768
 21
51.779236
  0
LINE
  8
0
 62
     1
 10
290.636780
 20
56.353973
 11
290.636780
 21
51.279236
  0
LINE
  8
0
 62
     1
 10
296.236755
 20
56.353973
 11
296.236755
 21
51.279236
  0
LINE
  8
0
 62
     1
 10
289.936798
 20
56.353981
 11
296.936798
 21
56.353981
  0
LINE
  8
0
 62
     1
 10
290.636780
 20
54.204521
 11
296.236786
 21
54.204521
  0
LINE
  8
0
 62
     1
 10
286.414307
 20
80.579529
 11
285.046234
 21
84.338303
  0
LINE
  8
0
 62
     1
 10
290.267059
 20
81.981796
 11
288.898987
 21
85.740570
  0
LINE
  8
0
 62
     1
 10
300.459320
 20
80.579468
 11
301.827423
 21
84.338234
  0
LINE
  8
0
 62
     1
 10
296.606567
 20
81.981758
 11
297.974640
 21
85.740532
  0
LINE
  8
0
 62
     1
 10
296.606506
 20
81.981766
 11
300.459229
 21
80.579483
  0
LINE
  8
0
 62
     1
 10
286.414246
 20
80.579620
 11
290.266968
 21
81.981903
  0
LINE
  8
0
 62
     1
 10
303.186768
 20
83.831238
 11
303.186768
 21
82.779236
  0
LINE
  8
0
 62
     1
 10
283.686768
 20
83.831238
 11
283.686768
 21
82.779236
  0
LINE
  8
0
 62
     1
 10
284.686798
 20
50.779243
 11
302.186798
 21
50.779243
  0
LINE
  8
0
 10
285.936798
 20
85.779243
 11
282.686798
 21
85.779243
  0
LINE
  8
0
 62
     1
 10
289.046783
 20
86.079247
 11
297.826782
 21
86.079247
  0
LINE
  8
0
 62
     1
 10
285.936798
 20
85.153893
 11
287.287079
 21
85.153893
  0
LINE
  8
0
 62
     1
 10
299.586517
 20
85.153893
 11
300.936798
 21
85.153893
  0
LINE
  8
0
 62
     1
 10
290.636780
 20
88.351059
 11
290.636780
 21
87.836212
  0
LINE
  8
0
 62
     1
 10
297.826782
 20
86.079239
 11
297.826782
 21
85.334457
  0
LINE
  8
0
 62
     1
 10
289.046783
 20
86.079239
 11
289.046783
 21
85.334457
  0
LINE
  8
0
 62
     1
 10
296.335510
 20
87.836159
 11
300.936798
 21
86.341118
  0
LINE
  8
0
 62
     1
 10
296.236755
 20
88.351059
 11
296.236755
 21
87.836212
  0
LINE
  8
0
 62
     1
 10
290.538055
 20
87.836220
 11
296.335541
 21
87.836220
  0
LINE
  8
0
 62
     1
 10
285.936768
 20
86.341171
 11
285.936768
 21
85.153885
  0
LINE
  8
0
 62
     1
 10
300.936768
 20
86.341171
 11
300.936768
 21
85.153885
  0
LINE
  8
0
 62
     1
 10
285.936768
 20
86.341171
 11
290.538055
 21
87.836220
  0
LINE
  8
0
 62
     1
 10
285.046204
 20
84.338432
 11
288.898956
 21
85.740715
  0
LINE
  8
0
 62
     1
 10
297.974579
 20
85.740532
 11
301.827301
 21
84.338257
  0
LINE
  8
0
 10
315.936768
 20
87.279236
 11
315.936768
 21
47.279236
  0
LINE
  8
0
 10
270.936768
 20
87.279236
 11
270.936768
 21
47.279236
  0
LINE
  8
0
 10
273.436798
 20
89.779243
 11
313.436768
 21
89.779243
  0
LINE
  8
0
 10
273.436798
 20
44.779243
 11
313.436768
 21
44.779243
  0
LINE
  8
0
  6
CENTER
 10
267.936798
 20
67.279243
 11
318.936768
 21
67.279243
  0
LINE
  8
0
  6
CENTER
 10
293.436768
 20
92.779236
 11
293.436768
 21
41.779236
  0
LINE
  8
0
  6
CENTER
 62
     1
 10
289.024689
 20
79.401268
 11
286.288544
 21
86.918816
  0
LINE
  8
0
  6
CENTER
 62
     1
 10
297.848907
 20
79.401260
 11
300.585083
 21
86.918800
  0
ARC
  8
0
 10
154.534973
 20
68.706009
 40
1.401806
 50
310.039825
 51
49.960178
  0
ARC
  8
0
 62
     1
 10
221.249283
 20
82.990616
 40
0.812500
 50
112.619865
 51
247.380142
  0
ARC
  8
0
 62
     1
 10
200.303452
 20
88.351059
 40
0.666668
 50
119.491943
 51
180.000000
  0
ARC
  8
0
 62
     1
 10
202.436783
 20
84.579239
 40
4.999995
 50
60.507675
 51
119.492325
  0
ARC
  8
0
 62
     1
 10
204.570114
 20
88.351059
 40
0.666672
 50
0.000000
 51
60.508053
  0
ARC
  8
0
 62
     1
 10
187.236771
 20
51.329239
 40
0.300003
 50
180.000000
 51
270.000000
  0
ARC
  8
0
 62
     1
 10
220.624283
 20
82.990616
 40
0.812500
 50
292.619873
 51
67.380135
  0
ARC
  8
0
 62
     1
 10
220.661530
 20
84.465363
 40
0.775251
 50
290.795349
 51
90.000000
  0
CIRCLE
  8
0
 10
166.436783
 20
49.779236
 40
2.299999
  0
CIRCLE
  8
0
 10
166.436783
 20
84.779236
 40
2.299999
  0
ARC
  8
0
 62
     1
 10
211.076782
 20
165.579239
 40
0.300003
 50
270.000000
 51
0.000000
  0
ARC
  8
0
 62
     1
 10
211.076782
 20
168.979233
 40
0.300003
 50
0.000000
 51
90.000000
  0
CIRCLE
  8
0
 10
166.436783
 20
184.779236
 40
2.299999
  0
ARC
  8
0
 10
154.534973
 20
165.852463
 40
1.401812
 50
310.039612
 51
49.960381
  0
ARC
  8
0
 62
     1
 10
202.436783
 20
166.006439
 40
0.600009
 50
45.000000
 51
135.000000
  0
ARC
  8
0
 62
     1
 10
203.709564
 20
167.279236
 40
0.600009
 50
135.000000
 51
225.000000
  0
ARC
  8
0
 62
     1
 10
201.163986
 20
167.279236
 40
0.600009
 50
315.000000
 51
45.000000
  0
ARC
  8
0
 62
     1
 10
202.436783
 20
168.552032
 40
0.600009
 50
225.000000
 51
315.000000
  0
CIRCLE
  8
0
 62
     1
 10
202.436783
 20
167.279236
 40
2.799999
  0
ARC
  8
0
 62
     1
 10
220.624283
 20
161.638733
 40
0.812500
 50
292.619873
 51
67.380135
  0
ARC
  8
0
 62
     1
 10
221.249283
 20
161.638733
 40
0.812500
 50
112.619865
 51
247.380142
  0
ARC
  8
0
 62
     1
 10
220.661530
 20
160.163986
 40
0.775253
 50
270.000000
 51
69.203606
  0
ARC
  8
0
 62
     1
 10
221.249283
 20
172.919739
 40
0.812500
 50
112.619865
 51
247.380142
  0
ARC
  8
0
 62
     1
 10
220.624283
 20
172.919739
 40
0.812500
 50
292.619873
 51
67.380135
  0
ARC
  8
0
 62
     1
 10
220.661530
 20
174.394485
 40
0.775251
 50
290.795349
 51
90.000000
  0
ARC
  8
0
 62
     1
 10
208.676773
 20
165.579239
 40
0.300003
 50
180.000000
 51
270.000000
  0
ARC
  8
0
 62
     1
 10
208.676773
 20
168.979233
 40
0.300003
 50
90.000000
 51
180.000000
  0
ARC
  8
0
 62
     1
 10
187.236771
 20
151.329239
 40
0.300003
 50
180.000000
 51
270.000000
  0
CIRCLE
  8
0
 10
180.936783
 20
172.779236
 40
2.500000
  0
CIRCLE
  8
0
 10
180.936783
 20
172.779236
 40
2.099999
  0
CIRCLE
  8
0
 10
180.936783
 20
161.779236
 40
2.500000
  0
CIRCLE
  8
0
 10
180.936783
 20
161.779236
 40
2.099999
  0
ARC
  8
0
 62
     1
 10
187.236771
 20
183.229233
 40
0.300003
 50
90.000000
 51
180.000000
  0
CIRCLE
  8
0
 10
166.436783
 20
149.779236
 40
2.299999
  0
CIRCLE
  8
0
 62
     3
 10
48.436752
 20
77.279228
 40
2.750000
  0
CIRCLE
  8
0
 62
     3
 10
71.436760
 20
80.279228
 40
2.750000
  0
ARC
  8
0
 10
81.436760
 20
47.279228
 40
2.500000
 50
270.000000
 51
0.000000
  0
ARC
  8
0
 10
81.436760
 20
87.279228
 40
2.500000
 50
0.000000
 51
90.000000
  0
ARC
  8
0
 10
41.436752
 20
87.279228
 40
2.500000
 50
90.000000
 51
180.000000
  0
ARC
  8
0
 10
41.436752
 20
47.279228
 40
2.500000
 50
180.000000
 51
269.999908
  0
CIRCLE
  8
0
 62
     3
 10
74.436760
 20
57.279228
 40
2.750000
  0
CIRCLE
  8
0
 10
74.436760
 20
57.279228
 40
3.000000
  0
CIRCLE
  8
0
 62
     3
 10
51.436752
 20
54.279228
 40
2.750000
  0
CIRCLE
  8
0
 10
51.436752
 20
54.279228
 40
3.000000
  0
CIRCLE
  8
0
 10
61.436760
 20
67.279228
 40
2.000000
  0
CIRCLE
  8
0
 10
61.436760
 20
67.279228
 40
2.500000
  0
CIRCLE
  8
0
 10
71.436760
 20
80.279228
 40
3.000000
  0
CIRCLE
  8
0
 10
48.436752
 20
77.279228
 40
3.000000
  0
ARC
  8
0
 62
     1
 10
302.438782
 20
83.831238
 40
0.747986
 50
0.000000
 51
159.999924
  0
CIRCLE
  8
0
 62
     1
 10
287.656647
 20
83.160034
 40
1.500000
  0
ARC
  8
0
 62
     1
 10
291.303467
 20
88.351059
 40
0.666675
 50
119.493088
 51
180.000000
  0
ARC
  8
0
 62
     1
 10
293.436798
 20
84.579239
 40
5.000003
 50
60.507523
 51
119.492477
  0
ARC
  8
0
 62
     1
 10
295.570129
 20
88.351059
 40
0.666656
 50
0.000000
 51
60.506912
  0
ARC
  8
0
 62
     1
 10
284.434784
 20
83.831238
 40
0.747991
 50
20.000082
 51
180.000000
  0
CIRCLE
  8
0
 62
     1
 10
299.216919
 20
83.160034
 40
1.500000
  0
ARC
  8
0
 62
     1
 10
295.736786
 20
51.279236
 40
0.500000
 50
270.000000
 51
0.000000
  0
ARC
  8
0
 10
313.436768
 20
87.279236
 40
2.500000
 50
0.000000
 51
90.000000
  0
ARC
  8
0
 10
273.436798
 20
87.279236
 40
2.500000
 50
90.000000
 51
180.000000
  0
ARC
  8
0
 10
313.436768
 20
47.279236
 40
2.500000
 50
270.000000
 51
0.000000
  0
ARC
  8
0
 10
273.436798
 20
47.279236
 40
2.500000
 50
180.000000
 51
270.000000
  0
ARC
  8
0
 10
308.436798
 20
52.279236
 40
3.250000
 50
90.000000
 51
179.999939
  0
ARC
  8
0
 10
308.436798
 20
82.279236
 40
3.250000
 50
180.000000
 51
270.000000
  0
ARC
  8
0
 10
278.436798
 20
82.279236
 40
3.250000
 50
270.000000
 51
0.000000
  0
ARC
  8
0
 10
278.436798
 20
52.279236
 40
3.250000
 50
0.000000
 51
90.000000
  0
ARC
  8
0
 10
282.686798
 20
84.779236
 40
1.000000
 50
90.000000
 51
180.000000
  0
ARC
  8
0
 10
304.186798
 20
84.779236
 40
1.000000
 50
0.000000
 51
90.000000
  0
ARC
  8
0
 10
310.936798
 20
78.029236
 40
1.000000
 50
0.000000
 51
90.000000
  0
ARC
  8
0
 10
310.936798
 20
56.529236
 40
1.000000
 50
270.000000
 51
0.000000
  0
ARC
  8
0
 10
304.186798
 20
49.779236
 40
1.000000
 50
270.000000
 51
0.000000
  0
ARC
  8
0
 10
282.686798
 20
49.779236
 40
1.000000
 50
180.000000
 51
270.000000
  0
ARC
  8
0
 10
275.936798
 20
56.529236
 40
1.000000
 50
180.000000
 51
270.000000
  0
ARC
  8
0
 10
275.936798
 20
78.029236
 40
1.000000
 50
90.000000
 51
180.000000
  0
ARC
  8
0
 62
     1
 10
308.936798
 20
82.779236
 40
5.750000
 50
180.000000
 51
265.757690
  0
ARC
  8
0
 62
     1
 10
308.686798
 20
76.029236
 40
1.000000
 50
0.000000
 51
85.757698
  0
ARC
  8
0
 62
     1
 10
277.936798
 20
82.779236
 40
5.750000
 50
274.242310
 51
0.000000
  0
ARC
  8
0
 62
     1
 10
278.186798
 20
76.029236
 40
1.000001
 50
94.242302
 51
180.000000
  0
ARC
  8
0
 62
     1
 10
308.936798
 20
51.779236
 40
5.750000
 50
94.242310
 51
179.999969
  0
ARC
  8
0
 62
     1
 10
308.686798
 20
58.529236
 40
1.000001
 50
274.242310
 51
0.000000
  0
ARC
  8
0
 62
     1
 10
302.186798
 20
51.779236
 40
1.000000
 50
270.000000
 51
0.000000
  0
ARC
  8
0
 62
     1
 10
278.186798
 20
58.529236
 40
1.000000
 50
180.000000
 51
265.757690
  0
ARC
  8
0
 62
     1
 10
277.936798
 20
51.779236
 40
5.750000
 50
0.000000
 51
85.757690
  0
ARC
  8
0
 62
     1
 10
284.686798
 20
51.779236
 40
1.000000
 50
180.000000
 51
270.000000
  0
ARC
  8
0
 62
     1
 10
297.936798
 20
51.779236
 40
1.000000
 50
180.000000
 51
270.000000
  0
ARC
  8
0
 62
     1
 10
288.936798
 20
51.779236
 40
1.000000
 50
270.000000
 51
0.000000
  0
ARC
  8
0
 62
     1
 10
291.136780
 20
51.279236
 40
0.500000
 50
180.000000
 51
270.000000
  0
TEXT
  8
0
 10
298.797760
 20
244.589584
 40
4.242641
  1
DATE : FEB ,1992
 50
0.000000
 41
1.052631
 51
0.000000
  7
STANDARD
  0
TEXT
  8
0
 10
32.035717
 20
201.757431
 40
5.000000
  1
MODEL : RANS3-*-2
 50
0.000000
 41
1.052632
 51
0.000000
  7
STANDARD
  0
TEXT
  8
0
 10
2.113382
 20
243.907959
 40
5.000000
  1
ROTARY ACUTUATOR
 50
0.000000
 41
0.937799
 51
0.000000
  7
STANDARD
  0
TEXT
  8
0
 10
302.273193
 20
3.650512
 40
5.000000
  1
KOGANEI,CORP
 50
0.000000
 41
1.052632
 51
0.000000
  7
STANDARD
  0
LINE
  8
0
 10
182.186768
 20
174.944275
 11
197.102570
 21
200.779205
  0
LINE
  8
0
 10
197.102570
 20
200.779205
 11
212.525711
 21
200.779221
  0
LINE
  8
0
 10
182.186768
 20
174.944275
 11
184.308090
 21
177.065598
  0
LINE
  8
0
 10
182.186768
 20
174.944275
 11
182.963226
 21
177.842056
  0
TEXT
  8
0
 10
197.775711
 20
201.779221
 40
3.500000
  1
2-M5
 50
0.000000
 41
1.052632
 51
0.000000
  7
STANDARD
  0
ENDSEC
  0
EOF
