  0
SECTION
  2
HEADER
  9
$ACADVER
  1
AC1006
  9
$INSBASE
 10
0.0
 20
0.0
 30
0.0
  9
$EXTMIN
 10
0.0
 20
0.0
  9
$EXTMAX
 10
370.873566
 20
254.558472
  9
$LIMMIN
 10
0.0
 20
0.0
  9
$LIMMAX
 10
12.0
 20
9.0
  9
$ORTHOMODE
 70
     0
  9
$REGENMODE
 70
     1
  9
$FILLMODE
 70
     1
  9
$QTEXTMODE
 70
     0
  9
$MIRRTEXT
 70
     1
  9
$DRAGMODE
 70
     2
  9
$LTSCALE
 40
1.0
  9
$OSMODE
 70
     0
  9
$ATTMODE
 70
     1
  9
$TEXTSIZE
 40
0.2
  9
$TRACEWID
 40
0.05
  9
$TEXTSTYLE
  7
STANDARD
  9
$CLAYER
  8
0
  9
$CELTYPE
  6
BYLAYER
  9
$CECOLOR
 62
   256
  9
$DIMSCALE
 40
1.0
  9
$DIMASZ
 40
0.18
  9
$DIMEXO
 40
0.0625
  9
$DIMDLI
 40
0.38
  9
$DIMRND
 40
0.0
  9
$DIMDLE
 40
0.0
  9
$DIMEXE
 40
0.18
  9
$DIMTP
 40
0.0
  9
$DIMTM
 40
0.0
  9
$DIMTXT
 40
0.18
  9
$DIMCEN
 40
0.09
  9
$DIMTSZ
 40
0.0
  9
$DIMTOL
 70
     0
  9
$DIMLIM
 70
     0
  9
$DIMTIH
 70
     1
  9
$DIMTOH
 70
     1
  9
$DIMSE1
 70
     0
  9
$DIMSE2
 70
     0
  9
$DIMTAD
 70
     0
  9
$DIMZIN
 70
     0
  9
$DIMBLK
  1

  9
$DIMASO
 70
     1
  9
$DIMSHO
 70
     0
  9
$DIMPOST
  1

  9
$DIMAPOST
  1

  9
$DIMALT
 70
     0
  9
$DIMALTD
 70
     2
  9
$DIMALTF
 40
25.4
  9
$DIMLFAC
 40
1.0
  9
$DIMTOFL
 70
     0
  9
$DIMTVP
 40
0.0
  9
$DIMTIX
 70
     0
  9
$DIMSOXD
 70
     0
  9
$DIMSAH
 70
     0
  9
$DIMBLK1
  1

  9
$DIMBLK2
  1

  9
$LUNITS
 70
     2
  9
$LUPREC
 70
     4
  9
$AXISMODE
 70
     0
  9
$AXISUNIT
 10
0.0
 20
0.0
  9
$SKETCHINC
 40
0.1
  9
$FILLETRAD
 40
0.0
  9
$AUNITS
 70
     0
  9
$AUPREC
 70
     0
  9
$MENU
  1
acad
  9
$ELEVATION
 40
0.0
  9
$THICKNESS
 40
0.0
  9
$LIMCHECK
 70
     0
  9
$BLIPMODE
 70
     1
  9
$CHAMFERA
 40
0.0
  9
$CHAMFERB
 40
0.0
  9
$SKPOLY
 70
     0
  9
$TDCREATE
 40
2448820.6055208333
  9
$TDUPDATE
 40
2448820.6055208333
  9
$TDINDWG
 40
0.0000000000
  9
$TDUSRTIMER
 40
0.0000000000
  9
$USRTIMER
 70
     1
  9
$ANGBASE
 50
0.0
  9
$ANGDIR
 70
     0
  9
$PDMODE
 70
     0
  9
$PDSIZE
 40
0.0
  9
$PLINEWID
 40
0.0
  9
$COORDS
 70
     0
  9
$SPLFRAME
 70
     0
  9
$SPLINETYPE
 70
     6
  9
$SPLINESEGS
 70
     8
  9
$ATTDIA
 70
     0
  9
$ATTREQ
 70
     1
  9
$HANDLING
 70
     0
  9
$HANDSEED
  5
0
  9
$SURFTAB1
 70
     6
  9
$SURFTAB2
 70
     6
  9
$SURFTYPE
 70
     6
  9
$SURFU
 70
     6
  9
$SURFV
 70
     6
  9
$FLATLAND
 70
     0
  9
$UCSNAME
  2

  9
$UCSORG
 10
0.0
 20
0.0
 30
0.0
  9
$UCSXDIR
 10
1.0
 20
0.0
 30
0.0
  9
$UCSYDIR
 10
0.0
 20
1.0
 30
0.0
  9
$USERI1
 70
     0
  9
$USERI2
 70
     0
  9
$USERI3
 70
     0
  9
$USERI4
 70
     0
  9
$USERI5
 70
     0
  9
$USERR1
 40
0.0
  9
$USERR2
 40
0.0
  9
$USERR3
 40
0.0
  9
$USERR4
 40
0.0
  9
$USERR5
 40
0.0
  9
$WORLDVIEW
 70
     1
  0
ENDSEC
  0
SECTION
  2
TABLES
  0
TABLE
  2
VPORT
 70
     2
  0
VPORT
  2
*ACTIVE
 70
     0
 10
0.0
 20
0.0
 11
1.0
 21
1.0
 12
207.983153
 22
127.279236
 13
0.0
 23
0.0
 14
1.0
 24
1.0
 15
0.0
 25
0.0
 16
0.0
 26
0.0
 36
1.0
 17
0.0
 27
0.0
 37
0.0
 40
254.558472
 41
1.63407
 42
50.0
 43
0.0
 44
0.0
 50
0.0
 51
0.0
 71
     0
 72
   100
 73
     1
 74
     1
 75
     0
 76
     0
 77
     0
 78
     0
  0
ENDTAB
  0
TABLE
  2
LTYPE
 70
    22
  0
LTYPE
  2
CONTINUOUS
 70
    64
  3
Solid line
 72
    65
 73
     0
 40
0.0
  0
LTYPE
  2
DASHED
 70
     0
  3
__ __ __ __ __ __ __ __ __ __ __ __ __ __ __
 72
    65
 73
     2
 40
3.5
 49
2.0
 49
-1.5
  0
LTYPE
  2
CENTER
 70
    64
  3
____ _ ____ _ ____ _ ____ _ ____ _ ____ _ ____
 72
    65
 73
     4
 40
17.5
 49
13.0
 49
-1.5
 49
1.5
 49
-1.5
  0
LTYPE
  2
PHANTOM
 70
     0
  3
_____ _ _ _____ _ _ _____ _ _ _____ _ _ ____  
 72
    65
 73
     6
 40
15.5
 49
8.0
 49
-1.5
 49
1.5
 49
-1.5
 49
1.5
 49
-1.5
  0
LTYPE
  2
DASHED1
 70
     0
  3
__ __ __ __ __ __ __ __ __ __ __ __ __ __ __
 72
    65
 73
     2
 40
1.5
 49
1.0
 49
-0.5
  0
LTYPE
  2
DASHED2
 70
     0
  3
__ __ __ __ __ __ __ __ __ __ __ __ __ __ __
 72
    65
 73
     2
 40
3.5
 49
2.5
 49
-1.0
  0
LTYPE
  2
DASHED3
 70
     0
  3
__ __ __ __ __ __ __ __ __ __ __ __ __ __ __
 72
    65
 73
     2
 40
6.0
 49
4.0
 49
-2.0
  0
LTYPE
  2
DASHED4
 70
     0
  3
__ __ __ __ __ __ __ __ __ __ __ __ __ __ __
 72
    65
 73
     2
 40
12.0
 49
10.0
 49
-2.0
  0
LTYPE
  2
DASHED5
 70
     0
  3
__ __ __ __ __ __ __ __ __ __ __ __ __ __ __
 72
    65
 73
     2
 40
17.0
 49
15.0
 49
-2.0
  0
LTYPE
  2
DASHED6
 70
     0
  3
__ __ __ __ __ __ __ __ __ __ __ __ __ __ __
 72
    65
 73
     2
 40
29.0
 49
27.0
 49
-2.0
  0
LTYPE
  2
PHANTOM1
 70
     0
  3
_____ _ _ _____ _ _ _____ _ _ _____ _ _ ____  
 72
    65
 73
     6
 40
31.0
 49
25.0
 49
-1.5
 49
1.0
 49
-1.0
 49
1.0
 49
-1.5
  0
LTYPE
  2
PHANTOM2
 70
     0
  3
_____ _ _ _____ _ _ _____ _ _ _____ _ _ ____  
 72
    65
 73
     6
 40
36.0
 49
27.0
 49
-1.5
 49
2.5
 49
-1.0
 49
2.5
 49
-1.5
  0
LTYPE
  2
PHANTOM3
 70
     0
  3
_____ _ _ _____ _ _ _____ _ _ _____ _ _ ____  
 72
    65
 73
     6
 40
78.0
 49
64.0
 49
-2.0
 49
4.0
 49
-2.0
 49
4.0
 49
-2.0
  0
LTYPE
  2
CENTER1
 70
     0
  3
____ _ ____ _ ____ _ ____ _ ____ _ ____ _ ____
 72
    65
 73
     4
 40
19.0
 49
14.0
 49
-1.0
 49
3.0
 49
-1.0
  0
LTYPE
  2
CENTER2
 70
     0
  3
____ _ ____ _ ____ _ ____ _ ____ _ ____ _ ____
 72
    65
 73
     4
 40
28.5
 49
25.0
 49
-1.0
 49
1.5
 49
-1.0
  0
LTYPE
  2
CENTER3
 70
     0
  3
____ _ ____ _ ____ _ ____ _ ____ _ ____ _ ____
 72
    65
 73
     4
 40
31.5
 49
27.0
 49
-1.0
 49
2.5
 49
-1.0
  0
LTYPE
  2
CENTER4
 70
     0
  3
____ _ ____ _ ____ _ ____ _ ____ _ ____ _ ____
 72
    65
 73
     4
 40
50.0
 49
45.0
 49
-1.0
 49
3.0
 49
-1.0
  0
LTYPE
  2
CENTER5
 70
     0
  3
____ _ ____ _ ____ _ ____ _ ____ _ ____ _ ____
 72
    65
 73
     4
 40
100.0
 49
92.0
 49
-2.0
 49
4.0
 49
-2.0
  0
LTYPE
  2
SBK1
 70
     0
  3
______ _ _ _ ______ _ _ _ ______ _ _ _ _____  
 72
    65
 73
     8
 40
60.5
 49
45.0
 49
-2.0
 49
2.5
 49
-2.0
 49
2.5
 49
-2.0
 49
2.5
 49
-2.0
  0
LTYPE
  2
SBK2
 70
     0
  3
______ _ _ _ ______ _ _ _ ______ _ _ _ _____  
 72
    65
 73
     8
 40
84.0
 49
64.0
 49
-2.0
 49
4.0
 49
-2.0
 49
4.0
 49
-2.0
 49
4.0
 49
-2.0
  0
LTYPE
  2
STCH
 70
     0
  3
__ __ __ __ __ __ __ __ __ __ __ __ __ __ __
 72
    65
 73
     2
 40
3.0
 49
1.0
 49
-2.0
  0
LTYPE
  2
MTCH
 70
     0
  3
_____ _ _ _____ _ _ _____ _ _ _____ _ _ ____  
 72
    65
 73
     6
 40
80.0
 49
66.0
 49
-2.0
 49
4.0
 49
-2.0
 49
4.0
 49
-2.0
  0
ENDTAB
  0
TABLE
  2
LAYER
 70
     1
  0
LAYER
  2
0
 70
    64
 62
     7
  6
CONTINUOUS
  0
ENDTAB
  0
TABLE
  2
STYLE
 70
     1
  0
STYLE
  2
STANDARD
 70
    64
 40
0.0
 41
1.0
 50
0.0
 71
     0
 42
0.2
  3
txt
  4
BIGFONT
  0
ENDTAB
  0
TABLE
  2
VIEW
 70
     0
  0
ENDTAB
  0
TABLE
  2
UCS
 70
     0
  0
ENDTAB
  0
TABLE
  2
DWGMGR
 70
     0
  0
ENDTAB
  0
ENDSEC
  0
SECTION
  2
BLOCKS
  0
ENDSEC
  0
SECTION
  2
ENTITIES
  0
POINT
  8
0
 10
155.436783
 20
67.279236
 30
0.0
  0
POINT
  8
0
 10
155.436783
 20
176.279221
 30
0.0
  0
POINT
  8
0
 10
305.436768
 20
67.279228
 30
0.0
  0
POINT
  8
0
 10
65.436783
 20
67.279236
 30
0.0
  0
POINT
  8
0
 10
230.436783
 20
67.279236
 30
0.0
  0
POINT
  8
0
 10
230.436783
 20
176.279221
 30
0.0
  0
POINT
  8
0
 10
97.436798
 20
67.279236
 30
0.0
  0
POINT
  8
0
 10
337.436768
 20
67.279228
 30
0.0
  0
LINE
  8
0
 62
     3
 10
0.0
 20
0.0
 30
0.0
 11
0.0
 21
254.558472
 31
0.0
  0
LINE
  8
0
 62
     3
 10
370.873566
 20
254.558472
 30
0.0
 11
370.873566
 21
0.0
 31
0.0
  0
LINE
  8
0
 62
     3
 10
0.0
 20
0.0
 30
0.0
 11
370.873566
 21
0.0
 31
0.0
  0
LINE
  8
0
 62
     3
 10
0.0
 20
254.558472
 30
0.0
 11
370.873566
 21
254.558472
 31
0.0
  0
LINE
  8
0
 62
     3
 10
0.0
 20
240.257431
 30
0.0
 11
76.272194
 21
240.257431
 31
0.0
  0
LINE
  8
0
 62
     3
 10
76.272194
 20
240.257431
 30
0.0
 11
76.272194
 21
254.558472
 31
0.0
  0
LINE
  8
0
 62
     3
 10
294.601379
 20
14.301025
 30
0.0
 11
370.873566
 21
14.301025
 31
0.0
  0
LINE
  8
0
 62
     3
 10
294.601379
 20
240.257431
 30
0.0
 11
370.873566
 21
240.257431
 31
0.0
  0
LINE
  8
0
 62
     3
 10
294.601379
 20
254.558472
 30
0.0
 11
294.601379
 21
240.257431
 31
0.0
  0
LINE
  8
0
 62
     3
 10
294.601379
 20
14.301025
 30
0.0
 11
294.601379
 21
0.0
 31
0.0
  0
LINE
  8
0
 62
     1
 10
222.736771
 20
88.351074
 30
0.0
 11
222.736771
 21
87.836212
 31
0.0
  0
LINE
  8
0
 62
     1
 10
217.136765
 20
88.351074
 30
0.0
 11
217.136765
 21
87.836212
 31
0.0
  0
LINE
  8
0
 10
136.436768
 20
63.77924
 30
0.0
 11
136.436768
 21
71.279236
 31
0.0
  0
LINE
  8
0
 10
155.436783
 20
35.279236
 30
0.0
 11
155.436783
 21
99.279236
 31
0.0
  0
LINE
  8
0
 10
175.436783
 20
35.279236
 30
0.0
 11
175.436783
 21
99.279236
 31
0.0
  0
LINE
  8
0
 10
175.436783
 20
40.279236
 30
0.0
 11
204.436783
 21
40.279236
 31
0.0
  0
LINE
  8
0
 10
175.436783
 20
94.279236
 30
0.0
 11
204.436783
 21
94.279236
 31
0.0
  0
LINE
  8
0
 10
136.436768
 20
71.279236
 30
0.0
 11
155.436783
 21
71.279236
 31
0.0
  0
LINE
  8
0
 10
136.936783
 20
63.27924
 30
0.0
 11
155.436783
 21
63.27924
 31
0.0
  0
LINE
  8
0
 10
136.436935
 20
63.779404
 30
0.0
 11
136.936935
 21
63.279404
 31
0.0
  0
LINE
  8
0
 10
136.936783
 20
63.27924
 30
0.0
 11
136.936783
 21
67.529724
 31
0.0
  0
LINE
  8
0
 10
175.436783
 20
85.279236
 30
0.0
 11
204.436783
 21
85.279236
 31
0.0
  0
LINE
  8
0
 10
175.436783
 20
49.279236
 30
0.0
 11
204.436783
 21
49.279236
 31
0.0
  0
LINE
  8
0
 10
204.436783
 20
40.279236
 30
0.0
 11
204.436783
 21
94.279236
 31
0.0
  0
LINE
  8
0
 62
     1
 10
230.436783
 20
50.829239
 30
0.0
 11
230.436783
 21
86.079254
 31
0.0
  0
LINE
  8
0
 62
     1
 10
204.736771
 20
51.029236
 30
0.0
 11
228.436783
 21
51.029236
 31
0.0
  0
LINE
  8
0
 62
     1
 10
204.436783
 20
77.029236
 30
0.0
 11
228.436783
 21
77.029236
 31
0.0
  0
LINE
  8
0
 62
     1
 10
228.436783
 20
50.829239
 30
0.0
 11
228.436783
 21
84.579239
 31
0.0
  0
LINE
  8
0
 62
     1
 10
228.436783
 20
50.829239
 30
0.0
 11
230.436783
 21
50.829239
 31
0.0
  0
LINE
  8
0
 62
     1
 10
204.436783
 20
85.740631
 30
0.0
 11
216.336777
 21
85.740631
 31
0.0
  0
LINE
  8
0
 62
     1
 10
205.436783
 20
84.579239
 30
0.0
 11
205.436783
 21
85.740631
 31
0.0
  0
LINE
  8
0
 62
     1
 10
230.725464
 20
82.240631
 30
0.0
 11
238.436783
 21
82.240631
 31
0.0
  0
LINE
  8
0
 62
     1
 10
230.725464
 20
85.240631
 30
0.0
 11
238.16153
 21
85.240631
 31
0.0
  0
LINE
  8
0
 62
     1
 10
230.436813
 20
85.740639
 30
0.0
 11
230.725494
 21
85.240623
 31
0.0
  0
LINE
  8
0
 62
     1
 10
230.436707
 20
81.740166
 30
0.0
 11
230.725662
 21
82.240677
 31
0.0
  0
LINE
  8
0
 62
     1
 10
230.725464
 20
85.240631
 30
0.0
 11
230.725464
 21
82.240112
 31
0.0
  0
LINE
  8
0
 62
     1
 10
216.336777
 20
85.153885
 30
0.0
 11
216.336777
 21
87.836227
 31
0.0
  0
LINE
  8
0
 62
     1
 10
223.536774
 20
85.153885
 30
0.0
 11
223.536774
 21
87.836227
 31
0.0
  0
LINE
  8
0
 10
136.436768
 20
67.529724
 30
0.0
 11
148.436768
 21
67.529724
 31
0.0
  0
LINE
  8
0
 10
148.436768
 20
67.529724
 30
0.0
 11
148.436768
 21
71.279236
 31
0.0
  0
LINE
  8
0
 10
136.436752
 20
67.529785
 30
0.0
 11
148.436752
 21
71.279289
 31
0.0
  0
LINE
  8
0
 10
148.436798
 20
67.5298
 30
0.0
 11
136.436798
 21
71.279312
 31
0.0
  0
LINE
  8
0
 10
155.436783
 20
99.279236
 30
0.0
 11
175.436783
 21
99.279236
 31
0.0
  0
LINE
  8
0
 62
     1
 10
216.336777
 20
87.836227
 30
0.0
 11
223.536774
 21
87.836227
 31
0.0
  0
LINE
  8
0
 62
     1
 10
216.336777
 20
86.341171
 30
0.0
 11
223.536774
 21
86.341171
 31
0.0
  0
LINE
  8
0
 62
     1
 10
216.336777
 20
85.153885
 30
0.0
 11
223.536774
 21
85.153885
 31
0.0
  0
LINE
  8
0
 62
     1
 10
204.436783
 20
57.529236
 30
0.0
 11
228.436783
 21
57.529236
 31
0.0
  0
LINE
  8
0
 62
     1
 10
223.536774
 20
85.740631
 30
0.0
 11
230.436783
 21
85.740631
 31
0.0
  0
LINE
  8
0
 62
     1
 10
204.436783
 20
86.079254
 30
0.0
 11
216.336777
 21
86.079254
 31
0.0
  0
LINE
  8
0
 62
     1
 10
223.536774
 20
86.079254
 30
0.0
 11
230.436783
 21
86.079254
 31
0.0
  0
LINE
  8
0
 62
     1
 10
228.436783
 20
85.740631
 30
0.0
 11
228.436783
 21
86.079254
 31
0.0
  0
LINE
  8
0
 62
     1
 10
204.436783
 20
84.579239
 30
0.0
 11
230.436783
 21
84.579239
 31
0.0
  0
LINE
  8
0
 10
155.436783
 20
35.279236
 30
0.0
 11
175.436783
 21
35.279236
 31
0.0
  0
LINE
  8
0
  6
CENTER
 10
133.436768
 20
67.279236
 30
0.0
 11
233.436783
 21
67.279236
 31
0.0
  0
LINE
  8
0
  6
CENTER
 10
160.436783
 20
93.279236
 30
0.0
 11
170.436783
 21
93.279236
 31
0.0
  0
LINE
  8
0
  6
CENTER
 10
165.436783
 20
88.279236
 30
0.0
 11
165.436783
 21
98.279236
 31
0.0
  0
LINE
  8
0
  6
CENTER
 10
165.436783
 20
36.279236
 30
0.0
 11
165.436783
 21
46.279236
 31
0.0
  0
LINE
  8
0
  6
CENTER
 10
160.436783
 20
41.279236
 30
0.0
 11
170.436783
 21
41.279236
 31
0.0
  0
LINE
  8
0
  6
CENTER
 62
     1
 10
219.936783
 20
83.153885
 30
0.0
 11
219.936783
 21
91.579239
 31
0.0
  0
LINE
  8
0
 10
136.436783
 20
179.779221
 30
0.0
 11
136.436783
 21
172.279221
 31
0.0
  0
LINE
  8
0
 10
155.436783
 20
208.279221
 30
0.0
 11
155.436783
 21
144.279221
 31
0.0
  0
LINE
  8
0
 10
175.436783
 20
208.279221
 30
0.0
 11
175.436783
 21
144.279221
 31
0.0
  0
LINE
  8
0
 10
175.436783
 20
203.279221
 30
0.0
 11
204.436783
 21
203.279221
 31
0.0
  0
LINE
  8
0
 10
175.436783
 20
149.279221
 30
0.0
 11
204.436783
 21
149.279221
 31
0.0
  0
LINE
  8
0
 10
136.436783
 20
172.279221
 30
0.0
 11
155.436783
 21
172.279221
 31
0.0
  0
LINE
  8
0
 10
136.936798
 20
180.279221
 30
0.0
 11
155.436783
 21
180.279221
 31
0.0
  0
LINE
  8
0
 10
136.436996
 20
179.778946
 30
0.0
 11
136.936996
 21
180.278946
 31
0.0
  0
LINE
  8
0
 10
136.936798
 20
180.279221
 30
0.0
 11
136.936798
 21
176.028732
 31
0.0
  0
LINE
  8
0
 10
175.436783
 20
158.279221
 30
0.0
 11
204.436783
 21
158.279221
 31
0.0
  0
LINE
  8
0
 10
175.436783
 20
194.279221
 30
0.0
 11
204.436783
 21
194.279221
 31
0.0
  0
LINE
  8
0
 10
204.436783
 20
203.279221
 30
0.0
 11
204.436783
 21
149.279221
 31
0.0
  0
LINE
  8
0
 62
     1
 10
230.436783
 20
192.729218
 30
0.0
 11
230.436783
 21
159.829224
 31
0.0
  0
LINE
  8
0
 62
     1
 10
204.736771
 20
160.029221
 30
0.0
 11
228.436783
 21
160.029221
 31
0.0
  0
LINE
  8
0
 62
     1
 10
204.736771
 20
192.529221
 30
0.0
 11
228.436783
 21
192.529221
 31
0.0
  0
LINE
  8
0
 62
     1
 10
204.436783
 20
166.529221
 30
0.0
 11
228.436783
 21
166.529221
 31
0.0
  0
LINE
  8
0
 62
     1
 10
204.436783
 20
186.029221
 30
0.0
 11
228.436783
 21
186.029221
 31
0.0
  0
LINE
  8
0
 62
     1
 10
226.176773
 20
174.279221
 30
0.0
 11
228.576782
 21
174.279221
 31
0.0
  0
LINE
  8
0
 62
     1
 10
226.176773
 20
178.279221
 30
0.0
 11
228.576782
 21
178.279221
 31
0.0
  0
LINE
  8
0
 62
     1
 10
228.876785
 20
177.979218
 30
0.0
 11
228.876785
 21
174.579224
 31
0.0
  0
LINE
  8
0
 62
     1
 10
225.876785
 20
177.979218
 30
0.0
 11
225.876785
 21
174.579224
 31
0.0
  0
LINE
  8
0
 62
     1
 10
204.436783
 20
171.889221
 30
0.0
 11
216.336777
 21
171.889221
 31
0.0
  0
LINE
  8
0
 62
     1
 10
204.436783
 20
180.66922
 30
0.0
 11
216.336777
 21
180.66922
 31
0.0
  0
LINE
  8
0
 62
     1
 10
223.936783
 20
180.66922
 30
0.0
 11
223.936783
 21
171.889221
 31
0.0
  0
LINE
  8
0
 62
     1
 10
215.936783
 20
180.66922
 30
0.0
 11
215.936783
 21
171.889221
 31
0.0
  0
LINE
  8
0
 62
     1
 10
228.436783
 20
192.729218
 30
0.0
 11
228.436783
 21
184.669724
 31
0.0
  0
LINE
  8
0
 62
     1
 10
228.436783
 20
167.888718
 30
0.0
 11
228.436783
 21
159.829224
 31
0.0
  0
LINE
  8
0
 62
     1
 10
228.436783
 20
159.829224
 30
0.0
 11
230.436783
 21
159.829224
 31
0.0
  0
LINE
  8
0
 62
     1
 10
228.436783
 20
192.729218
 30
0.0
 11
230.436783
 21
192.729218
 31
0.0
  0
LINE
  8
0
 62
     1
 10
204.436783
 20
184.669724
 30
0.0
 11
230.436783
 21
184.669724
 31
0.0
  0
LINE
  8
0
 62
     1
 10
204.436783
 20
167.888718
 30
0.0
 11
230.436783
 21
167.888718
 31
0.0
  0
LINE
  8
0
 62
     1
 10
205.436783
 20
184.669724
 30
0.0
 11
205.436783
 21
180.66922
 31
0.0
  0
LINE
  8
0
 62
     1
 10
205.436783
 20
171.889221
 30
0.0
 11
205.436783
 21
167.888718
 31
0.0
  0
LINE
  8
0
 62
     1
 10
230.725464
 20
181.169724
 30
0.0
 11
238.436783
 21
181.169724
 31
0.0
  0
LINE
  8
0
 62
     1
 10
230.725464
 20
184.169724
 30
0.0
 11
238.16153
 21
184.169724
 31
0.0
  0
LINE
  8
0
 62
     1
 10
230.436722
 20
184.669693
 30
0.0
 11
230.725403
 21
184.169693
 31
0.0
  0
LINE
  8
0
 62
     1
 10
230.436768
 20
180.66925
 30
0.0
 11
230.725723
 21
181.169739
 31
0.0
  0
LINE
  8
0
 62
     1
 10
230.725464
 20
184.169708
 30
0.0
 11
230.725464
 21
181.169205
 31
0.0
  0
LINE
  8
0
 62
     1
 10
230.725464
 20
171.388718
 30
0.0
 11
238.436783
 21
171.388718
 31
0.0
  0
LINE
  8
0
 62
     1
 10
230.725464
 20
168.388718
 30
0.0
 11
238.16153
 21
168.388718
 31
0.0
  0
LINE
  8
0
 62
     1
 10
230.436829
 20
167.888702
 30
0.0
 11
230.725494
 21
168.388718
 31
0.0
  0
LINE
  8
0
 62
     1
 10
230.436691
 20
171.889175
 30
0.0
 11
230.725677
 21
171.388672
 31
0.0
  0
LINE
  8
0
 62
     1
 10
230.725464
 20
168.388718
 30
0.0
 11
230.725464
 21
171.389221
 31
0.0
  0
LINE
  8
0
 62
     1
 10
216.336777
 20
183.779221
 30
0.0
 11
216.336777
 21
168.779221
 31
0.0
  0
LINE
  8
0
 62
     1
 10
223.536774
 20
183.779221
 30
0.0
 11
223.536774
 21
168.779221
 31
0.0
  0
LINE
  8
0
 62
     1
 10
216.336777
 20
168.779221
 30
0.0
 11
223.536774
 21
168.779221
 31
0.0
  0
LINE
  8
0
 62
     1
 10
216.336777
 20
183.779221
 30
0.0
 11
223.536774
 21
183.779221
 31
0.0
  0
LINE
  8
0
 62
     1
 10
223.536774
 20
180.66922
 30
0.0
 11
230.436783
 21
180.66922
 31
0.0
  0
LINE
  8
0
 62
     1
 10
223.536774
 20
171.889221
 30
0.0
 11
230.436783
 21
171.889221
 31
0.0
  0
LINE
  8
0
 62
     1
 10
216.336777
 20
179.177963
 30
0.0
 11
223.536774
 21
179.177963
 31
0.0
  0
LINE
  8
0
 62
     1
 10
216.336777
 20
173.380463
 30
0.0
 11
223.536774
 21
173.380463
 31
0.0
  0
LINE
  8
0
 62
     1
 10
218.664032
 20
177.127808
 30
0.0
 11
219.088287
 21
177.552063
 31
0.0
  0
LINE
  8
0
 62
     1
 10
220.785355
 20
175.006485
 30
0.0
 11
221.20961
 21
175.43074
 31
0.0
  0
LINE
  8
0
 62
     1
 10
218.664032
 20
175.43074
 30
0.0
 11
219.088303
 21
175.855011
 31
0.0
  0
LINE
  8
0
 62
     1
 10
219.088303
 20
175.006485
 30
0.0
 11
219.512558
 21
175.430756
 31
0.0
  0
LINE
  8
0
 62
     1
 10
218.664062
 20
175.430756
 30
0.0
 11
219.088333
 21
175.006485
 31
0.0
  0
LINE
  8
0
 62
     1
 10
220.7854
 20
177.552094
 30
0.0
 11
221.209671
 21
177.127823
 31
0.0
  0
LINE
  8
0
 62
     1
 10
218.664062
 20
177.127823
 30
0.0
 11
219.088333
 21
176.703568
 31
0.0
  0
LINE
  8
0
 62
     1
 10
219.088364
 20
177.552109
 30
0.0
 11
219.512634
 21
177.127838
 31
0.0
  0
LINE
  8
0
 62
     1
 10
220.361084
 20
177.127792
 30
0.0
 11
220.785355
 21
177.552063
 31
0.0
  0
LINE
  8
0
 62
     1
 10
220.785355
 20
176.703537
 30
0.0
 11
221.20961
 21
177.127808
 31
0.0
  0
LINE
  8
0
 62
     1
 10
220.36113
 20
175.430771
 30
0.0
 11
220.785385
 21
175.0065
 31
0.0
  0
LINE
  8
0
 62
     1
 10
220.785431
 20
175.855042
 30
0.0
 11
221.209686
 21
175.430786
 31
0.0
  0
LINE
  8
0
 10
136.436783
 20
176.028732
 30
0.0
 11
148.436783
 21
176.028732
 31
0.0
  0
LINE
  8
0
 10
148.436783
 20
176.028732
 30
0.0
 11
148.436783
 21
172.279221
 31
0.0
  0
LINE
  8
0
 10
136.436737
 20
176.02861
 30
0.0
 11
148.436737
 21
172.279099
 31
0.0
  0
LINE
  8
0
 10
148.436798
 20
176.028595
 30
0.0
 11
136.436813
 21
172.279099
 31
0.0
  0
LINE
  8
0
 10
155.436783
 20
208.279221
 30
0.0
 11
175.436783
 21
208.279221
 31
0.0
  0
LINE
  8
0
 10
155.436783
 20
144.279221
 30
0.0
 11
175.436783
 21
144.279221
 31
0.0
  0
LINE
  8
0
  6
CENTER
 10
133.436783
 20
176.279221
 30
0.0
 11
233.436783
 21
176.279221
 31
0.0
  0
LINE
  8
0
  6
CENTER
 10
165.436783
 20
207.279221
 30
0.0
 11
165.436783
 21
197.279221
 31
0.0
  0
LINE
  8
0
  6
CENTER
 10
160.436783
 20
202.279221
 30
0.0
 11
170.436783
 21
202.279221
 31
0.0
  0
LINE
  8
0
  6
CENTER
 10
165.436783
 20
155.279221
 30
0.0
 11
165.436783
 21
145.279221
 31
0.0
  0
LINE
  8
0
  6
CENTER
 10
160.436783
 20
150.279221
 30
0.0
 11
170.436783
 21
150.279221
 31
0.0
  0
LINE
  8
0
  6
CENTER
 10
187.436783
 20
168.779221
 30
0.0
 11
195.436783
 21
168.779221
 31
0.0
  0
LINE
  8
0
  6
CENTER
 10
191.436783
 20
172.779221
 30
0.0
 11
191.436783
 21
164.779221
 31
0.0
  0
LINE
  8
0
  6
CENTER
 10
187.436783
 20
183.779221
 30
0.0
 11
195.436783
 21
183.779221
 31
0.0
  0
LINE
  8
0
  6
CENTER
 10
191.436783
 20
179.779221
 30
0.0
 11
191.436783
 21
187.779221
 31
0.0
  0
LINE
  8
0
  6
CENTER
 62
     1
 10
202.436783
 20
182.669724
 30
0.0
 11
240.436768
 21
182.669724
 31
0.0
  0
LINE
  8
0
  6
CENTER
 62
     1
 10
202.436783
 20
169.888718
 30
0.0
 11
240.436768
 21
169.888718
 31
0.0
  0
LINE
  8
0
  6
CENTER
 62
     1
 10
219.936783
 20
179.779221
 30
0.0
 11
219.936783
 21
172.779221
 31
0.0
  0
LINE
  8
0
 10
65.687241
 20
71.271362
 30
0.0
 11
69.428902
 21
67.529694
 31
0.0
  0
LINE
  8
0
  6
CENTER
 10
80.43679
 20
82.279236
 30
0.0
 11
80.43679
 21
92.279236
 31
0.0
  0
LINE
  8
0
 62
     3
 10
46.302811
 20
83.779251
 30
0.0
 11
44.570755
 21
83.779251
 31
0.0
  0
LINE
  8
0
 62
     3
 10
46.302811
 20
80.779251
 30
0.0
 11
44.570755
 21
80.779251
 31
0.0
  0
LINE
  8
0
 62
     3
 10
46.302578
 20
83.779106
 30
0.0
 11
47.168606
 21
82.279099
 31
0.0
  0
LINE
  8
0
 62
     3
 10
43.704479
 20
82.279137
 30
0.0
 11
44.570507
 21
80.779137
 31
0.0
  0
LINE
  8
0
 62
     3
 10
47.168865
 20
82.279213
 30
0.0
 11
46.302837
 21
80.779205
 31
0.0
  0
LINE
  8
0
 62
     3
 10
44.570797
 20
83.779228
 30
0.0
 11
43.704769
 21
82.279221
 31
0.0
  0
LINE
  8
0
 62
     3
 10
49.570755
 20
45.779236
 30
0.0
 11
51.302811
 21
45.779236
 31
0.0
  0
LINE
  8
0
 62
     3
 10
49.570755
 20
48.779236
 30
0.0
 11
51.302811
 21
48.779236
 31
0.0
  0
LINE
  8
0
 62
     3
 10
49.570606
 20
45.779198
 30
0.0
 11
48.704578
 21
47.279202
 31
0.0
  0
LINE
  8
0
 62
     3
 10
52.168736
 20
47.279182
 30
0.0
 11
51.302708
 21
48.77919
 31
0.0
  0
LINE
  8
0
 62
     3
 10
48.704754
 20
47.279213
 30
0.0
 11
49.570782
 21
48.779217
 31
0.0
  0
LINE
  8
0
 62
     3
 10
51.30283
 20
45.779213
 30
0.0
 11
52.168858
 21
47.279221
 31
0.0
  0
LINE
  8
0
 62
     3
 10
84.570755
 20
50.779236
 30
0.0
 11
86.302811
 21
50.779236
 31
0.0
  0
LINE
  8
0
 62
     3
 10
84.570755
 20
53.779236
 30
0.0
 11
86.302811
 21
53.779236
 31
0.0
  0
LINE
  8
0
 62
     3
 10
84.570671
 20
50.779202
 30
0.0
 11
83.704643
 21
52.279205
 31
0.0
  0
LINE
  8
0
 62
     3
 10
87.168739
 20
52.279205
 30
0.0
 11
86.302711
 21
53.779209
 31
0.0
  0
LINE
  8
0
 62
     3
 10
83.704765
 20
52.279205
 30
0.0
 11
84.570793
 21
53.779209
 31
0.0
  0
LINE
  8
0
 62
     3
 10
86.302826
 20
50.77924
 30
0.0
 11
87.168854
 21
52.279243
 31
0.0
  0
LINE
  8
0
 62
     3
 10
81.93679
 20
86.413208
 30
0.0
 11
81.93679
 21
88.145264
 31
0.0
  0
LINE
  8
0
 62
     3
 10
78.93679
 20
86.413208
 30
0.0
 11
78.93679
 21
88.145264
 31
0.0
  0
LINE
  8
0
 62
     3
 10
81.936783
 20
86.413208
 30
0.0
 11
80.436775
 21
85.54718
 31
0.0
  0
LINE
  8
0
 62
     3
 10
80.436798
 20
89.011269
 30
0.0
 11
78.93679
 21
88.145248
 31
0.0
  0
LINE
  8
0
 62
     3
 10
80.43679
 20
85.547165
 30
0.0
 11
78.936783
 21
86.413193
 31
0.0
  0
LINE
  8
0
 62
     3
 10
81.936768
 20
88.145256
 30
0.0
 11
80.436768
 21
89.011284
 31
0.0
  0
LINE
  8
0
 10
33.436798
 20
37.779236
 30
0.0
 11
33.436798
 21
96.779236
 31
0.0
  0
LINE
  8
0
 10
97.436798
 20
37.779236
 30
0.0
 11
97.436798
 21
96.779236
 31
0.0
  0
LINE
  8
0
 10
35.936783
 20
99.279236
 30
0.0
 11
94.936783
 21
99.279236
 31
0.0
  0
LINE
  8
0
 10
35.936783
 20
35.279236
 30
0.0
 11
94.936783
 21
35.279236
 31
0.0
  0
LINE
  8
0
  6
CENTER
 10
45.436783
 20
87.279236
 30
0.0
 11
45.436783
 21
77.279236
 31
0.0
  0
LINE
  8
0
  6
CENTER
 10
50.436783
 20
82.279251
 30
0.0
 11
40.436783
 21
82.279251
 31
0.0
  0
LINE
  8
0
  6
CENTER
 10
30.436783
 20
67.279236
 30
0.0
 11
100.436783
 21
67.279236
 31
0.0
  0
LINE
  8
0
  6
CENTER
 10
65.436798
 20
32.279236
 30
0.0
 11
65.436798
 21
102.279236
 31
0.0
  0
LINE
  8
0
  6
CENTER
 10
85.436783
 20
87.279251
 30
0.0
 11
75.436783
 21
87.279251
 31
0.0
  0
LINE
  8
0
  6
CENTER
 10
85.43679
 20
47.279236
 30
0.0
 11
85.43679
 21
57.279236
 31
0.0
  0
LINE
  8
0
  6
CENTER
 10
80.436783
 20
52.279236
 30
0.0
 11
90.436783
 21
52.279236
 31
0.0
  0
LINE
  8
0
  6
CENTER
 10
50.436783
 20
52.279236
 30
0.0
 11
50.436783
 21
42.279236
 31
0.0
  0
LINE
  8
0
  6
CENTER
 10
45.436783
 20
47.279236
 30
0.0
 11
55.436783
 21
47.279236
 31
0.0
  0
LINE
  8
0
 10
332.436768
 20
83.779221
 30
0.0
 11
332.436768
 21
50.779221
 31
0.0
  0
LINE
  8
0
 10
278.436768
 20
83.779236
 30
0.0
 11
278.436768
 21
50.779236
 31
0.0
  0
LINE
  8
0
 10
288.936768
 20
94.279236
 30
0.0
 11
321.936768
 21
94.279236
 31
0.0
  0
LINE
  8
0
 10
288.936768
 20
40.279228
 30
0.0
 11
321.936768
 21
40.279228
 31
0.0
  0
LINE
  8
0
 10
323.436768
 20
92.779221
 30
0.0
 11
323.436768
 21
89.279221
 31
0.0
  0
LINE
  8
0
 10
287.436768
 20
92.779236
 30
0.0
 11
287.436768
 21
89.279236
 31
0.0
  0
LINE
  8
0
 10
279.936768
 20
85.279236
 30
0.0
 11
283.436768
 21
85.279236
 31
0.0
  0
LINE
  8
0
 10
279.936768
 20
49.279228
 30
0.0
 11
283.436768
 21
49.279228
 31
0.0
  0
LINE
  8
0
 10
287.436768
 20
45.279236
 30
0.0
 11
287.436768
 21
41.779236
 31
0.0
  0
LINE
  8
0
 10
323.436768
 20
45.279221
 30
0.0
 11
323.436768
 21
41.779221
 31
0.0
  0
LINE
  8
0
 10
327.436768
 20
85.279236
 30
0.0
 11
330.936768
 21
85.279236
 31
0.0
  0
LINE
  8
0
 10
327.436768
 20
49.279228
 30
0.0
 11
330.936768
 21
49.279228
 31
0.0
  0
LINE
  8
0
 10
275.936768
 20
99.279236
 30
0.0
 11
334.936768
 21
99.279236
 31
0.0
  0
LINE
  8
0
 10
275.936768
 20
35.279228
 30
0.0
 11
334.936768
 21
35.279228
 31
0.0
  0
LINE
  8
0
 10
337.436768
 20
96.779221
 30
0.0
 11
337.436768
 21
37.779221
 31
0.0
  0
LINE
  8
0
 10
273.436768
 20
96.779236
 30
0.0
 11
273.436768
 21
37.779236
 31
0.0
  0
LINE
  8
0
 62
     1
 10
321.686768
 20
76.029221
 30
0.0
 11
321.686768
 21
58.529221
 31
0.0
  0
LINE
  8
0
 62
     1
 10
289.186768
 20
76.029236
 30
0.0
 11
289.186768
 21
58.529236
 31
0.0
  0
LINE
  8
0
 62
     1
 10
320.511414
 20
77.044983
 30
0.0
 11
320.760712
 21
77.026489
 31
0.0
  0
LINE
  8
0
 62
     1
 10
290.362122
 20
77.04496
 30
0.0
 11
290.112793
 21
77.026466
 31
0.0
  0
LINE
  8
0
 62
     1
 10
320.511444
 20
57.513504
 30
0.0
 11
320.760773
 21
57.531998
 31
0.0
  0
LINE
  8
0
 62
     1
 10
290.362152
 20
57.513287
 30
0.0
 11
290.112823
 21
57.53178
 31
0.0
  0
LINE
  8
0
 62
     1
 10
308.936768
 20
56.353966
 30
0.0
 11
308.936768
 21
51.779228
 31
0.0
  0
LINE
  8
0
 62
     1
 10
301.936768
 20
56.353966
 30
0.0
 11
301.936768
 21
51.779228
 31
0.0
  0
LINE
  8
0
 62
     1
 10
302.636749
 20
56.353966
 30
0.0
 11
302.636749
 21
51.279228
 31
0.0
  0
LINE
  8
0
 62
     1
 10
308.236755
 20
56.353966
 30
0.0
 11
308.236755
 21
51.279228
 31
0.0
  0
LINE
  8
0
 62
     1
 10
301.936768
 20
56.353973
 30
0.0
 11
308.936768
 21
56.353973
 31
0.0
  0
LINE
  8
0
 62
     1
 10
302.63678
 20
54.204514
 30
0.0
 11
308.236786
 21
54.204514
 31
0.0
  0
LINE
  8
0
 62
     1
 10
301.046783
 20
86.079239
 30
0.0
 11
309.826782
 21
86.079239
 31
0.0
  0
LINE
  8
0
 62
     1
 10
298.414307
 20
80.579514
 30
0.0
 11
297.046234
 21
84.338287
 31
0.0
  0
LINE
  8
0
 62
     1
 10
302.267059
 20
81.981796
 30
0.0
 11
300.898956
 21
85.740562
 31
0.0
  0
LINE
  8
0
 62
     1
 10
312.459259
 20
80.579475
 30
0.0
 11
313.827332
 21
84.338242
 31
0.0
  0
LINE
  8
0
 62
     1
 10
308.606537
 20
81.981789
 30
0.0
 11
309.97464
 21
85.740562
 31
0.0
  0
LINE
  8
0
 62
     1
 10
308.606476
 20
81.981796
 30
0.0
 11
312.459259
 21
80.579498
 31
0.0
  0
LINE
  8
0
 62
     1
 10
298.414246
 20
80.579643
 30
0.0
 11
302.266968
 21
81.981918
 31
0.0
  0
LINE
  8
0
 62
     1
 10
309.826752
 20
86.079231
 30
0.0
 11
309.826752
 21
85.33445
 31
0.0
  0
LINE
  8
0
 62
     1
 10
301.046753
 20
86.079231
 30
0.0
 11
301.046753
 21
85.33445
 31
0.0
  0
LINE
  8
0
 62
     1
 10
309.974548
 20
85.74054
 30
0.0
 11
313.827301
 21
84.338242
 31
0.0
  0
LINE
  8
0
 62
     1
 10
297.046173
 20
84.338379
 30
0.0
 11
300.898895
 21
85.740654
 31
0.0
  0
LINE
  8
0
 62
     1
 10
315.186768
 20
83.83123
 30
0.0
 11
315.186768
 21
82.779228
 31
0.0
  0
LINE
  8
0
 62
     1
 10
295.686768
 20
83.83123
 30
0.0
 11
295.686768
 21
82.779228
 31
0.0
  0
LINE
  8
0
 62
     1
 10
302.538025
 20
87.836212
 30
0.0
 11
308.33551
 21
87.836212
 31
0.0
  0
LINE
  8
0
 62
     1
 10
297.936768
 20
86.341164
 30
0.0
 11
297.936768
 21
85.153877
 31
0.0
  0
LINE
  8
0
 62
     1
 10
312.936768
 20
86.341164
 30
0.0
 11
312.936768
 21
85.153877
 31
0.0
  0
LINE
  8
0
 62
     1
 10
297.936768
 20
86.341171
 30
0.0
 11
302.538055
 21
87.83622
 31
0.0
  0
LINE
  8
0
 62
     1
 10
308.33551
 20
87.836143
 30
0.0
 11
312.936768
 21
86.34111
 31
0.0
  0
LINE
  8
0
 62
     1
 10
297.936768
 20
85.153885
 30
0.0
 11
299.287048
 21
85.153885
 31
0.0
  0
LINE
  8
0
 62
     1
 10
311.586487
 20
85.153885
 30
0.0
 11
312.936768
 21
85.153885
 31
0.0
  0
LINE
  8
0
 62
     1
 10
308.236755
 20
88.351067
 30
0.0
 11
308.236755
 21
87.836205
 31
0.0
  0
LINE
  8
0
 62
     1
 10
302.636749
 20
88.351067
 30
0.0
 11
302.636749
 21
87.836205
 31
0.0
  0
LINE
  8
0
 62
     1
 10
296.686768
 20
50.779228
 30
0.0
 11
314.186768
 21
50.779228
 31
0.0
  0
LINE
  8
0
  6
CENTER
 62
     1
 10
301.024719
 20
79.40126
 30
0.0
 11
298.288574
 21
86.9188
 31
0.0
  0
LINE
  8
0
  6
CENTER
 62
     1
 10
309.848846
 20
79.401237
 30
0.0
 11
312.585022
 21
86.918777
 31
0.0
  0
LINE
  8
0
  6
CENTER
 10
305.436768
 20
102.279228
 30
0.0
 11
305.436768
 21
32.279228
 31
0.0
  0
LINE
  8
0
  6
CENTER
 10
270.436768
 20
67.279236
 30
0.0
 11
340.436768
 21
67.279236
 31
0.0
  0
ARC
  8
0
 62
     1
 10
222.070114
 20
88.351074
 30
0.0
 40
0.666672
 50
0.0
 51
60.508053
  0
CIRCLE
  8
0
 10
165.436783
 20
93.279236
 30
0.0
 40
3.299999
  0
ARC
  8
0
 62
     1
 10
204.736771
 20
51.329239
 30
0.0
 40
0.300003
 50
180.0
 51
270.0
  0
ARC
  8
0
 62
     1
 10
238.16153
 20
84.465378
 30
0.0
 40
0.775251
 50
290.795349
 51
90.0
  0
ARC
  8
0
 62
     1
 10
238.124283
 20
82.990631
 30
0.0
 40
0.8125
 50
292.619873
 51
67.380135
  0
ARC
  8
0
 62
     1
 10
238.749283
 20
82.990631
 30
0.0
 40
0.8125
 50
112.619865
 51
247.380142
  0
ARC
  8
0
 10
147.179413
 20
69.40448
 30
0.0
 40
2.257355
 50
303.848816
 51
56.151062
  0
CIRCLE
  8
0
 10
165.436783
 20
41.279236
 30
0.0
 40
3.299999
  0
ARC
  8
0
 62
     1
 10
219.936783
 20
84.579239
 30
0.0
 40
4.999995
 50
60.507675
 51
119.492325
  0
ARC
  8
0
 62
     1
 10
217.803452
 20
88.351074
 30
0.0
 40
0.666668
 50
119.491943
 51
180.0
  0
ARC
  8
0
 62
     1
 10
226.176773
 20
174.579224
 30
0.0
 40
0.300003
 50
180.0
 51
270.0
  0
ARC
  8
0
 62
     1
 10
228.576782
 20
174.579224
 30
0.0
 40
0.300003
 50
270.0
 51
0.0
  0
CIRCLE
  8
0
 10
165.436783
 20
150.279221
 30
0.0
 40
3.299999
  0
CIRCLE
  8
0
 10
165.436783
 20
202.279221
 30
0.0
 40
3.299999
  0
ARC
  8
0
 10
147.179428
 20
174.153976
 30
0.0
 40
2.257355
 50
303.848816
 51
56.151169
  0
ARC
  8
0
 62
     1
 10
219.936783
 20
175.006424
 30
0.0
 40
0.600009
 50
45.0
 51
135.0
  0
ARC
  8
0
 62
     1
 10
221.209579
 20
176.279221
 30
0.0
 40
0.600009
 50
135.0
 51
225.0
  0
ARC
  8
0
 62
     1
 10
218.663986
 20
176.279221
 30
0.0
 40
0.600009
 50
315.0
 51
45.0
  0
ARC
  8
0
 62
     1
 10
219.936783
 20
177.552002
 30
0.0
 40
0.600009
 50
225.0
 51
315.0
  0
CIRCLE
  8
0
 62
     1
 10
219.936783
 20
176.279221
 30
0.0
 40
2.799999
  0
ARC
  8
0
 62
     1
 10
238.124283
 20
170.638718
 30
0.0
 40
0.8125
 50
292.619873
 51
67.380135
  0
ARC
  8
0
 62
     1
 10
238.749283
 20
170.638718
 30
0.0
 40
0.8125
 50
112.619865
 51
247.380142
  0
ARC
  8
0
 62
     1
 10
238.16153
 20
169.163971
 30
0.0
 40
0.775253
 50
270.0
 51
69.203606
  0
ARC
  8
0
 62
     1
 10
238.749283
 20
181.919724
 30
0.0
 40
0.8125
 50
112.619865
 51
247.380142
  0
ARC
  8
0
 62
     1
 10
238.124283
 20
181.919724
 30
0.0
 40
0.8125
 50
292.619873
 51
67.380135
  0
ARC
  8
0
 62
     1
 10
238.16153
 20
183.39447
 30
0.0
 40
0.775251
 50
290.795349
 51
90.0
  0
ARC
  8
0
 62
     1
 10
228.576782
 20
177.979218
 30
0.0
 40
0.300003
 50
0.0
 51
90.0
  0
ARC
  8
0
 62
     1
 10
226.176773
 20
177.979218
 30
0.0
 40
0.300003
 50
90.0
 51
180.0
  0
ARC
  8
0
 62
     1
 10
204.736771
 20
160.329224
 30
0.0
 40
0.300003
 50
180.0
 51
270.0
  0
ARC
  8
0
 62
     1
 10
204.736771
 20
192.229218
 30
0.0
 40
0.300003
 50
90.0
 51
180.0
  0
CIRCLE
  8
0
 10
191.436783
 20
168.779221
 30
0.0
 40
2.5
  0
CIRCLE
  8
0
 10
191.436783
 20
168.779221
 30
0.0
 40
2.099999
  0
CIRCLE
  8
0
 10
191.436783
 20
183.779221
 30
0.0
 40
2.5
  0
CIRCLE
  8
0
 10
191.436783
 20
183.779221
 30
0.0
 40
2.099999
  0
CIRCLE
  8
0
 10
65.436783
 20
67.279236
 30
0.0
 40
4.0
  0
CIRCLE
  8
0
 62
     3
 10
45.436783
 20
82.279236
 30
0.0
 40
3.5
  0
ARC
  8
0
 10
94.936783
 20
37.779236
 30
0.0
 40
2.5
 50
270.0
 51
0.0
  0
ARC
  8
0
 10
94.936783
 20
96.779228
 30
0.0
 40
2.5
 50
0.0
 51
90.0
  0
ARC
  8
0
 10
35.936783
 20
96.779243
 30
0.0
 40
2.5
 50
90.0
 51
180.0
  0
ARC
  8
0
 10
35.936783
 20
37.779236
 30
0.0
 40
2.5
 50
180.0
 51
269.999908
  0
CIRCLE
  8
0
 62
     3
 10
80.436783
 20
87.279236
 30
0.0
 40
3.5
  0
CIRCLE
  8
0
 10
80.436783
 20
87.279236
 30
0.0
 40
3.75
  0
CIRCLE
  8
0
 62
     3
 10
85.436783
 20
52.279236
 30
0.0
 40
3.5
  0
CIRCLE
  8
0
 10
85.436783
 20
52.279236
 30
0.0
 40
3.75
  0
ARC
  8
0
 10
65.436783
 20
67.279236
 30
0.0
 40
3.499997
 50
76.002708
 51
13.997289
  0
CIRCLE
  8
0
 62
     3
 10
50.436783
 20
47.279236
 30
0.0
 40
3.5
  0
CIRCLE
  8
0
 10
45.436783
 20
82.279236
 30
0.0
 40
3.75
  0
CIRCLE
  8
0
 10
50.436783
 20
47.279236
 30
0.0
 40
3.75
  0
ARC
  8
0
 62
     1
 10
290.186768
 20
76.029228
 30
0.0
 40
1.000001
 50
94.242302
 51
180.0
  0
ARC
  8
0
 62
     1
 10
320.936768
 20
51.779228
 30
0.0
 40
5.75
 50
94.24231
 51
179.999969
  0
ARC
  8
0
 62
     1
 10
309.936768
 20
51.779228
 30
0.0
 40
1.0
 50
180.0
 51
270.0
  0
ARC
  8
0
 62
     1
 10
296.686768
 20
51.779228
 30
0.0
 40
1.0
 50
180.0
 51
270.0
  0
ARC
  8
0
 62
     1
 10
289.936768
 20
51.779228
 30
0.0
 40
5.75
 50
0.0
 51
85.75769
  0
ARC
  8
0
 62
     1
 10
290.186768
 20
58.529228
 30
0.0
 40
1.0
 50
180.0
 51
265.75769
  0
ARC
  8
0
 62
     1
 10
314.186768
 20
51.779228
 30
0.0
 40
1.0
 50
270.0
 51
0.0
  0
ARC
  8
0
 62
     1
 10
320.686768
 20
58.529228
 30
0.0
 40
1.000001
 50
274.24231
 51
0.0
  0
ARC
  8
0
 62
     1
 10
289.936768
 20
82.779228
 30
0.0
 40
5.75
 50
274.24231
 51
0.0
  0
ARC
  8
0
 62
     1
 10
320.686768
 20
76.029228
 30
0.0
 40
1.0
 50
0.0
 51
85.757698
  0
ARC
  8
0
 10
283.436768
 20
45.279228
 30
0.0
 40
4.0
 50
0.0
 51
90.0
  0
ARC
  8
0
 10
283.436768
 20
89.279228
 30
0.0
 40
4.0
 50
270.0
 51
0.0
  0
ARC
  8
0
 10
327.436768
 20
89.279228
 30
0.0
 40
4.0
 50
180.0
 51
270.0
  0
ARC
  8
0
 10
327.436768
 20
45.279228
 30
0.0
 40
4.0
 50
90.0
 51
179.999939
  0
ARC
  8
0
 10
279.936768
 20
50.779236
 30
0.0
 40
1.5
 50
180.0
 51
270.0
  0
ARC
  8
0
 10
288.936768
 20
41.779228
 30
0.0
 40
1.5
 50
180.0
 51
270.0
  0
ARC
  8
0
 10
321.936768
 20
41.779228
 30
0.0
 40
1.5
 50
270.0
 51
0.0
  0
ARC
  8
0
 10
330.936768
 20
50.779221
 30
0.0
 40
1.5
 50
270.0
 51
0.0
  0
ARC
  8
0
 10
330.936768
 20
83.779221
 30
0.0
 40
1.5
 50
0.0
 51
90.0
  0
ARC
  8
0
 10
321.936768
 20
92.779228
 30
0.0
 40
1.5
 50
0.0
 51
90.0
  0
ARC
  8
0
 10
288.936768
 20
92.779228
 30
0.0
 40
1.5
 50
90.0
 51
180.0
  0
ARC
  8
0
 10
279.936768
 20
83.779236
 30
0.0
 40
1.5
 50
90.0
 51
180.0
  0
ARC
  8
0
 10
334.936768
 20
96.779228
 30
0.0
 40
2.5
 50
0.0
 51
90.0
  0
ARC
  8
0
 10
334.936768
 20
37.779221
 30
0.0
 40
2.5
 50
270.0
 51
0.0
  0
ARC
  8
0
 10
275.936768
 20
37.779236
 30
0.0
 40
2.5
 50
180.0
 51
270.0
  0
ARC
  8
0
 10
275.936768
 20
96.779228
 30
0.0
 40
2.5
 50
90.0
 51
180.0
  0
ARC
  8
0
 62
     1
 10
307.570099
 20
88.351067
 30
0.0
 40
0.666656
 50
0.0
 51
60.506912
  0
ARC
  8
0
 62
     1
 10
303.303436
 20
88.351067
 30
0.0
 40
0.666675
 50
119.493088
 51
180.0
  0
ARC
  8
0
 62
     1
 10
303.13678
 20
51.279228
 30
0.0
 40
0.5
 50
180.0
 51
270.0
  0
ARC
  8
0
 62
     1
 10
300.936768
 20
51.779228
 30
0.0
 40
1.0
 50
270.0
 51
0.0
  0
ARC
  8
0
 62
     1
 10
314.438782
 20
83.83123
 30
0.0
 40
0.747986
 50
0.0
 51
159.999924
  0
ARC
  8
0
 62
     1
 10
296.434784
 20
83.83123
 30
0.0
 40
0.747991
 50
20.000082
 51
180.0
  0
ARC
  8
0
 62
     1
 10
305.436768
 20
84.579231
 30
0.0
 40
5.000003
 50
60.507523
 51
119.492477
  0
CIRCLE
  8
0
 62
     1
 10
299.656647
 20
83.160027
 30
0.0
 40
1.5
  0
ARC
  8
0
 62
     1
 10
307.736755
 20
51.279228
 30
0.0
 40
0.5
 50
270.0
 51
0.0
  0
CIRCLE
  8
0
 62
     1
 10
311.216919
 20
83.160027
 30
0.0
 40
1.5
  0
ARC
  8
0
 62
     1
 10
320.936768
 20
82.779228
 30
0.0
 40
5.75
 50
180.0
 51
265.75769
  0
TEXT
  8
0
 10
298.79776
 20
244.589584
 30
0.0
 40
4.242641
  1
DATE : FEB ,1992
 41
1.052631
  0
TEXT
  8
0
 10
22.035715
 20
211.757431
 30
0.0
 40
5.0
  1
MODEL : RANS20-*-2
 41
1.052632
  0
TEXT
  8
0
 10
2.113382
 20
243.907959
 30
0.0
 40
5.0
  1
ROTARY ACUTUATOR
 41
0.937799
  0
TEXT
  8
0
 10
302.273193
 20
3.650512
 30
0.0
 40
5.0
  1
KOGANEI,CORP
 41
1.052632
  0
LINE
  8
0
 10
192.686752
 20
185.944275
 30
0.0
 11
211.355316
 21
218.279175
 31
0.0
  0
LINE
  8
0
 10
211.355316
 20
218.279175
 30
0.0
 11
226.828125
 21
218.279175
 31
0.0
  0
LINE
  8
0
 10
192.686752
 20
185.944275
 30
0.0
 11
194.808075
 21
188.065598
 31
0.0
  0
LINE
  8
0
 10
192.686752
 20
185.944275
 30
0.0
 11
193.463211
 21
188.842056
 31
0.0
  0
TEXT
  8
0
 10
212.078125
 20
219.279175
 30
0.0
 40
3.5
  1
2-M5
 41
1.052632
  0
ENDSEC
  0
EOF
