  0
SECTION
  2
HEADER
  0
ENDSEC
  0
SECTION
  2
TABLES
  0
TABLE
  2
LTYPE
 70
     4
  0
LTYPE
  2
CONTINUOUS
 70
    64
  3
Solid line
 72
    65
 73
     0
 40
0.000000
  0
LTYPE
  2
DASHED
 70
    64
  3
__ __ __ __ __ __ __ __ __ __ __ __ __ __ __
 72
    65
 73
     2
 40
3.500000
 49
2.000000
 49
-1.500000
  0
LTYPE
  2
CENTER
 70
    64
  3
____ _ ____ _ ____ _ ____ _ ____ _ ____ _ ____
 72
    65
 73
     4
 40
17.500000
 49
13.000000
 49
-1.500000
 49
1.500000
 49
-1.500000
  0
LTYPE
  2
PHANTOM
 70
    64
  3
_____ _ _ _____ _ _ _____ _ _ _____ _ _ ____  
 72
    65
 73
     6
 40
15.500000
 49
8.000000
 49
-1.500000
 49
1.500000
 49
-1.500000
 49
1.500000
 49
-1.500000
  0
LTYPE
  2
DASHED1
 70
    64
  3
__ __ __ __ __ __ __ __ __ __ __ __ __ __ __
 72
    65
 73
     2
 40
1.500000
 49
1.000000
 49
-0.500000
  0
LTYPE
  2
DASHED2
 70
    64
  3
__ __ __ __ __ __ __ __ __ __ __ __ __ __ __
 72
    65
 73
     2
 40
3.500000
 49
2.500000
 49
-1.000000
  0
LTYPE
  2
DASHED3
 70
    64
  3
__ __ __ __ __ __ __ __ __ __ __ __ __ __ __
 72
    65
 73
     2
 40
6.000000
 49
4.000000
 49
-2.000000
  0
LTYPE
  2
DASHED4
 70
    64
  3
__ __ __ __ __ __ __ __ __ __ __ __ __ __ __
 72
    65
 73
     2
 40
12.000000
 49
10.000000
 49
-2.000000
  0
LTYPE
  2
DASHED5
 70
    64
  3
__ __ __ __ __ __ __ __ __ __ __ __ __ __ __
 72
    65
 73
     2
 40
17.000000
 49
15.000000
 49
-2.000000
  0
LTYPE
  2
DASHED6
 70
    64
  3
__ __ __ __ __ __ __ __ __ __ __ __ __ __ __
 72
    65
 73
     2
 40
29.000000
 49
27.000000
 49
-2.000000
  0
LTYPE
  2
PHANTOM1
 70
    64
  3
_____ _ _ _____ _ _ _____ _ _ _____ _ _ ____  
 72
    65
 73
     6
 40
31.000000
 49
25.000000
 49
-1.500000
 49
1.000000
 49
-1.000000
 49
1.000000
 49
-1.500000
  0
LTYPE
  2
PHANTOM2
 70
    64
  3
_____ _ _ _____ _ _ _____ _ _ _____ _ _ ____  
 72
    65
 73
     6
 40
36.000000
 49
27.000000
 49
-1.500000
 49
2.500000
 49
-1.000000
 49
2.500000
 49
-1.500000
  0
LTYPE
  2
PHANTOM3
 70
    64
  3
_____ _ _ _____ _ _ _____ _ _ _____ _ _ ____  
 72
    65
 73
     6
 40
78.000000
 49
64.000000
 49
-2.000000
 49
4.000000
 49
-2.000000
 49
4.000000
 49
-2.000000
  0
LTYPE
  2
CENTER1
 70
    64
  3
____ _ ____ _ ____ _ ____ _ ____ _ ____ _ ____
 72
    65
 73
     4
 40
19.000000
 49
14.000000
 49
-1.000000
 49
3.000000
 49
-1.000000
  0
LTYPE
  2
CENTER2
 70
    64
  3
____ _ ____ _ ____ _ ____ _ ____ _ ____ _ ____
 72
    65
 73
     4
 40
28.500000
 49
25.000000
 49
-1.000000
 49
1.500000
 49
-1.000000
  0
LTYPE
  2
CENTER3
 70
    64
  3
____ _ ____ _ ____ _ ____ _ ____ _ ____ _ ____
 72
    65
 73
     4
 40
31.500000
 49
27.000000
 49
-1.000000
 49
2.500000
 49
-1.000000
  0
LTYPE
  2
CENTER4
 70
    64
  3
____ _ ____ _ ____ _ ____ _ ____ _ ____ _ ____
 72
    65
 73
     4
 40
50.000000
 49
45.000000
 49
-1.000000
 49
3.000000
 49
-1.000000
  0
LTYPE
  2
CENTER5
 70
    64
  3
____ _ ____ _ ____ _ ____ _ ____ _ ____ _ ____
 72
    65
 73
     4
 40
100.000000
 49
92.000000
 49
-2.000000
 49
4.000000
 49
-2.000000
  0
LTYPE
  2
SBK1
 70
    64
  3
______ _ _ _ ______ _ _ _ ______ _ _ _ _____  
 72
    65
 73
     8
 40
60.500000
 49
45.000000
 49
-2.000000
 49
2.500000
 49
-2.000000
 49
2.500000
 49
-2.000000
 49
2.500000
 49
-2.000000
  0
LTYPE
  2
SBK2
 70
    64
  3
______ _ _ _ ______ _ _ _ ______ _ _ _ _____  
 72
    65
 73
     8
 40
84.000000
 49
64.000000
 49
-2.000000
 49
4.000000
 49
-2.000000
 49
4.000000
 49
-2.000000
 49
4.000000
 49
-2.000000
  0
LTYPE
  2
STCH
 70
    64
  3
__ __ __ __ __ __ __ __ __ __ __ __ __ __ __
 72
    65
 73
     2
 40
3.000000
 49
1.000000
 49
-2.000000
  0
LTYPE
  2
MTCH
 70
    64
  3
_____ _ _ _____ _ _ _____ _ _ _____ _ _ ____  
 72
    65
 73
     6
 40
80.000000
 49
66.000000
 49
-2.000000
 49
4.000000
 49
-2.000000
 49
4.000000
 49
-2.000000
  0
ENDTAB
  0
TABLE
  2
LAYER
 70
     1
  0
LAYER
  2
0
 70
     0
 62
     7
  6
CONTINUOUS
  0
ENDTAB
  0
TABLE
  2
STYLE
 70
     1
  0
STYLE
  2
STANDARD
 70
     0
 40
0.000000
 41
1.000000
 50
0.000000
 71
     0
 42
0.200000
  3
txt
  4
BIGFONT
  0
ENDTAB
  0
TABLE
  2
VIEW
 70
     0
  0
ENDTAB
  0
ENDSEC
  0
SECTION
  2
BLOCKS
  0
ENDSEC
  0
SECTION
  2
ENTITIES
  0
POINT
  8
0
 10
185.436783
 20
127.279236
  0
POINT
  8
0
 10
208.936783
 20
67.279259
  0
POINT
  8
0
 10
208.936783
 20
162.279236
  0
POINT
  8
0
 10
79.436844
 20
67.279266
  0
POINT
  8
0
 10
319.436768
 20
67.279236
  0
LINE
  8
0
 62
     3
 10
0.000000
 20
0.000000
 11
0.000000
 21
254.558472
  0
LINE
  8
0
 62
     3
 10
370.873566
 20
254.558472
 11
370.873566
 21
0.000000
  0
LINE
  8
0
 62
     3
 10
0.000000
 20
0.000000
 11
370.873566
 21
0.000000
  0
LINE
  8
0
 62
     3
 10
0.000000
 20
254.558472
 11
370.873566
 21
254.558472
  0
LINE
  8
0
 62
     3
 10
0.000000
 20
240.257431
 11
76.272194
 21
240.257431
  0
LINE
  8
0
 62
     3
 10
76.272194
 20
240.257431
 11
76.272194
 21
254.558472
  0
LINE
  8
0
 62
     3
 10
294.601379
 20
14.301025
 11
370.873566
 21
14.301025
  0
LINE
  8
0
 62
     3
 10
294.601379
 20
240.257431
 11
370.873566
 21
240.257431
  0
LINE
  8
0
 62
     3
 10
294.601379
 20
254.558472
 11
294.601379
 21
240.257431
  0
LINE
  8
0
 62
     3
 10
294.601379
 20
14.301025
 11
294.601379
 21
0.000000
  0
LINE
  8
0
 10
150.436798
 20
69.279259
 11
150.436798
 21
65.779259
  0
LINE
  8
0
 10
162.436783
 20
73.279259
 11
162.436783
 21
61.279259
  0
LINE
  8
0
 10
172.936783
 20
83.779259
 11
172.936783
 21
50.779259
  0
LINE
  8
0
 10
182.936783
 20
86.079262
 11
182.936783
 21
51.029259
  0
LINE
  8
0
 10
165.436798
 20
83.779259
 11
172.936783
 21
83.779259
  0
LINE
  8
0
 10
165.436798
 20
50.779259
 11
172.936783
 21
50.779259
  0
LINE
  8
0
 10
172.936783
 20
51.029259
 11
182.936783
 21
51.029259
  0
LINE
  8
0
 10
172.936783
 20
83.529259
 11
182.936783
 21
83.529259
  0
LINE
  8
0
 10
172.936783
 20
77.029259
 11
182.936783
 21
77.029259
  0
LINE
  8
0
 10
150.936798
 20
65.279259
 11
162.436783
 21
65.279259
  0
LINE
  8
0
 10
150.436798
 20
69.279259
 11
162.436783
 21
69.279259
  0
LINE
  8
0
 10
150.936798
 20
67.404503
 11
150.936798
 21
65.279259
  0
LINE
  8
0
 62
     1
 10
208.936783
 20
86.079262
 11
208.936783
 21
50.829262
  0
LINE
  8
0
 62
     1
 10
183.236771
 20
51.029259
 11
206.936783
 21
51.029259
  0
LINE
  8
0
 62
     1
 10
182.936783
 20
57.529259
 11
208.936783
 21
57.529259
  0
LINE
  8
0
 62
     1
 10
182.936783
 20
77.029259
 11
208.936783
 21
77.029259
  0
LINE
  8
0
 62
     1
 10
206.936783
 20
86.079262
 11
206.936783
 21
85.740608
  0
LINE
  8
0
 62
     1
 10
206.936783
 20
50.829262
 11
208.936783
 21
50.829262
  0
LINE
  8
0
 62
     1
 10
182.936783
 20
85.740608
 11
194.836777
 21
85.740608
  0
LINE
  8
0
 62
     1
 10
183.936783
 20
85.740608
 11
183.936783
 21
84.579262
  0
LINE
  8
0
 62
     1
 10
209.225464
 20
82.240608
 11
216.936783
 21
82.240608
  0
LINE
  8
0
 62
     1
 10
209.225464
 20
85.240608
 11
216.661530
 21
85.240608
  0
LINE
  8
0
 62
     1
 10
208.936737
 20
85.740616
 11
209.225418
 21
85.240616
  0
LINE
  8
0
 62
     1
 10
208.936768
 20
81.740097
 11
209.225739
 21
82.240608
  0
LINE
  8
0
 62
     1
 10
209.225464
 20
85.240608
 11
209.225464
 21
82.240105
  0
LINE
  8
0
 62
     1
 10
194.836777
 20
87.836235
 11
194.836777
 21
85.153908
  0
LINE
  8
0
 62
     1
 10
202.036774
 20
87.836235
 11
202.036774
 21
85.153908
  0
LINE
  8
0
 62
     1
 10
201.236771
 20
88.351082
 11
201.236771
 21
87.836220
  0
LINE
  8
0
 62
     1
 10
195.636780
 20
88.351082
 11
195.636780
 21
87.836220
  0
LINE
  8
0
 10
159.436783
 20
67.404503
 11
159.436783
 21
69.279259
  0
LINE
  8
0
 10
150.436798
 20
67.404503
 11
159.436783
 21
67.404503
  0
LINE
  8
0
 10
159.436768
 20
67.404411
 11
150.436768
 21
69.279175
  0
LINE
  8
0
 10
150.436783
 20
67.404503
 11
159.436783
 21
69.279259
  0
LINE
  8
0
 10
150.436844
 20
65.779320
 11
150.936844
 21
65.279320
  0
LINE
  8
0
 62
     1
 10
194.836777
 20
87.836235
 11
202.036774
 21
87.836235
  0
LINE
  8
0
 62
     1
 10
194.836777
 20
86.341194
 11
202.036774
 21
86.341194
  0
LINE
  8
0
 62
     1
 10
194.836777
 20
85.153908
 11
202.036774
 21
85.153908
  0
LINE
  8
0
 62
     1
 10
182.936783
 20
86.079262
 11
194.836777
 21
86.079262
  0
LINE
  8
0
 62
     1
 10
202.036774
 20
86.079262
 11
208.936783
 21
86.079262
  0
LINE
  8
0
 62
     1
 10
202.036774
 20
85.740608
 11
208.936783
 21
85.740608
  0
LINE
  8
0
 10
172.936783
 20
57.529259
 11
182.936783
 21
57.529259
  0
LINE
  8
0
 62
     1
 10
182.936783
 20
84.579262
 11
208.936783
 21
84.579262
  0
LINE
  8
0
 62
     1
 10
206.936783
 20
84.579262
 11
206.936783
 21
50.829262
  0
LINE
  8
0
 10
165.436798
 20
83.779259
 11
165.436798
 21
50.779259
  0
LINE
  8
0
 10
162.436783
 20
61.279259
 11
165.436798
 21
61.279259
  0
LINE
  8
0
 10
162.436783
 20
73.279259
 11
165.436798
 21
73.279259
  0
LINE
  8
0
  6
CENTER
 10
147.536804
 20
67.279259
 11
211.936783
 21
67.279259
  0
LINE
  8
0
  6
CENTER
 62
     1
 10
198.436783
 20
91.579247
 11
198.436783
 21
83.153908
  0
LINE
  8
0
 10
150.436798
 20
163.779236
 11
150.436798
 21
160.279236
  0
LINE
  8
0
 10
162.436783
 20
168.279236
 11
162.436783
 21
156.279236
  0
LINE
  8
0
 10
165.436783
 20
178.779236
 11
165.436783
 21
145.779236
  0
LINE
  8
0
 10
172.936783
 20
178.779236
 11
172.936783
 21
145.779236
  0
LINE
  8
0
 10
182.936783
 20
178.529236
 11
182.936783
 21
146.029236
  0
LINE
  8
0
 10
162.436783
 20
156.279236
 11
165.436783
 21
156.279236
  0
LINE
  8
0
 10
162.436783
 20
168.279236
 11
165.436783
 21
168.279236
  0
LINE
  8
0
 10
165.436783
 20
178.779236
 11
172.936783
 21
178.779236
  0
LINE
  8
0
 10
165.436783
 20
145.779236
 11
172.936783
 21
145.779236
  0
LINE
  8
0
 10
172.936783
 20
146.029236
 11
182.936783
 21
146.029236
  0
LINE
  8
0
 10
172.936783
 20
178.529236
 11
182.936783
 21
178.529236
  0
LINE
  8
0
 10
172.936783
 20
172.029236
 11
182.936783
 21
172.029236
  0
LINE
  8
0
 10
172.936783
 20
152.529236
 11
182.936783
 21
152.529236
  0
LINE
  8
0
 10
150.436798
 20
160.279236
 11
162.436783
 21
160.279236
  0
LINE
  8
0
 10
150.936798
 20
164.279236
 11
162.436783
 21
164.279236
  0
LINE
  8
0
 10
150.436768
 20
163.779221
 11
150.936768
 21
164.279221
  0
LINE
  8
0
 10
150.936798
 20
164.279236
 11
150.936798
 21
162.153992
  0
LINE
  8
0
 62
     1
 10
208.936783
 20
178.729248
 11
208.936783
 21
145.829239
  0
LINE
  8
0
 62
     1
 10
183.236771
 20
146.029236
 11
206.936783
 21
146.029236
  0
LINE
  8
0
 62
     1
 10
183.236771
 20
178.529236
 11
206.936783
 21
178.529236
  0
LINE
  8
0
 62
     1
 10
182.936783
 20
152.529236
 11
206.936783
 21
152.529236
  0
LINE
  8
0
 62
     1
 10
182.936783
 20
172.029236
 11
206.936783
 21
172.029236
  0
LINE
  8
0
 62
     1
 10
204.676773
 20
160.279236
 11
207.076782
 21
160.279236
  0
LINE
  8
0
 62
     1
 10
204.676773
 20
164.279236
 11
207.076782
 21
164.279236
  0
LINE
  8
0
 62
     1
 10
207.376785
 20
163.979233
 11
207.376785
 21
160.579239
  0
LINE
  8
0
 62
     1
 10
204.376785
 20
163.979233
 11
204.376785
 21
160.579239
  0
LINE
  8
0
 62
     1
 10
182.936783
 20
157.889236
 11
194.836777
 21
157.889236
  0
LINE
  8
0
 62
     1
 10
182.936783
 20
166.669235
 11
194.836777
 21
166.669235
  0
LINE
  8
0
 62
     1
 10
202.436783
 20
166.669235
 11
202.436783
 21
157.889236
  0
LINE
  8
0
 62
     1
 10
194.436783
 20
166.669235
 11
194.436783
 21
157.889236
  0
LINE
  8
0
 62
     1
 10
206.936783
 20
178.729233
 11
206.936783
 21
170.669739
  0
LINE
  8
0
 62
     1
 10
206.936783
 20
153.888733
 11
206.936783
 21
145.829239
  0
LINE
  8
0
 62
     1
 10
206.936783
 20
145.829239
 11
208.936783
 21
145.829239
  0
LINE
  8
0
 62
     1
 10
206.936783
 20
178.729233
 11
208.936783
 21
178.729233
  0
LINE
  8
0
 62
     1
 10
182.936783
 20
170.669739
 11
208.936783
 21
170.669739
  0
LINE
  8
0
 62
     1
 10
182.936783
 20
153.888733
 11
208.936783
 21
153.888733
  0
LINE
  8
0
 62
     1
 10
183.936783
 20
170.669739
 11
183.936783
 21
166.669235
  0
LINE
  8
0
 62
     1
 10
183.936783
 20
157.889236
 11
183.936783
 21
153.888733
  0
LINE
  8
0
 62
     1
 10
209.225464
 20
167.169739
 11
216.936783
 21
167.169739
  0
LINE
  8
0
 62
     1
 10
209.225464
 20
170.169739
 11
216.661530
 21
170.169739
  0
LINE
  8
0
 62
     1
 10
208.936722
 20
170.669724
 11
209.225403
 21
170.169708
  0
LINE
  8
0
 62
     1
 10
208.936783
 20
166.669220
 11
209.225754
 21
167.169708
  0
LINE
  8
0
 62
     1
 10
209.225464
 20
170.169739
 11
209.225464
 21
167.169220
  0
LINE
  8
0
 62
     1
 10
209.225464
 20
157.388733
 11
216.936783
 21
157.388733
  0
LINE
  8
0
 62
     1
 10
209.225464
 20
154.388733
 11
216.661530
 21
154.388733
  0
LINE
  8
0
 62
     1
 10
208.936768
 20
153.888748
 11
209.225449
 21
154.388763
  0
LINE
  8
0
 62
     1
 10
208.936737
 20
157.889206
 11
209.225693
 21
157.388702
  0
LINE
  8
0
 62
     1
 10
209.225464
 20
154.388733
 11
209.225464
 21
157.389236
  0
LINE
  8
0
 62
     1
 10
194.836777
 20
169.779236
 11
194.836777
 21
154.779236
  0
LINE
  8
0
 62
     1
 10
202.036774
 20
169.779236
 11
202.036774
 21
154.779236
  0
LINE
  8
0
 62
     1
 10
194.836777
 20
154.779236
 11
202.036774
 21
154.779236
  0
LINE
  8
0
 62
     1
 10
194.836777
 20
169.779236
 11
202.036774
 21
169.779236
  0
LINE
  8
0
 62
     1
 10
202.036774
 20
166.669235
 11
208.936783
 21
166.669235
  0
LINE
  8
0
 62
     1
 10
202.036774
 20
157.889236
 11
208.936783
 21
157.889236
  0
LINE
  8
0
 62
     1
 10
194.836777
 20
165.177979
 11
202.036774
 21
165.177979
  0
LINE
  8
0
 62
     1
 10
194.836777
 20
159.380478
 11
202.036774
 21
159.380478
  0
LINE
  8
0
 62
     1
 10
197.163986
 20
163.127777
 11
197.588257
 21
163.552048
  0
LINE
  8
0
 62
     1
 10
199.285309
 20
161.006470
 11
199.709579
 21
161.430740
  0
LINE
  8
0
 62
     1
 10
197.164001
 20
161.430725
 11
197.588272
 21
161.854996
  0
LINE
  8
0
 62
     1
 10
197.588257
 20
161.006470
 11
198.012512
 21
161.430740
  0
LINE
  8
0
 62
     1
 10
197.164017
 20
161.430710
 11
197.588272
 21
161.006454
  0
LINE
  8
0
 62
     1
 10
199.285370
 20
163.552048
 11
199.709641
 21
163.127777
  0
LINE
  8
0
 62
     1
 10
197.164032
 20
163.127777
 11
197.588287
 21
162.703522
  0
LINE
  8
0
 62
     1
 10
197.588287
 20
163.552032
 11
198.012543
 21
163.127777
  0
LINE
  8
0
 62
     1
 10
198.861053
 20
163.127777
 11
199.285324
 21
163.552048
  0
LINE
  8
0
 62
     1
 10
199.285309
 20
162.703522
 11
199.709579
 21
163.127792
  0
LINE
  8
0
 62
     1
 10
198.861084
 20
161.430725
 11
199.285355
 21
161.006454
  0
LINE
  8
0
 62
     1
 10
199.285339
 20
161.854980
 11
199.709610
 21
161.430710
  0
LINE
  8
0
 10
150.436798
 20
162.153992
 11
159.436783
 21
162.153992
  0
LINE
  8
0
 10
159.436783
 20
162.153992
 11
159.436783
 21
160.279236
  0
LINE
  8
0
 10
150.436798
 20
162.154022
 11
159.436813
 21
160.279266
  0
LINE
  8
0
 10
159.436798
 20
162.154053
 11
150.436798
 21
160.279282
  0
LINE
  8
0
  6
CENTER
 10
147.536789
 20
162.279236
 11
211.936783
 21
162.279236
  0
LINE
  8
0
  6
CENTER
 10
173.436783
 20
167.779236
 11
181.436783
 21
167.779236
  0
LINE
  8
0
  6
CENTER
 10
177.436783
 20
171.779236
 11
177.436783
 21
163.779236
  0
LINE
  8
0
  6
CENTER
 10
177.436783
 20
152.779236
 11
177.436783
 21
160.779236
  0
LINE
  8
0
  6
CENTER
 10
173.436783
 20
156.779236
 11
181.436783
 21
156.779236
  0
LINE
  8
0
  6
CENTER
 62
     1
 10
180.936783
 20
155.888733
 11
218.936768
 21
155.888733
  0
LINE
  8
0
  6
CENTER
 62
     1
 10
180.936783
 20
168.669739
 11
218.936768
 21
168.669739
  0
LINE
  8
0
  6
CENTER
 62
     1
 10
198.436783
 20
165.779236
 11
198.436783
 21
158.779236
  0
LINE
  8
0
 10
48.436844
 20
83.779282
 11
77.436844
 21
83.779282
  0
LINE
  8
0
 10
46.436844
 20
81.779266
 11
46.436844
 21
52.779266
  0
LINE
  8
0
 10
48.436829
 20
50.779282
 11
77.436829
 21
50.779282
  0
LINE
  8
0
 10
79.436844
 20
81.779251
 11
79.436844
 21
52.779251
  0
LINE
  8
0
  6
CENTER
 10
46.436829
 20
54.279282
 11
53.436829
 21
54.279282
  0
LINE
  8
0
 10
63.062008
 20
69.275284
 11
64.932838
 21
67.404449
  0
LINE
  8
0
 62
     4
 10
61.936768
 20
53.101761
 11
62.936760
 21
52.524414
  0
LINE
  8
0
 62
     4
 10
62.936832
 20
52.524517
 11
63.936852
 21
53.101879
  0
LINE
  8
0
 62
     4
 10
63.936859
 20
53.101898
 11
63.936859
 21
54.256592
  0
LINE
  8
0
 62
     4
 10
63.936764
 20
54.256481
 11
62.936756
 21
54.833836
  0
LINE
  8
0
 62
     4
 10
62.936844
 20
54.833950
 11
61.936836
 21
54.256596
  0
LINE
  8
0
 62
     4
 10
61.936844
 20
54.256592
 11
61.936844
 21
53.101898
  0
LINE
  8
0
 62
     4
 10
48.336761
 20
66.701790
 11
49.336754
 21
66.124443
  0
LINE
  8
0
 62
     4
 10
49.336842
 20
66.124550
 11
50.336838
 21
66.701897
  0
LINE
  8
0
 62
     4
 10
50.336853
 20
66.701904
 11
50.336853
 21
67.856613
  0
LINE
  8
0
 62
     4
 10
50.336788
 20
67.856499
 11
49.336792
 21
68.433846
  0
LINE
  8
0
 62
     4
 10
49.336807
 20
68.434006
 11
48.336815
 21
67.856659
  0
LINE
  8
0
 62
     4
 10
48.336838
 20
67.856613
 11
48.336838
 21
66.701904
  0
LINE
  8
0
 62
     1
 10
58.546844
 20
86.079285
 11
67.326843
 21
86.079285
  0
LINE
  8
0
 62
     1
 10
54.749710
 20
83.779213
 11
54.546234
 21
84.338257
  0
LINE
  8
0
 62
     1
 10
59.112843
 20
83.779221
 11
58.398975
 21
85.740555
  0
LINE
  8
0
 62
     1
 10
71.123924
 20
83.779251
 11
71.327400
 21
84.338295
  0
LINE
  8
0
 62
     1
 10
66.760788
 20
83.779259
 11
67.474655
 21
85.740593
  0
LINE
  8
0
 62
     1
 10
67.326843
 20
86.079254
 11
67.326843
 21
85.334473
  0
LINE
  8
0
 62
     1
 10
58.546844
 20
86.079262
 11
58.546844
 21
85.334480
  0
LINE
  8
0
 62
     1
 10
67.474701
 20
85.740677
 11
71.327431
 21
84.338402
  0
LINE
  8
0
 62
     1
 10
54.546272
 20
84.338303
 11
58.398991
 21
85.740578
  0
LINE
  8
0
 62
     1
 10
72.686844
 20
83.831253
 11
72.686844
 21
83.779251
  0
LINE
  8
0
 62
     1
 10
53.186844
 20
83.831261
 11
53.186844
 21
83.779259
  0
LINE
  8
0
 62
     1
 10
60.038101
 20
87.836258
 11
65.835587
 21
87.836258
  0
LINE
  8
0
 62
     1
 10
55.436844
 20
86.341194
 11
55.436844
 21
85.153908
  0
LINE
  8
0
 62
     1
 10
70.436844
 20
86.341187
 11
70.436844
 21
85.153900
  0
LINE
  8
0
 62
     1
 10
55.436852
 20
86.341171
 11
60.038136
 21
87.836212
  0
LINE
  8
0
 62
     1
 10
65.835571
 20
87.836220
 11
70.436844
 21
86.341179
  0
LINE
  8
0
 62
     1
 10
55.436844
 20
85.153931
 11
56.787125
 21
85.153931
  0
LINE
  8
0
 62
     1
 10
69.086563
 20
85.153931
 11
70.436844
 21
85.153931
  0
LINE
  8
0
 62
     1
 10
65.736847
 20
88.351105
 11
65.736847
 21
87.836243
  0
LINE
  8
0
 62
     1
 10
60.136841
 20
88.351105
 11
60.136841
 21
87.836243
  0
LINE
  8
0
  6
CENTER
 10
79.436829
 20
54.279282
 11
72.436829
 21
54.279282
  0
LINE
  8
0
 62
     4
 10
77.536850
 20
66.701813
 11
76.536858
 21
66.124466
  0
LINE
  8
0
 62
     4
 10
76.536980
 20
66.124794
 11
75.536972
 21
66.702148
  0
LINE
  8
0
 62
     4
 10
75.536835
 20
66.701889
 11
75.536835
 21
67.856598
  0
LINE
  8
0
 62
     4
 10
75.536758
 20
67.856674
 11
76.536743
 21
68.434013
  0
LINE
  8
0
 62
     4
 10
76.536842
 20
68.433914
 11
77.536835
 21
67.856567
  0
LINE
  8
0
 62
     4
 10
77.536850
 20
67.856598
 11
77.536850
 21
66.701889
  0
LINE
  8
0
 62
     4
 10
61.936867
 20
81.456635
 11
62.936871
 21
82.033997
  0
LINE
  8
0
 62
     4
 10
62.936970
 20
82.034210
 11
63.936974
 21
81.456848
  0
LINE
  8
0
 62
     4
 10
63.936859
 20
81.456635
 11
63.936859
 21
80.301941
  0
LINE
  8
0
 62
     4
 10
63.936859
 20
80.301941
 11
62.936871
 21
79.724586
  0
LINE
  8
0
 62
     4
 10
62.936806
 20
79.724480
 11
61.936802
 21
80.301842
  0
LINE
  8
0
 62
     4
 10
61.936844
 20
80.301941
 11
61.936844
 21
81.456635
  0
LINE
  8
0
  6
CENTER
 10
49.936844
 20
83.779266
 11
49.936844
 21
76.779266
  0
LINE
  8
0
  6
CENTER
 10
43.436844
 20
67.279282
 11
82.436836
 21
67.279282
  0
LINE
  8
0
  6
CENTER
 10
62.936844
 20
91.836227
 11
62.936844
 21
47.779251
  0
LINE
  8
0
  6
CENTER
 10
46.436844
 20
80.279282
 11
53.436844
 21
80.279282
  0
LINE
  8
0
  6
CENTER
 10
49.336838
 20
71.279266
 11
49.336838
 21
63.279263
  0
LINE
  8
0
  6
CENTER
 10
49.936844
 20
57.779266
 11
49.936844
 21
50.779266
  0
LINE
  8
0
  6
CENTER
 10
75.936844
 20
57.779251
 11
75.936844
 21
50.779251
  0
LINE
  8
0
  6
CENTER
 10
58.936829
 20
53.679276
 11
66.936829
 21
53.679276
  0
LINE
  8
0
  6
CENTER
 10
76.536850
 20
71.279251
 11
76.536850
 21
63.279247
  0
LINE
  8
0
  6
CENTER
 10
75.936844
 20
83.779251
 11
75.936844
 21
76.779251
  0
LINE
  8
0
  6
CENTER
 10
79.436844
 20
80.279282
 11
72.436844
 21
80.279282
  0
LINE
  8
0
  6
CENTER
 10
58.936844
 20
80.879288
 11
66.936844
 21
80.879288
  0
LINE
  8
0
 10
288.436768
 20
50.779243
 11
317.436768
 21
50.779243
  0
LINE
  8
0
 10
288.436768
 20
83.779243
 11
293.186768
 21
83.779243
  0
LINE
  8
0
 10
319.436768
 20
81.779228
 11
319.436768
 21
52.779228
  0
LINE
  8
0
 10
286.436768
 20
81.779243
 11
286.436768
 21
52.779243
  0
LINE
  8
0
 62
     1
 10
319.186768
 20
76.029228
 11
319.186768
 21
58.529228
  0
LINE
  8
0
 62
     1
 10
286.686768
 20
76.029243
 11
286.686768
 21
58.529243
  0
LINE
  8
0
 10
312.686768
 20
83.779243
 11
317.436768
 21
83.779243
  0
LINE
  8
0
 62
     1
 10
318.011444
 20
77.044975
 11
318.260773
 21
77.026482
  0
LINE
  8
0
 62
     1
 10
287.862122
 20
77.044968
 11
287.612823
 21
77.026474
  0
LINE
  8
0
 62
     1
 10
318.011444
 20
57.513515
 11
318.260742
 21
57.532009
  0
LINE
  8
0
 62
     1
 10
287.862122
 20
57.513340
 11
287.612823
 21
57.531830
  0
LINE
  8
0
 62
     1
 10
306.436768
 20
56.353973
 11
306.436768
 21
51.779236
  0
LINE
  8
0
 62
     1
 10
299.436768
 20
56.353973
 11
299.436768
 21
51.779236
  0
LINE
  8
0
 62
     1
 10
300.136749
 20
56.353973
 11
300.136749
 21
51.279236
  0
LINE
  8
0
 62
     1
 10
305.736755
 20
56.353973
 11
305.736755
 21
51.279236
  0
LINE
  8
0
 62
     1
 10
299.436768
 20
56.353981
 11
306.436768
 21
56.353981
  0
LINE
  8
0
 62
     1
 10
300.136780
 20
54.204521
 11
305.736755
 21
54.204521
  0
LINE
  8
0
 62
     1
 10
298.546783
 20
86.079247
 11
307.326782
 21
86.079247
  0
LINE
  8
0
 62
     1
 10
295.914276
 20
80.579506
 11
294.546204
 21
84.338272
  0
LINE
  8
0
 62
     1
 10
299.767029
 20
81.981789
 11
298.398956
 21
85.740555
  0
LINE
  8
0
 62
     1
 10
309.959259
 20
80.579498
 11
311.327332
 21
84.338272
  0
LINE
  8
0
 62
     1
 10
306.106537
 20
81.981773
 11
307.474609
 21
85.740540
  0
LINE
  8
0
 62
     1
 10
306.106506
 20
81.981789
 11
309.959229
 21
80.579514
  0
LINE
  8
0
 62
     1
 10
295.914246
 20
80.579597
 11
299.766998
 21
81.981888
  0
LINE
  8
0
 62
     1
 10
307.326752
 20
86.079239
 11
307.326752
 21
85.334457
  0
LINE
  8
0
 62
     1
 10
298.546753
 20
86.079239
 11
298.546753
 21
85.334457
  0
LINE
  8
0
 62
     1
 10
307.474579
 20
85.740555
 11
311.327301
 21
84.338272
  0
LINE
  8
0
 62
     1
 10
294.546173
 20
84.338387
 11
298.398926
 21
85.740677
  0
LINE
  8
0
 62
     1
 10
312.686768
 20
83.831238
 11
312.686768
 21
82.779236
  0
LINE
  8
0
 62
     1
 10
293.186768
 20
83.831238
 11
293.186768
 21
82.779236
  0
LINE
  8
0
 62
     1
 10
300.038025
 20
87.836220
 11
305.835510
 21
87.836220
  0
LINE
  8
0
 62
     1
 10
295.436768
 20
86.341171
 11
295.436768
 21
85.153885
  0
LINE
  8
0
 62
     1
 10
310.436768
 20
86.341171
 11
310.436768
 21
85.153885
  0
LINE
  8
0
 62
     1
 10
295.436768
 20
86.341217
 11
300.038025
 21
87.836250
  0
LINE
  8
0
 62
     1
 10
305.835510
 20
87.836143
 11
310.436798
 21
86.341095
  0
LINE
  8
0
 62
     1
 10
295.436768
 20
85.153893
 11
296.787048
 21
85.153893
  0
LINE
  8
0
 62
     1
 10
309.086487
 20
85.153893
 11
310.436768
 21
85.153893
  0
LINE
  8
0
 62
     1
 10
305.736755
 20
88.351074
 11
305.736755
 21
87.836212
  0
LINE
  8
0
 62
     1
 10
300.136749
 20
88.351074
 11
300.136749
 21
87.836212
  0
LINE
  8
0
  6
CENTER
 10
286.436768
 20
54.279243
 11
293.436768
 21
54.279243
  0
LINE
  8
0
  6
CENTER
 10
289.936768
 20
57.779243
 11
289.936768
 21
50.779243
  0
LINE
  8
0
  6
CENTER
 10
283.436768
 20
67.279243
 11
322.436768
 21
67.279243
  0
LINE
  8
0
  6
CENTER
 10
302.936768
 20
91.836212
 11
302.936768
 21
47.779236
  0
LINE
  8
0
  6
CENTER
 10
315.936768
 20
57.779228
 11
315.936768
 21
50.779228
  0
LINE
  8
0
  6
CENTER
 10
312.436768
 20
54.279243
 11
319.436768
 21
54.279243
  0
LINE
  8
0
  6
CENTER
 10
315.936768
 20
83.779228
 11
315.936768
 21
76.779228
  0
LINE
  8
0
  6
CENTER
 62
     1
 10
307.348877
 20
79.401237
 11
310.085052
 21
86.918777
  0
LINE
  8
0
  6
CENTER
 10
312.436768
 20
80.279243
 11
319.436768
 21
80.279243
  0
LINE
  8
0
  6
CENTER
 62
     1
 10
298.524689
 20
79.401260
 11
295.788544
 21
86.918800
  0
LINE
  8
0
  6
CENTER
 10
289.936768
 20
83.779243
 11
289.936768
 21
76.779243
  0
LINE
  8
0
  6
CENTER
 10
286.436768
 20
80.279243
 11
293.436768
 21
80.279243
  0
ARC
  8
0
 62
     1
 10
200.570114
 20
88.351082
 40
0.666672
 50
0.000000
 51
60.508053
  0
ARC
  8
0
 62
     1
 10
196.303452
 20
88.351082
 40
0.666668
 50
119.491943
 51
180.000000
  0
ARC
  8
0
 62
     1
 10
217.249283
 20
82.990608
 40
0.812500
 50
112.619865
 51
247.380142
  0
ARC
  8
0
 62
     1
 10
198.436783
 20
84.579247
 40
4.999995
 50
60.507675
 51
119.492325
  0
ARC
  8
0
 10
158.808105
 20
68.341881
 40
1.128677
 50
303.848816
 51
56.150528
  0
ARC
  8
0
 62
     1
 10
216.624283
 20
82.990608
 40
0.812500
 50
292.619873
 51
67.380135
  0
ARC
  8
0
 62
     1
 10
183.236771
 20
51.329262
 40
0.300003
 50
180.000000
 51
270.000000
  0
ARC
  8
0
 62
     1
 10
216.661530
 20
84.465355
 40
0.775251
 50
290.795349
 51
90.000000
  0
ARC
  8
0
 62
     1
 10
207.076782
 20
163.979233
 40
0.300003
 50
0.000000
 51
90.000000
  0
ARC
  8
0
 62
     1
 10
216.661530
 20
169.394485
 40
0.775251
 50
290.795349
 51
90.000000
  0
ARC
  8
0
 10
158.808105
 20
161.216614
 40
1.128677
 50
303.848816
 51
56.151169
  0
ARC
  8
0
 62
     1
 10
198.436783
 20
161.006439
 40
0.600009
 50
45.000000
 51
135.000000
  0
ARC
  8
0
 62
     1
 10
199.709564
 20
162.279236
 40
0.600009
 50
135.000000
 51
225.000000
  0
ARC
  8
0
 62
     1
 10
197.163986
 20
162.279236
 40
0.600009
 50
315.000000
 51
45.000000
  0
ARC
  8
0
 62
     1
 10
198.436783
 20
163.552017
 40
0.600009
 50
225.000000
 51
315.000000
  0
CIRCLE
  8
0
 62
     1
 10
198.436783
 20
162.279236
 40
2.799999
  0
ARC
  8
0
 62
     1
 10
216.624283
 20
156.638733
 40
0.812500
 50
292.619873
 51
67.380135
  0
ARC
  8
0
 62
     1
 10
217.249283
 20
156.638733
 40
0.812500
 50
112.619865
 51
247.380142
  0
ARC
  8
0
 62
     1
 10
216.661530
 20
155.163986
 40
0.775253
 50
270.000000
 51
69.203606
  0
ARC
  8
0
 62
     1
 10
217.249283
 20
167.919739
 40
0.812500
 50
112.619865
 51
247.380142
  0
ARC
  8
0
 62
     1
 10
216.624283
 20
167.919739
 40
0.812500
 50
292.619873
 51
67.380135
  0
ARC
  8
0
 62
     1
 10
207.076782
 20
160.579239
 40
0.300003
 50
270.000000
 51
0.000000
  0
ARC
  8
0
 62
     1
 10
204.676773
 20
160.579239
 40
0.300003
 50
180.000000
 51
270.000000
  0
ARC
  8
0
 62
     1
 10
204.676773
 20
163.979233
 40
0.300003
 50
90.000000
 51
180.000000
  0
CIRCLE
  8
0
 10
177.436783
 20
167.779236
 40
2.500000
  0
CIRCLE
  8
0
 10
177.436783
 20
167.779236
 40
2.099999
  0
CIRCLE
  8
0
 10
177.436783
 20
156.779236
 40
2.500000
  0
CIRCLE
  8
0
 10
177.436783
 20
156.779236
 40
2.099999
  0
ARC
  8
0
 62
     1
 10
183.236771
 20
178.229233
 40
0.300003
 50
90.000000
 51
180.000000
  0
ARC
  8
0
 62
     1
 10
183.236771
 20
146.329239
 40
0.300003
 50
180.000000
 51
270.000000
  0
CIRCLE
  8
0
 10
62.936836
 20
67.279251
 40
2.000000
  0
CIRCLE
  8
0
 62
     4
 10
62.936829
 20
53.679245
 40
2.250000
  0
CIRCLE
  8
0
 10
62.936836
 20
67.279251
 40
1.500000
  0
CIRCLE
  8
0
 10
62.936844
 20
80.879288
 40
2.500000
  0
CIRCLE
  8
0
 62
     4
 10
62.936844
 20
80.879288
 40
2.250000
  0
CIRCLE
  8
0
 10
76.536842
 20
67.279251
 40
2.500000
  0
CIRCLE
  8
0
 10
75.936829
 20
54.279251
 40
2.000000
  0
CIRCLE
  8
0
 10
75.936844
 20
80.279251
 40
2.000000
  0
CIRCLE
  8
0
 10
75.936829
 20
54.279251
 40
1.650000
  0
CIRCLE
  8
0
 10
75.936844
 20
80.279251
 40
1.650000
  0
CIRCLE
  8
0
 62
     4
 10
76.536842
 20
67.279251
 40
2.250000
  0
ARC
  8
0
 62
     1
 10
60.803513
 20
88.351112
 40
0.666670
 50
119.492233
 51
180.000000
  0
ARC
  8
0
 62
     1
 10
65.070175
 20
88.351105
 40
0.666664
 50
0.000000
 51
60.508053
  0
ARC
  8
0
 62
     1
 10
62.936844
 20
84.579269
 40
4.999995
 50
60.507675
 51
119.492363
  0
ARC
  8
0
 62
     1
 10
71.938843
 20
83.831253
 40
0.747993
 50
0.000000
 51
160.000122
  0
ARC
  8
0
 62
     1
 10
53.934845
 20
83.831261
 40
0.747998
 50
19.999882
 51
180.000000
  0
CIRCLE
  8
0
 62
     4
 10
49.336838
 20
67.279266
 40
2.250000
  0
CIRCLE
  8
0
 10
49.936829
 20
54.279259
 40
1.650000
  0
CIRCLE
  8
0
 10
49.936844
 20
80.279259
 40
1.650000
  0
ARC
  8
0
 10
77.436844
 20
81.779251
 40
2.000000
 50
0.000000
 51
90.000000
  0
CIRCLE
  8
0
 10
49.936829
 20
54.279259
 40
2.000000
  0
CIRCLE
  8
0
 10
62.936829
 20
53.679245
 40
2.500000
  0
CIRCLE
  8
0
 10
62.936836
 20
67.279251
 40
6.000000
  0
CIRCLE
  8
0
 10
49.336838
 20
67.279266
 40
2.500000
  0
ARC
  8
0
 10
48.436844
 20
81.779266
 40
2.000000
 50
90.000000
 51
180.000000
  0
ARC
  8
0
 10
48.436829
 20
52.779259
 40
2.000000
 50
180.000000
 51
270.000000
  0
ARC
  8
0
 10
77.436829
 20
52.779251
 40
2.000000
 50
270.000000
 51
0.000000
  0
CIRCLE
  8
0
 10
49.936844
 20
80.279259
 40
2.000000
  0
ARC
  8
0
 62
     1
 10
311.686768
 20
51.779236
 40
1.000000
 50
270.000000
 51
0.000000
  0
ARC
  8
0
 62
     1
 10
287.686768
 20
58.529243
 40
1.000000
 50
180.000000
 51
265.757690
  0
ARC
  8
0
 62
     1
 10
293.934784
 20
83.831238
 40
0.747991
 50
20.000082
 51
180.000000
  0
CIRCLE
  8
0
 62
     1
 10
297.156647
 20
83.160034
 40
1.500000
  0
ARC
  8
0
 62
     1
 10
305.070129
 20
88.351074
 40
0.666656
 50
0.000000
 51
60.506912
  0
ARC
  8
0
 62
     1
 10
311.938782
 20
83.831238
 40
0.747986
 50
0.000000
 51
159.999924
  0
ARC
  8
0
 62
     1
 10
302.936768
 20
84.579239
 40
5.000003
 50
60.507523
 51
119.492477
  0
ARC
  8
0
 62
     1
 10
300.803467
 20
88.351074
 40
0.666675
 50
119.493088
 51
180.000000
  0
CIRCLE
  8
0
 62
     1
 10
308.716919
 20
83.160034
 40
1.500000
  0
ARC
  8
0
 62
     1
 10
305.236755
 20
51.279236
 40
0.500000
 50
270.000000
 51
0.000000
  0
ARC
  8
0
 62
     1
 10
300.636780
 20
51.279236
 40
0.500000
 50
180.000000
 51
270.000000
  0
ARC
  8
0
 62
     1
 10
298.436768
 20
51.779236
 40
1.000000
 50
270.000000
 51
0.000000
  0
ARC
  8
0
 62
     1
 10
307.436768
 20
51.779236
 40
1.000000
 50
180.000000
 51
270.000000
  0
ARC
  8
0
 62
     1
 10
294.186768
 20
51.779236
 40
1.000000
 50
180.000000
 51
270.000000
  0
ARC
  8
0
 62
     1
 10
287.436768
 20
51.779243
 40
5.750000
 50
0.000000
 51
85.757690
  0
ARC
  8
0
 62
     1
 10
318.186768
 20
58.529228
 40
1.000001
 50
274.242310
 51
0.000000
  0
ARC
  8
0
 62
     1
 10
318.436768
 20
51.779228
 40
5.750000
 50
94.242310
 51
179.999969
  0
ARC
  8
0
 10
288.436768
 20
81.779243
 40
2.000000
 50
90.000000
 51
180.000000
  0
ARC
  8
0
 10
288.436768
 20
52.779243
 40
2.000000
 50
180.000000
 51
270.000000
  0
ARC
  8
0
 10
317.436768
 20
81.779228
 40
2.000000
 50
0.000000
 51
90.000000
  0
ARC
  8
0
 10
317.436768
 20
52.779228
 40
2.000000
 50
270.000000
 51
0.000000
  0
CIRCLE
  8
0
 10
315.936768
 20
80.279228
 40
1.650000
  0
CIRCLE
  8
0
 10
289.936768
 20
80.279243
 40
1.650000
  0
CIRCLE
  8
0
 10
289.936768
 20
54.279243
 40
1.650000
  0
CIRCLE
  8
0
 10
315.936768
 20
54.279228
 40
1.650000
  0
ARC
  8
0
 62
     1
 10
318.436768
 20
82.779228
 40
5.750000
 50
180.000000
 51
265.757690
  0
ARC
  8
0
 62
     1
 10
318.186768
 20
76.029228
 40
1.000000
 50
0.000000
 51
85.757698
  0
ARC
  8
0
 62
     1
 10
287.436768
 20
82.779243
 40
5.750000
 50
274.242310
 51
0.000000
  0
ARC
  8
0
 62
     1
 10
287.686768
 20
76.029243
 40
1.000001
 50
94.242302
 51
180.000000
  0
TEXT
  8
0
 10
298.797760
 20
244.589584
 40
4.242641
  1
DATE : FEB ,1992
 50
0.000000
 41
1.052631
 51
0.000000
  7
STANDARD
  0
TEXT
  8
0
 10
32.035717
 20
201.757431
 40
5.000000
  1
MODEL : RANS1-*-4
 50
0.000000
 41
1.052632
 51
0.000000
  7
STANDARD
  0
TEXT
  8
0
 10
2.113382
 20
243.907959
 40
5.000000
  1
ROTARY ACUTUATOR
 50
0.000000
 41
0.937799
 51
0.000000
  7
STANDARD
  0
TEXT
  8
0
 10
302.273193
 20
3.650512
 40
5.000000
  1
KOGANEI,CORP
 50
0.000000
 41
1.052632
 51
0.000000
  7
STANDARD
  0
LINE
  8
0
 10
178.686798
 20
169.944290
 11
192.447906
 21
193.779221
  0
LINE
  8
0
 10
192.447906
 20
193.779221
 11
207.845978
 21
193.779221
  0
LINE
  8
0
 10
178.686798
 20
169.944290
 11
180.808121
 21
172.065613
  0
LINE
  8
0
 10
178.686798
 20
169.944290
 11
179.463257
 21
172.842072
  0
TEXT
  8
0
 10
193.095978
 20
194.779221
 40
3.500000
  1
2-M5
 50
0.000000
 41
1.052632
 51
0.000000
  7
STANDARD
  0
ENDSEC
  0
EOF
