  0
SECTION
  2
HEADER
  0
ENDSEC
  0
SECTION
  2
TABLES
  0
TABLE
  2
LTYPE
 70
     4
  0
LTYPE
  2
CONTINUOUS
 70
    64
  3
Solid line
 72
    65
 73
     0
 40
0.000000
  0
LTYPE
  2
DASHED
 70
    64
  3
__ __ __ __ __ __ __ __ __ __ __ __ __ __ __
 72
    65
 73
     2
 40
3.500000
 49
2.000000
 49
-1.500000
  0
LTYPE
  2
CENTER
 70
    64
  3
____ _ ____ _ ____ _ ____ _ ____ _ ____ _ ____
 72
    65
 73
     4
 40
17.500000
 49
13.000000
 49
-1.500000
 49
1.500000
 49
-1.500000
  0
LTYPE
  2
PHANTOM
 70
    64
  3
_____ _ _ _____ _ _ _____ _ _ _____ _ _ ____  
 72
    65
 73
     6
 40
15.500000
 49
8.000000
 49
-1.500000
 49
1.500000
 49
-1.500000
 49
1.500000
 49
-1.500000
  0
LTYPE
  2
DASHED1
 70
    64
  3
__ __ __ __ __ __ __ __ __ __ __ __ __ __ __
 72
    65
 73
     2
 40
1.500000
 49
1.000000
 49
-0.500000
  0
LTYPE
  2
DASHED2
 70
    64
  3
__ __ __ __ __ __ __ __ __ __ __ __ __ __ __
 72
    65
 73
     2
 40
3.500000
 49
2.500000
 49
-1.000000
  0
LTYPE
  2
DASHED3
 70
    64
  3
__ __ __ __ __ __ __ __ __ __ __ __ __ __ __
 72
    65
 73
     2
 40
6.000000
 49
4.000000
 49
-2.000000
  0
LTYPE
  2
DASHED4
 70
    64
  3
__ __ __ __ __ __ __ __ __ __ __ __ __ __ __
 72
    65
 73
     2
 40
12.000000
 49
10.000000
 49
-2.000000
  0
LTYPE
  2
DASHED5
 70
    64
  3
__ __ __ __ __ __ __ __ __ __ __ __ __ __ __
 72
    65
 73
     2
 40
17.000000
 49
15.000000
 49
-2.000000
  0
LTYPE
  2
DASHED6
 70
    64
  3
__ __ __ __ __ __ __ __ __ __ __ __ __ __ __
 72
    65
 73
     2
 40
29.000000
 49
27.000000
 49
-2.000000
  0
LTYPE
  2
PHANTOM1
 70
    64
  3
_____ _ _ _____ _ _ _____ _ _ _____ _ _ ____  
 72
    65
 73
     6
 40
31.000000
 49
25.000000
 49
-1.500000
 49
1.000000
 49
-1.000000
 49
1.000000
 49
-1.500000
  0
LTYPE
  2
PHANTOM2
 70
    64
  3
_____ _ _ _____ _ _ _____ _ _ _____ _ _ ____  
 72
    65
 73
     6
 40
36.000000
 49
27.000000
 49
-1.500000
 49
2.500000
 49
-1.000000
 49
2.500000
 49
-1.500000
  0
LTYPE
  2
PHANTOM3
 70
    64
  3
_____ _ _ _____ _ _ _____ _ _ _____ _ _ ____  
 72
    65
 73
     6
 40
78.000000
 49
64.000000
 49
-2.000000
 49
4.000000
 49
-2.000000
 49
4.000000
 49
-2.000000
  0
LTYPE
  2
CENTER1
 70
    64
  3
____ _ ____ _ ____ _ ____ _ ____ _ ____ _ ____
 72
    65
 73
     4
 40
19.000000
 49
14.000000
 49
-1.000000
 49
3.000000
 49
-1.000000
  0
LTYPE
  2
CENTER2
 70
    64
  3
____ _ ____ _ ____ _ ____ _ ____ _ ____ _ ____
 72
    65
 73
     4
 40
28.500000
 49
25.000000
 49
-1.000000
 49
1.500000
 49
-1.000000
  0
LTYPE
  2
CENTER3
 70
    64
  3
____ _ ____ _ ____ _ ____ _ ____ _ ____ _ ____
 72
    65
 73
     4
 40
31.500000
 49
27.000000
 49
-1.000000
 49
2.500000
 49
-1.000000
  0
LTYPE
  2
CENTER4
 70
    64
  3
____ _ ____ _ ____ _ ____ _ ____ _ ____ _ ____
 72
    65
 73
     4
 40
50.000000
 49
45.000000
 49
-1.000000
 49
3.000000
 49
-1.000000
  0
LTYPE
  2
CENTER5
 70
    64
  3
____ _ ____ _ ____ _ ____ _ ____ _ ____ _ ____
 72
    65
 73
     4
 40
100.000000
 49
92.000000
 49
-2.000000
 49
4.000000
 49
-2.000000
  0
LTYPE
  2
SBK1
 70
    64
  3
______ _ _ _ ______ _ _ _ ______ _ _ _ _____  
 72
    65
 73
     8
 40
60.500000
 49
45.000000
 49
-2.000000
 49
2.500000
 49
-2.000000
 49
2.500000
 49
-2.000000
 49
2.500000
 49
-2.000000
  0
LTYPE
  2
SBK2
 70
    64
  3
______ _ _ _ ______ _ _ _ ______ _ _ _ _____  
 72
    65
 73
     8
 40
84.000000
 49
64.000000
 49
-2.000000
 49
4.000000
 49
-2.000000
 49
4.000000
 49
-2.000000
 49
4.000000
 49
-2.000000
  0
LTYPE
  2
STCH
 70
    64
  3
__ __ __ __ __ __ __ __ __ __ __ __ __ __ __
 72
    65
 73
     2
 40
3.000000
 49
1.000000
 49
-2.000000
  0
LTYPE
  2
MTCH
 70
    64
  3
_____ _ _ _____ _ _ _____ _ _ _____ _ _ ____  
 72
    65
 73
     6
 40
80.000000
 49
66.000000
 49
-2.000000
 49
4.000000
 49
-2.000000
 49
4.000000
 49
-2.000000
  0
ENDTAB
  0
TABLE
  2
LAYER
 70
     1
  0
LAYER
  2
0
 70
     0
 62
     7
  6
CONTINUOUS
  0
ENDTAB
  0
TABLE
  2
STYLE
 70
     1
  0
STYLE
  2
STANDARD
 70
     0
 40
0.000000
 41
1.000000
 50
0.000000
 71
     0
 42
0.200000
  3
txt
  4
BIGFONT
  0
ENDTAB
  0
TABLE
  2
VIEW
 70
     0
  0
ENDTAB
  0
ENDSEC
  0
SECTION
  2
BLOCKS
  0
ENDSEC
  0
SECTION
  2
ENTITIES
  0
POINT
  8
0
 10
65.436852
 20
62.279266
  0
POINT
  8
0
 10
164.936783
 20
62.279236
  0
POINT
  8
0
 10
164.936783
 20
162.279236
  0
POINT
  8
0
 10
295.436768
 20
62.279236
  0
POINT
  8
0
 10
211.436783
 20
62.279236
  0
POINT
  8
0
 10
211.436783
 20
162.279236
  0
POINT
  8
0
 10
81.936844
 20
62.279266
  0
POINT
  8
0
 10
311.936768
 20
62.279236
  0
LINE
  8
0
 62
     3
 10
0.000000
 20
0.000000
 11
0.000000
 21
254.558472
  0
LINE
  8
0
 62
     3
 10
370.873566
 20
254.558472
 11
370.873566
 21
0.000000
  0
LINE
  8
0
 62
     3
 10
0.000000
 20
0.000000
 11
370.873566
 21
0.000000
  0
LINE
  8
0
 62
     3
 10
0.000000
 20
254.558472
 11
370.873566
 21
254.558472
  0
LINE
  8
0
 62
     3
 10
0.000000
 20
240.257431
 11
76.272194
 21
240.257431
  0
LINE
  8
0
 62
     3
 10
76.272194
 20
240.257431
 11
76.272194
 21
254.558472
  0
LINE
  8
0
 62
     3
 10
294.601379
 20
14.301025
 11
370.873566
 21
14.301025
  0
LINE
  8
0
 62
     3
 10
294.601379
 20
240.257431
 11
370.873566
 21
240.257431
  0
LINE
  8
0
 62
     3
 10
294.601379
 20
254.558472
 11
294.601379
 21
240.257431
  0
LINE
  8
0
 62
     3
 10
294.601379
 20
14.301025
 11
294.601379
 21
0.000000
  0
LINE
  8
0
 10
152.936798
 20
64.279236
 11
152.936798
 21
60.779236
  0
LINE
  8
0
 10
164.936783
 20
78.779236
 11
164.936783
 21
45.779236
  0
LINE
  8
0
 10
175.436783
 20
78.779236
 11
175.436783
 21
45.779236
  0
LINE
  8
0
 10
185.436783
 20
81.079239
 11
185.436783
 21
46.029236
  0
LINE
  8
0
 10
164.936783
 20
78.779236
 11
175.436783
 21
78.779236
  0
LINE
  8
0
 10
164.936783
 20
45.779236
 11
175.436783
 21
45.779236
  0
LINE
  8
0
 10
175.436783
 20
46.029236
 11
185.436783
 21
46.029236
  0
LINE
  8
0
 10
175.436783
 20
78.529236
 11
185.436783
 21
78.529236
  0
LINE
  8
0
 10
175.436783
 20
72.029236
 11
185.436783
 21
72.029236
  0
LINE
  8
0
 10
153.436798
 20
60.279236
 11
164.936783
 21
60.279236
  0
LINE
  8
0
 10
152.936798
 20
64.279236
 11
164.936783
 21
64.279236
  0
LINE
  8
0
 10
153.436798
 20
62.404480
 11
153.436798
 21
60.279236
  0
LINE
  8
0
 62
     1
 10
211.436783
 20
81.079239
 11
211.436783
 21
45.829239
  0
LINE
  8
0
 62
     1
 10
185.736771
 20
46.029236
 11
209.436783
 21
46.029236
  0
LINE
  8
0
 62
     1
 10
185.436783
 20
52.529236
 11
211.436783
 21
52.529236
  0
LINE
  8
0
 62
     1
 10
185.436783
 20
72.029236
 11
211.436783
 21
72.029236
  0
LINE
  8
0
 62
     1
 10
209.436783
 20
81.079239
 11
209.436783
 21
80.740585
  0
LINE
  8
0
 62
     1
 10
209.436783
 20
45.829239
 11
211.436783
 21
45.829239
  0
LINE
  8
0
 62
     1
 10
185.436783
 20
80.740585
 11
197.336777
 21
80.740585
  0
LINE
  8
0
 62
     1
 10
186.436783
 20
80.740585
 11
186.436783
 21
79.579239
  0
LINE
  8
0
 62
     1
 10
211.725464
 20
77.240585
 11
219.436783
 21
77.240585
  0
LINE
  8
0
 62
     1
 10
211.725464
 20
80.240585
 11
219.161530
 21
80.240585
  0
LINE
  8
0
 62
     1
 10
211.436737
 20
80.740585
 11
211.725418
 21
80.240585
  0
LINE
  8
0
 62
     1
 10
211.436768
 20
76.740089
 11
211.725739
 21
77.240585
  0
LINE
  8
0
 62
     1
 10
211.725464
 20
80.240585
 11
211.725464
 21
77.240082
  0
LINE
  8
0
 62
     1
 10
197.336777
 20
82.836212
 11
197.336777
 21
80.153885
  0
LINE
  8
0
 62
     1
 10
204.536774
 20
82.836212
 11
204.536774
 21
80.153885
  0
LINE
  8
0
 62
     1
 10
203.736771
 20
83.351059
 11
203.736771
 21
82.836197
  0
LINE
  8
0
 62
     1
 10
198.136780
 20
83.351059
 11
198.136780
 21
82.836197
  0
LINE
  8
0
 10
161.936783
 20
62.404480
 11
161.936783
 21
64.279236
  0
LINE
  8
0
 10
152.936798
 20
62.404480
 11
161.936783
 21
62.404480
  0
LINE
  8
0
 10
161.936768
 20
62.404408
 11
152.936783
 21
64.279167
  0
LINE
  8
0
 10
152.936783
 20
62.404469
 11
161.936783
 21
64.279228
  0
LINE
  8
0
 10
152.936829
 20
60.779278
 11
153.436829
 21
60.279278
  0
LINE
  8
0
 62
     1
 10
197.336777
 20
82.836212
 11
204.536774
 21
82.836212
  0
LINE
  8
0
 62
     1
 10
197.336777
 20
81.341171
 11
204.536774
 21
81.341171
  0
LINE
  8
0
 62
     1
 10
197.336777
 20
80.153885
 11
204.536774
 21
80.153885
  0
LINE
  8
0
 62
     1
 10
185.436783
 20
81.079239
 11
197.336777
 21
81.079239
  0
LINE
  8
0
 62
     1
 10
204.536774
 20
81.079239
 11
211.436783
 21
81.079239
  0
LINE
  8
0
 62
     1
 10
204.536774
 20
80.740585
 11
211.436783
 21
80.740585
  0
LINE
  8
0
 10
175.436783
 20
52.529236
 11
185.436783
 21
52.529236
  0
LINE
  8
0
 62
     1
 10
185.436783
 20
79.579239
 11
211.436783
 21
79.579239
  0
LINE
  8
0
 62
     1
 10
209.436783
 20
79.579239
 11
209.436783
 21
45.829239
  0
LINE
  8
0
  6
CENTER
 10
150.036789
 20
62.279236
 11
214.436783
 21
62.279236
  0
LINE
  8
0
  6
CENTER
 10
167.436783
 20
74.279236
 11
167.436783
 21
68.279236
  0
LINE
  8
0
  6
CENTER
 10
164.436783
 20
71.279236
 11
170.436783
 21
71.279236
  0
LINE
  8
0
  6
CENTER
 10
167.436783
 20
56.279236
 11
167.436783
 21
50.279236
  0
LINE
  8
0
  6
CENTER
 10
164.436783
 20
53.279236
 11
170.436783
 21
53.279236
  0
LINE
  8
0
  6
CENTER
 62
     1
 10
200.936783
 20
86.579224
 11
200.936783
 21
78.153885
  0
LINE
  8
0
 10
152.936798
 20
163.779236
 11
152.936798
 21
160.279236
  0
LINE
  8
0
 10
164.936783
 20
178.779236
 11
164.936783
 21
145.779236
  0
LINE
  8
0
 10
175.436783
 20
178.779236
 11
175.436783
 21
145.779236
  0
LINE
  8
0
 10
185.436783
 20
178.529236
 11
185.436783
 21
146.029236
  0
LINE
  8
0
 10
164.936783
 20
178.779236
 11
175.436783
 21
178.779236
  0
LINE
  8
0
 10
164.936783
 20
145.779236
 11
175.436783
 21
145.779236
  0
LINE
  8
0
 10
175.436783
 20
146.029236
 11
185.436783
 21
146.029236
  0
LINE
  8
0
 10
175.436783
 20
178.529236
 11
185.436783
 21
178.529236
  0
LINE
  8
0
 10
175.436783
 20
172.029236
 11
185.436783
 21
172.029236
  0
LINE
  8
0
 10
175.436783
 20
152.529236
 11
185.436783
 21
152.529236
  0
LINE
  8
0
 10
152.936798
 20
160.279236
 11
164.936783
 21
160.279236
  0
LINE
  8
0
 10
153.436783
 20
164.279236
 11
164.936783
 21
164.279236
  0
LINE
  8
0
 10
152.936813
 20
163.779205
 11
153.436813
 21
164.279205
  0
LINE
  8
0
 10
153.436783
 20
164.279236
 11
153.436783
 21
162.153992
  0
LINE
  8
0
 62
     1
 10
211.436783
 20
178.729233
 11
211.436783
 21
145.829239
  0
LINE
  8
0
 62
     1
 10
185.736771
 20
146.029236
 11
209.436783
 21
146.029236
  0
LINE
  8
0
 62
     1
 10
185.736771
 20
178.529236
 11
209.436783
 21
178.529236
  0
LINE
  8
0
 62
     1
 10
185.436783
 20
152.529236
 11
211.436783
 21
152.529236
  0
LINE
  8
0
 62
     1
 10
185.436783
 20
172.029236
 11
211.436783
 21
172.029236
  0
LINE
  8
0
 62
     1
 10
207.176773
 20
160.279236
 11
209.576782
 21
160.279236
  0
LINE
  8
0
 62
     1
 10
207.176773
 20
164.279236
 11
209.576782
 21
164.279236
  0
LINE
  8
0
 62
     1
 10
209.876785
 20
163.979233
 11
209.876785
 21
160.579239
  0
LINE
  8
0
 62
     1
 10
206.876785
 20
163.979233
 11
206.876785
 21
160.579239
  0
LINE
  8
0
 62
     1
 10
185.436783
 20
157.889236
 11
197.336777
 21
157.889236
  0
LINE
  8
0
 62
     1
 10
185.436783
 20
166.669235
 11
197.336777
 21
166.669235
  0
LINE
  8
0
 62
     1
 10
204.936783
 20
166.669235
 11
204.936783
 21
157.889236
  0
LINE
  8
0
 62
     1
 10
196.936783
 20
166.669235
 11
196.936783
 21
157.889236
  0
LINE
  8
0
 62
     1
 10
209.436783
 20
178.729233
 11
209.436783
 21
170.669739
  0
LINE
  8
0
 62
     1
 10
209.436783
 20
153.888733
 11
209.436783
 21
145.829239
  0
LINE
  8
0
 62
     1
 10
209.436783
 20
145.829239
 11
211.436783
 21
145.829239
  0
LINE
  8
0
 62
     1
 10
209.436783
 20
178.729233
 11
211.436783
 21
178.729233
  0
LINE
  8
0
 62
     1
 10
185.436783
 20
170.669739
 11
211.436783
 21
170.669739
  0
LINE
  8
0
 62
     1
 10
185.436783
 20
153.888733
 11
211.436783
 21
153.888733
  0
LINE
  8
0
 62
     1
 10
186.436783
 20
170.669739
 11
186.436783
 21
166.669235
  0
LINE
  8
0
 62
     1
 10
186.436783
 20
157.889236
 11
186.436783
 21
153.888733
  0
LINE
  8
0
 62
     1
 10
211.725464
 20
167.169739
 11
219.436783
 21
167.169739
  0
LINE
  8
0
 62
     1
 10
211.725464
 20
170.169739
 11
219.161530
 21
170.169739
  0
LINE
  8
0
 62
     1
 10
211.436752
 20
170.669708
 11
211.725433
 21
170.169693
  0
LINE
  8
0
 62
     1
 10
211.436783
 20
166.669205
 11
211.725739
 21
167.169708
  0
LINE
  8
0
 62
     1
 10
211.725464
 20
170.169724
 11
211.725464
 21
167.169220
  0
LINE
  8
0
 62
     1
 10
211.725464
 20
157.388733
 11
219.436783
 21
157.388733
  0
LINE
  8
0
 62
     1
 10
211.725464
 20
154.388733
 11
219.161530
 21
154.388733
  0
LINE
  8
0
 62
     1
 10
211.436752
 20
153.888748
 11
211.725433
 21
154.388748
  0
LINE
  8
0
 62
     1
 10
211.436752
 20
157.889206
 11
211.725708
 21
157.388718
  0
LINE
  8
0
 62
     1
 10
211.725464
 20
154.388733
 11
211.725464
 21
157.389236
  0
LINE
  8
0
 62
     1
 10
197.336777
 20
169.779236
 11
197.336777
 21
154.779236
  0
LINE
  8
0
 62
     1
 10
204.536774
 20
169.779236
 11
204.536774
 21
154.779236
  0
LINE
  8
0
 62
     1
 10
197.336777
 20
154.779236
 11
204.536774
 21
154.779236
  0
LINE
  8
0
 62
     1
 10
197.336777
 20
169.779236
 11
204.536774
 21
169.779236
  0
LINE
  8
0
 62
     1
 10
204.536774
 20
166.669235
 11
211.436783
 21
166.669235
  0
LINE
  8
0
 62
     1
 10
204.536774
 20
157.889236
 11
211.436783
 21
157.889236
  0
LINE
  8
0
 62
     1
 10
197.336777
 20
165.177979
 11
204.536774
 21
165.177979
  0
LINE
  8
0
 62
     1
 10
197.336777
 20
159.380478
 11
204.536774
 21
159.380478
  0
LINE
  8
0
 62
     1
 10
199.663986
 20
163.127808
 11
200.088242
 21
163.552048
  0
LINE
  8
0
 62
     1
 10
201.785294
 20
161.006454
 11
202.209564
 21
161.430725
  0
LINE
  8
0
 62
     1
 10
199.663986
 20
161.430710
 11
200.088257
 21
161.854980
  0
LINE
  8
0
 62
     1
 10
200.088242
 20
161.006454
 11
200.512497
 21
161.430725
  0
LINE
  8
0
 62
     1
 10
199.664032
 20
161.430740
 11
200.088287
 21
161.006470
  0
LINE
  8
0
 62
     1
 10
201.785355
 20
163.552048
 11
202.209625
 21
163.127777
  0
LINE
  8
0
 62
     1
 10
199.664032
 20
163.127792
 11
200.088303
 21
162.703537
  0
LINE
  8
0
 62
     1
 10
200.088318
 20
163.552063
 11
200.512589
 21
163.127792
  0
LINE
  8
0
 62
     1
 10
201.361038
 20
163.127777
 11
201.785309
 21
163.552048
  0
LINE
  8
0
 62
     1
 10
201.785278
 20
162.703506
 11
202.209549
 21
163.127777
  0
LINE
  8
0
 62
     1
 10
201.361099
 20
161.430740
 11
201.785355
 21
161.006485
  0
LINE
  8
0
 62
     1
 10
201.785370
 20
161.855011
 11
202.209641
 21
161.430740
  0
LINE
  8
0
 10
152.936798
 20
162.153992
 11
161.936783
 21
162.153992
  0
LINE
  8
0
 10
161.936783
 20
162.153992
 11
161.936783
 21
160.279236
  0
LINE
  8
0
 10
152.936813
 20
162.154068
 11
161.936813
 21
160.279312
  0
LINE
  8
0
 10
161.936783
 20
162.154053
 11
152.936783
 21
160.279282
  0
LINE
  8
0
  6
CENTER
 10
150.036789
 20
162.279236
 11
214.436783
 21
162.279236
  0
LINE
  8
0
  6
CENTER
 10
167.436783
 20
174.279236
 11
167.436783
 21
168.279236
  0
LINE
  8
0
  6
CENTER
 10
164.436783
 20
171.279236
 11
170.436783
 21
171.279236
  0
LINE
  8
0
  6
CENTER
 10
167.436783
 20
156.279236
 11
167.436783
 21
150.279236
  0
LINE
  8
0
  6
CENTER
 10
164.436783
 20
153.279236
 11
170.436783
 21
153.279236
  0
LINE
  8
0
  6
CENTER
 10
179.936783
 20
152.779236
 11
179.936783
 21
160.779236
  0
LINE
  8
0
  6
CENTER
 10
175.936783
 20
156.779236
 11
183.936783
 21
156.779236
  0
LINE
  8
0
  6
CENTER
 10
179.936783
 20
171.779236
 11
179.936783
 21
163.779236
  0
LINE
  8
0
  6
CENTER
 62
     1
 10
183.436783
 20
168.669739
 11
221.436768
 21
168.669739
  0
LINE
  8
0
  6
CENTER
 62
     1
 10
200.936783
 20
165.779236
 11
200.936783
 21
158.779236
  0
LINE
  8
0
  6
CENTER
 62
     1
 10
183.436783
 20
155.888733
 11
221.436768
 21
155.888733
  0
LINE
  8
0
  6
CENTER
 10
175.936783
 20
167.779236
 11
183.936783
 21
167.779236
  0
LINE
  8
0
 10
50.936844
 20
78.779266
 11
79.936836
 21
78.779266
  0
LINE
  8
0
 10
48.936844
 20
76.779251
 11
48.936844
 21
47.779251
  0
LINE
  8
0
 10
50.936844
 20
45.779266
 11
79.936836
 21
45.779266
  0
LINE
  8
0
 10
81.936844
 20
76.779251
 11
81.936844
 21
47.779251
  0
LINE
  8
0
 10
65.561958
 20
64.275246
 11
67.432785
 21
62.404415
  0
LINE
  8
0
 62
     4
 10
64.436760
 20
48.101765
 11
65.436768
 21
47.524410
  0
LINE
  8
0
 62
     4
 10
65.436852
 20
47.524529
 11
66.436867
 21
48.101891
  0
LINE
  8
0
 62
     4
 10
66.436852
 20
48.101898
 11
66.436852
 21
49.256592
  0
LINE
  8
0
 62
     4
 10
66.436752
 20
49.256424
 11
65.436752
 21
49.833778
  0
LINE
  8
0
 62
     4
 10
65.436836
 20
49.833965
 11
64.436821
 21
49.256603
  0
LINE
  8
0
 62
     4
 10
64.436852
 20
49.256592
 11
64.436852
 21
48.101898
  0
LINE
  8
0
 62
     4
 10
50.836765
 20
61.701736
 11
51.836758
 21
61.124390
  0
LINE
  8
0
 62
     4
 10
51.836803
 20
61.124569
 11
52.836811
 21
61.701923
  0
LINE
  8
0
 62
     4
 10
52.836868
 20
61.701889
 11
52.836868
 21
62.856598
  0
LINE
  8
0
 62
     4
 10
52.836765
 20
62.856453
 11
51.836773
 21
63.433800
  0
LINE
  8
0
 62
     4
 10
51.836777
 20
63.434006
 11
50.836784
 21
62.856659
  0
LINE
  8
0
 62
     4
 10
50.836838
 20
62.856598
 11
50.836838
 21
61.701889
  0
LINE
  8
0
 62
     1
 10
61.046837
 20
81.079269
 11
69.826836
 21
81.079269
  0
LINE
  8
0
 62
     1
 10
57.249702
 20
78.779221
 11
57.046227
 21
79.338264
  0
LINE
  8
0
 62
     1
 10
61.612827
 20
78.779251
 11
60.898964
 21
80.740578
  0
LINE
  8
0
 62
     1
 10
73.623940
 20
78.779236
 11
73.827415
 21
79.338280
  0
LINE
  8
0
 62
     1
 10
69.260796
 20
78.779259
 11
69.974663
 21
80.740578
  0
LINE
  8
0
 62
     1
 10
69.826843
 20
81.079254
 11
69.826843
 21
80.334473
  0
LINE
  8
0
 62
     1
 10
61.046837
 20
81.079254
 11
61.046837
 21
80.334473
  0
LINE
  8
0
 62
     1
 10
69.974709
 20
80.740707
 11
73.827446
 21
79.338425
  0
LINE
  8
0
 62
     1
 10
57.046249
 20
79.338280
 11
60.898994
 21
80.740562
  0
LINE
  8
0
 62
     1
 10
75.186844
 20
78.831253
 11
75.186844
 21
78.779251
  0
LINE
  8
0
 62
     1
 10
55.686844
 20
78.831253
 11
55.686844
 21
78.779251
  0
LINE
  8
0
 62
     1
 10
62.538094
 20
82.836243
 11
68.335579
 21
82.836243
  0
LINE
  8
0
 62
     1
 10
57.936852
 20
81.341187
 11
57.936852
 21
80.153900
  0
LINE
  8
0
 62
     1
 10
72.936844
 20
81.341187
 11
72.936844
 21
80.153900
  0
LINE
  8
0
 62
     1
 10
57.936836
 20
81.341156
 11
62.538101
 21
82.836197
  0
LINE
  8
0
 62
     1
 10
68.335594
 20
82.836197
 11
72.936867
 21
81.341156
  0
LINE
  8
0
 62
     1
 10
57.936836
 20
80.153915
 11
59.287117
 21
80.153915
  0
LINE
  8
0
 62
     1
 10
71.586555
 20
80.153915
 11
72.936836
 21
80.153915
  0
LINE
  8
0
 62
     1
 10
68.236847
 20
83.351105
 11
68.236847
 21
82.836243
  0
LINE
  8
0
 62
     1
 10
62.636833
 20
83.351105
 11
62.636833
 21
82.836243
  0
LINE
  8
0
 62
     4
 10
80.036873
 20
61.701866
 11
79.036880
 21
61.124519
  0
LINE
  8
0
 62
     4
 10
79.037033
 20
61.124878
 11
78.037025
 21
61.702225
  0
LINE
  8
0
 62
     4
 10
78.036835
 20
61.701889
 11
78.036835
 21
62.856598
  0
LINE
  8
0
 62
     4
 10
78.036819
 20
62.856678
 11
79.036789
 21
63.434010
  0
LINE
  8
0
 62
     4
 10
79.036819
 20
63.433933
 11
80.036819
 21
62.856579
  0
LINE
  8
0
 62
     4
 10
80.036850
 20
62.856598
 11
80.036850
 21
61.701889
  0
LINE
  8
0
 62
     4
 10
64.436852
 20
76.456680
 11
65.436852
 21
77.034050
  0
LINE
  8
0
 62
     4
 10
65.437035
 20
77.034294
 11
66.437050
 21
76.456932
  0
LINE
  8
0
 62
     4
 10
66.436852
 20
76.456635
 11
66.436852
 21
75.301941
  0
LINE
  8
0
 62
     4
 10
66.436836
 20
75.301994
 11
65.436852
 21
74.724632
  0
LINE
  8
0
 62
     4
 10
65.436783
 20
74.724472
 11
64.436775
 21
75.301834
  0
LINE
  8
0
 62
     4
 10
64.436852
 20
75.301941
 11
64.436852
 21
76.456635
  0
LINE
  8
0
  6
CENTER
 10
51.836838
 20
66.279251
 11
51.836838
 21
58.279251
  0
LINE
  8
0
  6
CENTER
 10
45.936844
 20
62.279266
 11
84.936836
 21
62.279266
  0
LINE
  8
0
  6
CENTER
 10
61.436836
 20
48.679260
 11
69.436836
 21
48.679260
  0
LINE
  8
0
  6
CENTER
 10
61.436836
 20
75.879272
 11
69.436836
 21
75.879272
  0
LINE
  8
0
  6
CENTER
 10
79.036850
 20
66.279251
 11
79.036850
 21
58.279251
  0
LINE
  8
0
  6
CENTER
 10
65.436852
 20
86.836227
 11
65.436852
 21
42.779251
  0
LINE
  8
0
 10
280.936768
 20
45.779236
 11
309.936768
 21
45.779236
  0
LINE
  8
0
 10
280.936768
 20
78.779236
 11
285.686768
 21
78.779236
  0
LINE
  8
0
 10
311.936768
 20
76.779236
 11
311.936768
 21
47.779236
  0
LINE
  8
0
 10
278.936768
 20
76.779236
 11
278.936768
 21
47.779236
  0
LINE
  8
0
 62
     1
 10
311.686768
 20
71.029236
 11
311.686768
 21
53.529236
  0
LINE
  8
0
 62
     1
 10
279.186768
 20
71.029236
 11
279.186768
 21
53.529236
  0
LINE
  8
0
 10
305.186768
 20
78.779236
 11
309.936768
 21
78.779236
  0
LINE
  8
0
 62
     1
 10
310.511414
 20
72.044983
 11
310.760742
 21
72.026489
  0
LINE
  8
0
 62
     1
 10
280.362152
 20
72.044983
 11
280.112823
 21
72.026489
  0
LINE
  8
0
 62
     1
 10
310.511444
 20
52.513527
 11
310.760742
 21
52.532021
  0
LINE
  8
0
 62
     1
 10
280.362122
 20
52.513332
 11
280.112823
 21
52.531826
  0
LINE
  8
0
 62
     1
 10
298.936768
 20
51.353973
 11
298.936768
 21
46.779236
  0
LINE
  8
0
 62
     1
 10
291.936768
 20
51.353973
 11
291.936768
 21
46.779236
  0
LINE
  8
0
 62
     1
 10
292.636780
 20
51.353973
 11
292.636780
 21
46.279236
  0
LINE
  8
0
 62
     1
 10
298.236755
 20
51.353973
 11
298.236755
 21
46.279236
  0
LINE
  8
0
 62
     1
 10
291.936768
 20
51.353973
 11
298.936768
 21
51.353973
  0
LINE
  8
0
 62
     1
 10
292.636780
 20
49.204514
 11
298.236786
 21
49.204514
  0
LINE
  8
0
 62
     1
 10
291.046783
 20
81.079239
 11
299.826782
 21
81.079239
  0
LINE
  8
0
 62
     1
 10
288.414307
 20
75.579514
 11
287.046234
 21
79.338280
  0
LINE
  8
0
 62
     1
 10
292.267090
 20
76.981789
 11
290.899017
 21
80.740562
  0
LINE
  8
0
 62
     1
 10
302.459229
 20
75.579483
 11
303.827301
 21
79.338249
  0
LINE
  8
0
 62
     1
 10
298.606537
 20
76.981781
 11
299.974609
 21
80.740547
  0
LINE
  8
0
 62
     1
 10
298.606476
 20
76.981773
 11
302.459229
 21
75.579483
  0
LINE
  8
0
 62
     1
 10
288.414246
 20
75.579582
 11
292.266998
 21
76.981865
  0
LINE
  8
0
 62
     1
 10
299.826782
 20
81.079239
 11
299.826782
 21
80.334457
  0
LINE
  8
0
 62
     1
 10
291.046753
 20
81.079239
 11
291.046753
 21
80.334457
  0
LINE
  8
0
 62
     1
 10
299.974579
 20
80.740555
 11
303.827301
 21
79.338280
  0
LINE
  8
0
 62
     1
 10
287.046173
 20
79.338394
 11
290.898926
 21
80.740677
  0
LINE
  8
0
 62
     1
 10
305.186768
 20
78.831238
 11
305.186768
 21
77.779236
  0
LINE
  8
0
 62
     1
 10
285.686768
 20
78.831238
 11
285.686768
 21
77.779236
  0
LINE
  8
0
 62
     1
 10
292.538025
 20
82.836212
 11
298.335510
 21
82.836212
  0
LINE
  8
0
 62
     1
 10
287.936768
 20
81.341171
 11
287.936768
 21
80.153885
  0
LINE
  8
0
 62
     1
 10
302.936768
 20
81.341171
 11
302.936768
 21
80.153885
  0
LINE
  8
0
 62
     1
 10
287.936768
 20
81.341187
 11
292.538055
 21
82.836227
  0
LINE
  8
0
 62
     1
 10
298.335541
 20
82.836166
 11
302.936798
 21
81.341125
  0
LINE
  8
0
 62
     1
 10
287.936768
 20
80.153885
 11
289.287048
 21
80.153885
  0
LINE
  8
0
 62
     1
 10
301.586487
 20
80.153885
 11
302.936768
 21
80.153885
  0
LINE
  8
0
 62
     1
 10
292.636780
 20
83.351074
 11
292.636780
 21
82.836212
  0
LINE
  8
0
 62
     1
 10
298.236755
 20
83.351074
 11
298.236755
 21
82.836212
  0
LINE
  8
0
  6
CENTER
 10
275.936768
 20
62.279236
 11
314.936768
 21
62.279236
  0
LINE
  8
0
  6
CENTER
 10
295.436768
 20
86.836212
 11
295.436768
 21
42.779236
  0
LINE
  8
0
  6
CENTER
 62
     1
 10
291.024689
 20
74.401260
 11
288.288544
 21
81.918800
  0
LINE
  8
0
  6
CENTER
 62
     1
 10
299.848907
 20
74.401268
 11
302.585052
 21
81.918823
  0
ARC
  8
0
 62
     1
 10
185.736771
 20
46.329239
 40
0.300003
 50
180.000000
 51
270.000000
  0
ARC
  8
0
 62
     1
 10
219.161530
 20
79.465332
 40
0.775251
 50
290.795349
 51
90.000000
  0
ARC
  8
0
 62
     1
 10
219.124283
 20
77.990585
 40
0.812500
 50
292.619873
 51
67.380135
  0
ARC
  8
0
 10
161.308105
 20
63.341858
 40
1.128677
 50
303.848816
 51
56.150528
  0
ARC
  8
0
 62
     1
 10
203.070114
 20
83.351059
 40
0.666672
 50
0.000000
 51
60.508053
  0
ARC
  8
0
 62
     1
 10
198.803452
 20
83.351059
 40
0.666668
 50
119.491943
 51
180.000000
  0
CIRCLE
  8
0
 10
167.436783
 20
53.279236
 40
1.750000
  0
CIRCLE
  8
0
 10
167.436783
 20
71.279236
 40
1.750000
  0
ARC
  8
0
 62
     1
 10
200.936783
 20
79.579224
 40
4.999995
 50
60.507675
 51
119.492325
  0
ARC
  8
0
 62
     1
 10
219.749283
 20
77.990585
 40
0.812500
 50
112.619865
 51
247.380142
  0
ARC
  8
0
 62
     1
 10
199.663986
 20
162.279236
 40
0.600009
 50
315.000000
 51
45.000000
  0
ARC
  8
0
 62
     1
 10
202.209564
 20
162.279236
 40
0.600009
 50
135.000000
 51
225.000000
  0
ARC
  8
0
 62
     1
 10
219.161530
 20
169.394485
 40
0.775251
 50
290.795349
 51
90.000000
  0
ARC
  8
0
 62
     1
 10
209.576782
 20
163.979233
 40
0.300003
 50
0.000000
 51
90.000000
  0
ARC
  8
0
 62
     1
 10
209.576782
 20
160.579239
 40
0.300003
 50
270.000000
 51
0.000000
  0
ARC
  8
0
 62
     1
 10
207.176773
 20
160.579239
 40
0.300003
 50
180.000000
 51
270.000000
  0
ARC
  8
0
 62
     1
 10
207.176773
 20
163.979233
 40
0.300003
 50
90.000000
 51
180.000000
  0
ARC
  8
0
 62
     1
 10
185.736771
 20
146.329239
 40
0.300003
 50
180.000000
 51
270.000000
  0
ARC
  8
0
 62
     1
 10
185.736771
 20
178.229233
 40
0.300003
 50
90.000000
 51
180.000000
  0
CIRCLE
  8
0
 10
179.936783
 20
156.779236
 40
2.099999
  0
CIRCLE
  8
0
 10
179.936783
 20
156.779236
 40
2.500000
  0
CIRCLE
  8
0
 10
179.936783
 20
167.779236
 40
2.099999
  0
CIRCLE
  8
0
 10
179.936783
 20
167.779236
 40
2.500000
  0
ARC
  8
0
 62
     1
 10
219.161530
 20
155.163986
 40
0.775253
 50
270.000000
 51
69.203606
  0
ARC
  8
0
 62
     1
 10
219.749283
 20
156.638733
 40
0.812500
 50
112.619865
 51
247.380142
  0
ARC
  8
0
 62
     1
 10
219.749283
 20
167.919739
 40
0.812500
 50
112.619865
 51
247.380142
  0
ARC
  8
0
 10
161.308105
 20
161.216614
 40
1.128677
 50
303.848816
 51
56.151169
  0
ARC
  8
0
 62
     1
 10
200.936783
 20
161.006439
 40
0.600009
 50
45.000000
 51
135.000000
  0
ARC
  8
0
 62
     1
 10
219.124283
 20
167.919739
 40
0.812500
 50
292.619873
 51
67.380135
  0
CIRCLE
  8
0
 10
167.436783
 20
171.279236
 40
1.750000
  0
ARC
  8
0
 62
     1
 10
200.936783
 20
163.552017
 40
0.600009
 50
225.000000
 51
315.000000
  0
CIRCLE
  8
0
 10
167.436783
 20
153.279236
 40
1.750000
  0
CIRCLE
  8
0
 62
     1
 10
200.936783
 20
162.279236
 40
2.799999
  0
ARC
  8
0
 62
     1
 10
219.124283
 20
156.638733
 40
0.812500
 50
292.619873
 51
67.380135
  0
ARC
  8
0
 62
     1
 10
65.436836
 20
79.579269
 40
4.999995
 50
60.507675
 51
119.492363
  0
ARC
  8
0
 62
     1
 10
67.570168
 20
83.351105
 40
0.666664
 50
0.000000
 51
60.508053
  0
CIRCLE
  8
0
 10
65.436836
 20
62.279251
 40
1.500000
  0
CIRCLE
  8
0
 10
65.436836
 20
75.879288
 40
2.500000
  0
CIRCLE
  8
0
 62
     4
 10
65.436836
 20
75.879288
 40
2.250000
  0
CIRCLE
  8
0
 10
79.036842
 20
62.279251
 40
2.500000
  0
CIRCLE
  8
0
 62
     4
 10
79.036842
 20
62.279251
 40
2.250000
  0
ARC
  8
0
 62
     1
 10
63.303505
 20
83.351105
 40
0.666670
 50
119.492233
 51
180.000000
  0
ARC
  8
0
 62
     1
 10
74.438835
 20
78.831253
 40
0.747993
 50
0.000000
 51
160.000122
  0
ARC
  8
0
 62
     1
 10
56.434830
 20
78.831253
 40
0.747998
 50
19.999882
 51
180.000000
  0
CIRCLE
  8
0
 10
65.436836
 20
48.679245
 40
2.500000
  0
CIRCLE
  8
0
 10
51.836838
 20
62.279251
 40
2.500000
  0
ARC
  8
0
 10
50.936844
 20
76.779251
 40
2.000000
 50
90.000000
 51
180.000000
  0
ARC
  8
0
 10
50.936844
 20
47.779251
 40
2.000000
 50
180.000000
 51
270.000000
  0
ARC
  8
0
 10
79.936836
 20
47.779251
 40
2.000000
 50
270.000000
 51
0.000000
  0
ARC
  8
0
 10
79.936836
 20
76.779251
 40
2.000000
 50
0.000000
 51
90.000000
  0
CIRCLE
  8
0
 10
65.436836
 20
62.279251
 40
2.000000
  0
CIRCLE
  8
0
 62
     4
 10
65.436836
 20
48.679245
 40
2.250000
  0
CIRCLE
  8
0
 62
     4
 10
51.836838
 20
62.279251
 40
2.250000
  0
ARC
  8
0
 62
     1
 10
286.686768
 20
46.779236
 40
1.000000
 50
180.000000
 51
270.000000
  0
ARC
  8
0
 62
     1
 10
299.936768
 20
46.779236
 40
1.000000
 50
180.000000
 51
270.000000
  0
ARC
  8
0
 62
     1
 10
290.936768
 20
46.779236
 40
1.000000
 50
270.000000
 51
0.000000
  0
ARC
  8
0
 62
     1
 10
297.570129
 20
83.351074
 40
0.666656
 50
0.000000
 51
60.506912
  0
ARC
  8
0
 62
     1
 10
295.436768
 20
79.579239
 40
5.000003
 50
60.507523
 51
119.492477
  0
CIRCLE
  8
0
 62
     1
 10
289.656647
 20
78.160034
 40
1.500000
  0
ARC
  8
0
 62
     1
 10
304.438782
 20
78.831238
 40
0.747986
 50
0.000000
 51
159.999924
  0
CIRCLE
  8
0
 62
     1
 10
301.216919
 20
78.160034
 40
1.500000
  0
ARC
  8
0
 62
     1
 10
297.736755
 20
46.279236
 40
0.500000
 50
270.000000
 51
0.000000
  0
ARC
  8
0
 62
     1
 10
293.136780
 20
46.279236
 40
0.500000
 50
180.000000
 51
270.000000
  0
ARC
  8
0
 62
     1
 10
279.936768
 20
46.779236
 40
5.750000
 50
0.000000
 51
85.757690
  0
ARC
  8
0
 62
     1
 10
280.186768
 20
53.529236
 40
1.000000
 50
180.000000
 51
265.757690
  0
ARC
  8
0
 62
     1
 10
293.303467
 20
83.351074
 40
0.666675
 50
119.493088
 51
180.000000
  0
ARC
  8
0
 62
     1
 10
286.434784
 20
78.831238
 40
0.747991
 50
20.000082
 51
180.000000
  0
ARC
  8
0
 10
280.936768
 20
76.779236
 40
2.000000
 50
90.000000
 51
180.000000
  0
ARC
  8
0
 10
280.936768
 20
47.779236
 40
2.000000
 50
180.000000
 51
270.000000
  0
ARC
  8
0
 10
309.936768
 20
76.779236
 40
2.000000
 50
0.000000
 51
90.000000
  0
ARC
  8
0
 10
309.936768
 20
47.779236
 40
2.000000
 50
270.000000
 51
0.000000
  0
ARC
  8
0
 62
     1
 10
310.936768
 20
77.779236
 40
5.750000
 50
180.000000
 51
265.757690
  0
ARC
  8
0
 62
     1
 10
310.686768
 20
71.029236
 40
1.000000
 50
0.000000
 51
85.757698
  0
ARC
  8
0
 62
     1
 10
279.936768
 20
77.779236
 40
5.750000
 50
274.242310
 51
0.000000
  0
ARC
  8
0
 62
     1
 10
280.186768
 20
71.029236
 40
1.000001
 50
94.242302
 51
180.000000
  0
ARC
  8
0
 62
     1
 10
310.936768
 20
46.779236
 40
5.750000
 50
94.242310
 51
179.999969
  0
ARC
  8
0
 62
     1
 10
310.686768
 20
53.529236
 40
1.000001
 50
274.242310
 51
0.000000
  0
ARC
  8
0
 62
     1
 10
304.186768
 20
46.779236
 40
1.000000
 50
270.000000
 51
0.000000
  0
TEXT
  8
0
 10
298.797760
 20
244.589584
 40
4.242641
  1
DATE : FEB ,1992
 50
0.000000
 41
1.052631
 51
0.000000
  7
STANDARD
  0
TEXT
  8
0
 10
32.035717
 20
201.757431
 40
5.000000
  1
MODEL : RANS1-*-2
 50
0.000000
 41
1.052632
 51
0.000000
  7
STANDARD
  0
TEXT
  8
0
 10
2.113382
 20
243.907959
 40
5.000000
  1
ROTARY ACUTUATOR
 50
0.000000
 41
0.937799
 51
0.000000
  7
STANDARD
  0
TEXT
  8
0
 10
302.273193
 20
3.650512
 40
5.000000
  1
KOGANEI,CORP
 50
0.000000
 41
1.052632
 51
0.000000
  7
STANDARD
  0
LINE
  8
0
 10
181.186768
 20
169.944290
 11
194.803558
 21
193.529236
  0
LINE
  8
0
 10
194.803558
 20
193.529236
 11
210.241608
 21
193.529236
  0
LINE
  8
0
 10
181.186768
 20
169.944290
 11
183.308090
 21
172.065613
  0
LINE
  8
0
 10
181.186768
 20
169.944290
 11
181.963226
 21
172.842072
  0
TEXT
  8
0
 10
195.491608
 20
194.529236
 40
3.500000
  1
2-M5
 50
0.000000
 41
1.052632
 51
0.000000
  7
STANDARD
  0
ENDSEC
  0
EOF
