  0
SECTION
  2
HEADER
  0
ENDSEC
  0
SECTION
  2
TABLES
  0
TABLE
  2
LTYPE
 70
     4
  0
LTYPE
  2
CONTINUOUS
 70
    64
  3
Solid line
 72
    65
 73
     0
 40
0.000000
  0
LTYPE
  2
DASHED
 70
    64
  3
__ __ __ __ __ __ __ __ __ __ __ __ __ __ __
 72
    65
 73
     2
 40
3.500000
 49
2.000000
 49
-1.500000
  0
LTYPE
  2
CENTER
 70
    64
  3
____ _ ____ _ ____ _ ____ _ ____ _ ____ _ ____
 72
    65
 73
     4
 40
17.500000
 49
13.000000
 49
-1.500000
 49
1.500000
 49
-1.500000
  0
LTYPE
  2
PHANTOM
 70
    64
  3
_____ _ _ _____ _ _ _____ _ _ _____ _ _ ____  
 72
    65
 73
     6
 40
15.500000
 49
8.000000
 49
-1.500000
 49
1.500000
 49
-1.500000
 49
1.500000
 49
-1.500000
  0
LTYPE
  2
DASHED1
 70
    64
  3
__ __ __ __ __ __ __ __ __ __ __ __ __ __ __
 72
    65
 73
     2
 40
1.500000
 49
1.000000
 49
-0.500000
  0
LTYPE
  2
DASHED2
 70
    64
  3
__ __ __ __ __ __ __ __ __ __ __ __ __ __ __
 72
    65
 73
     2
 40
3.500000
 49
2.500000
 49
-1.000000
  0
LTYPE
  2
DASHED3
 70
    64
  3
__ __ __ __ __ __ __ __ __ __ __ __ __ __ __
 72
    65
 73
     2
 40
6.000000
 49
4.000000
 49
-2.000000
  0
LTYPE
  2
DASHED4
 70
    64
  3
__ __ __ __ __ __ __ __ __ __ __ __ __ __ __
 72
    65
 73
     2
 40
12.000000
 49
10.000000
 49
-2.000000
  0
LTYPE
  2
DASHED5
 70
    64
  3
__ __ __ __ __ __ __ __ __ __ __ __ __ __ __
 72
    65
 73
     2
 40
17.000000
 49
15.000000
 49
-2.000000
  0
LTYPE
  2
DASHED6
 70
    64
  3
__ __ __ __ __ __ __ __ __ __ __ __ __ __ __
 72
    65
 73
     2
 40
29.000000
 49
27.000000
 49
-2.000000
  0
LTYPE
  2
PHANTOM1
 70
    64
  3
_____ _ _ _____ _ _ _____ _ _ _____ _ _ ____  
 72
    65
 73
     6
 40
31.000000
 49
25.000000
 49
-1.500000
 49
1.000000
 49
-1.000000
 49
1.000000
 49
-1.500000
  0
LTYPE
  2
PHANTOM2
 70
    64
  3
_____ _ _ _____ _ _ _____ _ _ _____ _ _ ____  
 72
    65
 73
     6
 40
36.000000
 49
27.000000
 49
-1.500000
 49
2.500000
 49
-1.000000
 49
2.500000
 49
-1.500000
  0
LTYPE
  2
PHANTOM3
 70
    64
  3
_____ _ _ _____ _ _ _____ _ _ _____ _ _ ____  
 72
    65
 73
     6
 40
78.000000
 49
64.000000
 49
-2.000000
 49
4.000000
 49
-2.000000
 49
4.000000
 49
-2.000000
  0
LTYPE
  2
CENTER1
 70
    64
  3
____ _ ____ _ ____ _ ____ _ ____ _ ____ _ ____
 72
    65
 73
     4
 40
19.000000
 49
14.000000
 49
-1.000000
 49
3.000000
 49
-1.000000
  0
LTYPE
  2
CENTER2
 70
    64
  3
____ _ ____ _ ____ _ ____ _ ____ _ ____ _ ____
 72
    65
 73
     4
 40
28.500000
 49
25.000000
 49
-1.000000
 49
1.500000
 49
-1.000000
  0
LTYPE
  2
CENTER3
 70
    64
  3
____ _ ____ _ ____ _ ____ _ ____ _ ____ _ ____
 72
    65
 73
     4
 40
31.500000
 49
27.000000
 49
-1.000000
 49
2.500000
 49
-1.000000
  0
LTYPE
  2
CENTER4
 70
    64
  3
____ _ ____ _ ____ _ ____ _ ____ _ ____ _ ____
 72
    65
 73
     4
 40
50.000000
 49
45.000000
 49
-1.000000
 49
3.000000
 49
-1.000000
  0
LTYPE
  2
CENTER5
 70
    64
  3
____ _ ____ _ ____ _ ____ _ ____ _ ____ _ ____
 72
    65
 73
     4
 40
100.000000
 49
92.000000
 49
-2.000000
 49
4.000000
 49
-2.000000
  0
LTYPE
  2
SBK1
 70
    64
  3
______ _ _ _ ______ _ _ _ ______ _ _ _ _____  
 72
    65
 73
     8
 40
60.500000
 49
45.000000
 49
-2.000000
 49
2.500000
 49
-2.000000
 49
2.500000
 49
-2.000000
 49
2.500000
 49
-2.000000
  0
LTYPE
  2
SBK2
 70
    64
  3
______ _ _ _ ______ _ _ _ ______ _ _ _ _____  
 72
    65
 73
     8
 40
84.000000
 49
64.000000
 49
-2.000000
 49
4.000000
 49
-2.000000
 49
4.000000
 49
-2.000000
 49
4.000000
 49
-2.000000
  0
LTYPE
  2
STCH
 70
    64
  3
__ __ __ __ __ __ __ __ __ __ __ __ __ __ __
 72
    65
 73
     2
 40
3.000000
 49
1.000000
 49
-2.000000
  0
LTYPE
  2
MTCH
 70
    64
  3
_____ _ _ _____ _ _ _____ _ _ _____ _ _ ____  
 72
    65
 73
     6
 40
80.000000
 49
66.000000
 49
-2.000000
 49
4.000000
 49
-2.000000
 49
4.000000
 49
-2.000000
  0
ENDTAB
  0
TABLE
  2
LAYER
 70
     1
  0
LAYER
  2
0
 70
     0
 62
     7
  6
CONTINUOUS
  0
ENDTAB
  0
TABLE
  2
STYLE
 70
     1
  0
STYLE
  2
STANDARD
 70
     0
 40
0.000000
 41
1.000000
 50
0.000000
 71
     0
 42
0.200000
  3
txt
  4
BIGFONT
  0
ENDTAB
  0
TABLE
  2
VIEW
 70
     0
  0
ENDTAB
  0
ENDSEC
  0
SECTION
  2
BLOCKS
  0
ENDSEC
  0
SECTION
  2
ENTITIES
  0
POINT
  8
0
 10
55.436722
 20
77.279205
  0
POINT
  8
0
 10
159.436768
 20
77.279236
  0
POINT
  8
0
 10
159.436783
 20
187.279236
  0
POINT
  8
0
 10
290.436768
 20
77.279221
  0
POINT
  8
0
 10
203.436768
 20
77.279236
  0
POINT
  8
0
 10
203.436783
 20
187.279236
  0
POINT
  8
0
 10
82.436722
 20
77.279205
  0
POINT
  8
0
 10
317.436768
 20
77.279221
  0
LINE
  8
0
 62
     3
 10
0.000000
 20
0.000000
 11
0.000000
 21
254.558472
  0
LINE
  8
0
 62
     3
 10
370.873566
 20
254.558472
 11
370.873566
 21
0.000000
  0
LINE
  8
0
 62
     3
 10
0.000000
 20
0.000000
 11
370.873566
 21
0.000000
  0
LINE
  8
0
 62
     3
 10
0.000000
 20
254.558472
 11
370.873566
 21
254.558472
  0
LINE
  8
0
 62
     3
 10
0.000000
 20
240.257431
 11
76.272194
 21
240.257431
  0
LINE
  8
0
 62
     3
 10
76.272194
 20
240.257431
 11
76.272194
 21
254.558472
  0
LINE
  8
0
 62
     3
 10
294.601379
 20
14.301025
 11
370.873566
 21
14.301025
  0
LINE
  8
0
 62
     3
 10
294.601379
 20
240.257431
 11
370.873566
 21
240.257431
  0
LINE
  8
0
 62
     3
 10
294.601379
 20
254.558472
 11
294.601379
 21
240.257431
  0
LINE
  8
0
 62
     3
 10
294.601379
 20
14.301025
 11
294.601379
 21
0.000000
  0
LINE
  8
0
 10
194.436768
 20
99.779236
 11
194.436768
 21
54.779236
  0
LINE
  8
0
 10
203.436768
 20
80.279236
 11
203.436768
 21
74.779236
  0
LINE
  8
0
 10
142.436768
 20
80.279236
 11
142.436768
 21
74.779236
  0
LINE
  8
0
 10
194.436768
 20
99.779236
 11
175.436783
 21
99.779236
  0
LINE
  8
0
 10
194.436768
 20
54.779236
 11
175.436783
 21
54.779236
  0
LINE
  8
0
 10
196.436768
 20
87.279236
 11
194.436768
 21
87.279236
  0
LINE
  8
0
 10
196.436768
 20
67.279236
 11
194.436768
 21
67.279236
  0
LINE
  8
0
 10
203.436768
 20
80.279236
 11
196.436768
 21
80.279236
  0
LINE
  8
0
 10
202.936768
 20
74.279236
 11
196.436768
 21
74.279236
  0
LINE
  8
0
 10
159.436768
 20
80.279236
 11
142.436768
 21
80.279236
  0
LINE
  8
0
 10
159.436768
 20
74.279236
 11
142.936798
 21
74.279236
  0
LINE
  8
0
 10
196.436768
 20
87.279236
 11
196.436768
 21
67.279236
  0
LINE
  8
0
 10
159.436768
 20
104.279236
 11
159.436768
 21
50.279236
  0
LINE
  8
0
 10
175.436783
 20
104.279236
 11
175.436783
 21
50.279236
  0
LINE
  8
0
 10
194.436768
 20
63.279236
 11
175.436768
 21
63.279236
  0
LINE
  8
0
 10
202.936768
 20
77.874405
 11
202.936768
 21
74.279236
  0
LINE
  8
0
 10
142.936768
 20
77.874405
 11
142.936768
 21
74.279236
  0
LINE
  8
0
 10
194.436768
 20
91.279236
 11
175.436768
 21
91.279236
  0
LINE
  8
0
 10
142.436768
 20
77.874405
 11
153.436768
 21
77.874405
  0
LINE
  8
0
 10
153.436768
 20
77.874405
 11
153.436768
 21
80.279236
  0
LINE
  8
0
 10
142.436783
 20
77.874390
 11
153.436768
 21
80.279228
  0
LINE
  8
0
 10
153.436768
 20
77.874344
 11
142.436783
 21
80.279182
  0
LINE
  8
0
 10
142.436783
 20
74.779259
 11
142.936783
 21
74.279259
  0
LINE
  8
0
 10
203.436768
 20
77.874405
 11
198.436737
 21
77.874405
  0
LINE
  8
0
 10
198.436737
 20
77.874405
 11
198.436737
 21
80.279236
  0
LINE
  8
0
 10
202.936798
 20
74.279213
 11
203.436813
 21
74.779221
  0
LINE
  8
0
 10
198.436752
 20
77.874359
 11
203.436768
 21
80.279190
  0
LINE
  8
0
 10
203.436768
 20
77.874382
 11
198.436752
 21
80.279221
  0
LINE
  8
0
 10
175.436783
 20
104.279236
 11
159.436768
 21
104.279236
  0
LINE
  8
0
 10
175.436783
 20
50.279236
 11
159.436768
 21
50.279236
  0
LINE
  8
0
  6
CENTER
 10
206.436768
 20
77.279236
 11
139.436768
 21
77.279236
  0
LINE
  8
0
  6
CENTER
 10
167.436768
 20
94.779236
 11
167.436768
 21
103.779236
  0
LINE
  8
0
  6
CENTER
 10
162.936768
 20
99.279236
 11
171.936768
 21
99.279236
  0
LINE
  8
0
  6
CENTER
 10
167.436768
 20
50.779236
 11
167.436768
 21
59.779236
  0
LINE
  8
0
  6
CENTER
 10
162.936768
 20
55.279236
 11
171.936768
 21
55.279236
  0
LINE
  8
0
 10
175.436783
 20
214.279236
 11
159.436783
 21
214.279236
  0
LINE
  8
0
 10
194.436783
 20
164.779236
 11
194.436783
 21
209.779236
  0
LINE
  8
0
 10
203.436783
 20
184.279236
 11
203.436783
 21
189.779236
  0
LINE
  8
0
 10
142.436783
 20
184.279236
 11
142.436783
 21
189.779236
  0
LINE
  8
0
 10
194.436768
 20
164.779236
 11
175.436783
 21
164.779236
  0
LINE
  8
0
 10
194.436768
 20
209.779236
 11
175.436783
 21
209.779236
  0
LINE
  8
0
 10
196.436768
 20
177.279236
 11
194.436768
 21
177.279236
  0
LINE
  8
0
 10
196.436768
 20
197.279236
 11
194.436768
 21
197.279236
  0
LINE
  8
0
 10
203.436783
 20
184.279236
 11
196.436768
 21
184.279236
  0
LINE
  8
0
 10
202.936783
 20
190.279236
 11
196.436768
 21
190.279236
  0
LINE
  8
0
 10
159.436768
 20
184.279236
 11
142.436783
 21
184.279236
  0
LINE
  8
0
 10
159.436768
 20
190.279236
 11
142.936798
 21
190.279236
  0
LINE
  8
0
 10
196.436783
 20
177.279236
 11
196.436783
 21
197.279236
  0
LINE
  8
0
 10
159.436783
 20
160.279236
 11
159.436783
 21
214.279236
  0
LINE
  8
0
 10
175.436783
 20
160.279236
 11
175.436783
 21
214.279236
  0
LINE
  8
0
 10
194.436768
 20
201.279236
 11
175.436768
 21
201.279236
  0
LINE
  8
0
 10
202.936783
 20
186.684082
 11
202.936783
 21
190.279236
  0
LINE
  8
0
 10
142.936783
 20
186.684082
 11
142.936783
 21
190.279236
  0
LINE
  8
0
 10
194.436768
 20
173.279236
 11
175.436768
 21
173.279236
  0
LINE
  8
0
 10
142.436783
 20
186.684082
 11
153.436768
 21
186.684082
  0
LINE
  8
0
 10
153.436768
 20
186.684082
 11
153.436768
 21
184.279236
  0
LINE
  8
0
 10
142.436813
 20
186.684097
 11
153.436798
 21
184.279266
  0
LINE
  8
0
 10
153.436783
 20
186.684158
 11
142.436783
 21
184.279327
  0
LINE
  8
0
 10
142.436798
 20
189.779221
 11
142.936798
 21
190.279221
  0
LINE
  8
0
 10
203.436783
 20
186.684082
 11
198.436752
 21
186.684082
  0
LINE
  8
0
 10
198.436752
 20
186.684082
 11
198.436752
 21
184.279236
  0
LINE
  8
0
 10
202.936768
 20
190.279205
 11
203.436768
 21
189.779205
  0
LINE
  8
0
 10
198.436783
 20
186.684128
 11
203.436813
 21
184.279297
  0
LINE
  8
0
 10
203.436783
 20
186.684113
 11
198.436737
 21
184.279266
  0
LINE
  8
0
 10
175.436783
 20
160.279236
 11
159.436783
 21
160.279236
  0
LINE
  8
0
  6
CENTER
 10
206.436768
 20
187.279236
 11
139.436783
 21
187.279236
  0
LINE
  8
0
  6
CENTER
 10
167.436783
 20
213.779236
 11
167.436783
 21
204.779236
  0
LINE
  8
0
  6
CENTER
 10
162.936783
 20
209.279236
 11
171.936783
 21
209.279236
  0
LINE
  8
0
  6
CENTER
 10
167.436783
 20
169.779236
 11
167.436783
 21
160.779236
  0
LINE
  8
0
  6
CENTER
 10
162.936783
 20
165.279236
 11
171.936783
 21
165.279236
  0
LINE
  8
0
  6
CENTER
 10
189.436768
 20
180.779236
 11
180.936768
 21
180.779236
  0
LINE
  8
0
  6
CENTER
 10
184.936783
 20
176.779236
 11
184.936783
 21
184.779236
  0
LINE
  8
0
  6
CENTER
 10
189.436768
 20
193.779236
 11
180.936768
 21
193.779236
  0
LINE
  8
0
  6
CENTER
 10
184.936783
 20
197.779236
 11
184.936783
 21
189.779236
  0
LINE
  8
0
  6
CENTER
 10
55.436722
 20
47.279228
 11
55.436722
 21
107.279228
  0
LINE
  8
0
 10
58.377033
 20
77.874390
 11
56.031826
 21
80.219589
  0
LINE
  8
0
 62
     3
 10
37.686737
 20
89.600914
 11
37.686737
 21
88.157539
  0
LINE
  8
0
 62
     3
 10
40.186752
 20
89.600914
 11
40.186752
 21
88.157539
  0
LINE
  8
0
 62
     3
 10
37.686653
 20
89.600998
 11
38.936665
 21
90.322693
  0
LINE
  8
0
 62
     3
 10
38.936687
 20
87.435898
 11
40.186699
 21
88.157593
  0
LINE
  8
0
 62
     3
 10
38.936749
 20
90.322662
 11
40.186749
 21
89.600975
  0
LINE
  8
0
 62
     3
 10
37.686764
 20
88.157639
 11
38.936764
 21
87.435951
  0
LINE
  8
0
 62
     3
 10
43.115036
 20
59.529213
 11
44.558411
 21
59.529213
  0
LINE
  8
0
 62
     3
 10
43.115036
 20
62.029205
 11
44.558411
 21
62.029205
  0
LINE
  8
0
 62
     3
 10
43.114960
 20
59.529179
 11
42.393269
 21
60.779190
  0
LINE
  8
0
 62
     3
 10
45.279984
 20
60.779186
 11
44.558289
 21
62.029198
  0
LINE
  8
0
 62
     3
 10
42.393246
 20
60.779285
 11
43.114933
 21
62.029285
  0
LINE
  8
0
 62
     3
 10
44.558319
 20
59.529297
 11
45.280006
 21
60.779297
  0
LINE
  8
0
 62
     3
 10
73.186745
 20
64.957535
 11
73.186745
 21
66.400909
  0
LINE
  8
0
 62
     3
 10
70.686737
 20
64.957535
 11
70.686737
 21
66.400909
  0
LINE
  8
0
 62
     3
 10
73.186775
 20
64.957504
 11
71.936768
 21
64.235809
  0
LINE
  8
0
 62
     3
 10
71.936768
 20
67.122581
 11
70.686760
 21
66.400887
  0
LINE
  8
0
 62
     3
 10
71.936684
 20
64.235748
 11
70.686691
 21
64.957436
  0
LINE
  8
0
 62
     3
 10
73.186668
 20
66.400818
 11
71.936676
 21
67.122505
  0
LINE
  8
0
 62
     3
 10
67.758408
 20
95.029213
 11
66.315033
 21
95.029213
  0
LINE
  8
0
 62
     3
 10
67.758408
 20
92.529213
 11
66.315033
 21
92.529213
  0
LINE
  8
0
 62
     3
 10
67.758163
 20
95.029106
 11
68.479858
 21
93.779091
  0
LINE
  8
0
 62
     3
 10
65.593079
 20
93.779099
 11
66.314781
 21
92.529083
  0
LINE
  8
0
 62
     3
 10
68.480049
 20
93.779274
 11
67.758362
 21
92.529274
  0
LINE
  8
0
 62
     3
 10
66.314995
 20
95.029236
 11
65.593307
 21
93.779236
  0
LINE
  8
0
 10
30.936722
 20
104.279213
 11
79.936722
 21
104.279213
  0
LINE
  8
0
 10
30.936722
 20
50.279213
 11
79.936722
 21
50.279213
  0
LINE
  8
0
 10
82.436722
 20
52.779221
 11
82.436722
 21
101.779221
  0
LINE
  8
0
 10
28.436722
 20
52.779228
 11
28.436722
 21
101.779228
  0
LINE
  8
0
  6
CENTER
 10
71.536728
 20
93.779213
 11
62.536728
 21
93.779213
  0
LINE
  8
0
  6
CENTER
 10
25.436722
 20
77.279205
 11
85.436722
 21
77.279205
  0
LINE
  8
0
  6
CENTER
 10
67.036751
 20
98.279221
 11
67.036751
 21
89.279221
  0
LINE
  8
0
  6
CENTER
 10
71.936745
 20
61.179230
 11
71.936745
 21
70.179214
  0
LINE
  8
0
  6
CENTER
 10
76.436722
 20
65.679207
 11
67.436722
 21
65.679207
  0
LINE
  8
0
  6
CENTER
 10
43.836731
 20
56.279228
 11
43.836731
 21
65.279228
  0
LINE
  8
0
  6
CENTER
 10
39.336731
 20
60.779213
 11
48.336731
 21
60.779213
  0
LINE
  8
0
  6
CENTER
 10
38.936737
 20
93.379227
 11
38.936737
 21
84.379227
  0
LINE
  8
0
  6
CENTER
 10
34.436722
 20
88.879219
 11
43.436722
 21
88.879219
  0
LINE
  8
0
 10
312.936768
 20
64.779205
 11
312.936768
 21
89.779205
  0
LINE
  8
0
 10
267.936768
 20
64.779205
 11
267.936768
 21
89.779205
  0
LINE
  8
0
 10
302.936798
 20
99.779221
 11
277.936798
 21
99.779221
  0
LINE
  8
0
 10
302.936798
 20
54.779221
 11
277.936798
 21
54.779221
  0
LINE
  8
0
 10
304.436768
 20
56.279205
 11
304.436768
 21
59.279205
  0
LINE
  8
0
 10
276.436768
 20
56.279205
 11
276.436768
 21
59.279205
  0
LINE
  8
0
 10
311.436798
 20
91.279221
 11
308.436798
 21
91.279221
  0
LINE
  8
0
 10
311.436798
 20
63.279221
 11
308.436798
 21
63.279221
  0
LINE
  8
0
 10
304.436768
 20
95.279205
 11
304.436768
 21
98.279205
  0
LINE
  8
0
 10
276.436768
 20
95.279205
 11
276.436768
 21
98.279205
  0
LINE
  8
0
 10
272.436798
 20
63.279221
 11
269.436798
 21
63.279221
  0
LINE
  8
0
 10
272.436798
 20
91.279221
 11
269.436798
 21
91.279221
  0
LINE
  8
0
 10
289.841705
 20
80.219543
 11
287.496490
 21
77.874336
  0
LINE
  8
0
 10
263.436768
 20
52.779221
 11
263.436768
 21
101.779221
  0
LINE
  8
0
 10
317.436768
 20
52.779221
 11
317.436768
 21
101.779221
  0
LINE
  8
0
 10
314.936768
 20
104.279221
 11
265.936798
 21
104.279221
  0
LINE
  8
0
 10
314.936768
 20
50.279221
 11
265.936798
 21
50.279221
  0
LINE
  8
0
  6
CENTER
 10
320.436768
 20
77.279221
 11
260.436798
 21
77.279221
  0
LINE
  8
0
  6
CENTER
 10
290.436768
 20
47.279221
 11
290.436768
 21
107.279221
  0
LINE
  8
0
  6
CENTER
 10
283.436768
 20
91.279205
 11
283.436768
 21
85.279205
  0
LINE
  8
0
  6
CENTER
 10
280.436798
 20
88.279190
 11
286.436798
 21
88.279190
  0
LINE
  8
0
  6
CENTER
 10
297.436768
 20
63.279205
 11
297.436768
 21
69.279205
  0
LINE
  8
0
  6
CENTER
 10
300.436798
 20
66.279221
 11
294.436798
 21
66.279221
  0
ARC
  8
0
 10
199.632538
 20
79.076813
 40
1.695807
 50
134.841782
 51
225.158218
  0
CIRCLE
  8
0
 10
167.436768
 20
99.279236
 40
2.799999
  0
CIRCLE
  8
0
 10
167.436768
 20
55.279236
 40
2.799999
  0
ARC
  8
0
 10
152.240967
 20
79.076813
 40
1.695807
 50
314.841797
 51
45.158215
  0
CIRCLE
  8
0
 10
184.936768
 20
180.779236
 40
2.500000
  0
CIRCLE
  8
0
 10
167.436783
 20
165.279236
 40
2.799999
  0
CIRCLE
  8
0
 10
167.436783
 20
209.279236
 40
2.799999
  0
ARC
  8
0
 10
199.632553
 20
185.481659
 40
1.695807
 50
134.841782
 51
225.158218
  0
ARC
  8
0
 10
152.240967
 20
185.481659
 40
1.695807
 50
314.841797
 51
45.158215
  0
CIRCLE
  8
0
 10
184.936768
 20
193.779236
 40
2.099999
  0
CIRCLE
  8
0
 10
184.936768
 20
193.779236
 40
2.500000
  0
CIRCLE
  8
0
 10
184.936768
 20
180.779236
 40
2.099999
  0
ARC
  8
0
 10
79.936722
 20
101.779221
 40
2.500000
 50
0.000000
 51
90.000000
  0
CIRCLE
  8
0
 10
55.436722
 20
77.279221
 40
3.000000
  0
ARC
  8
0
 10
79.936722
 20
52.779221
 40
2.500000
 50
270.000000
 51
0.000000
  0
CIRCLE
  8
0
 62
     3
 10
38.936722
 20
88.879227
 40
2.403589
  0
CIRCLE
  8
0
 10
55.436722
 20
77.279221
 40
2.500000
  0
CIRCLE
  8
0
 10
38.936722
 20
88.879227
 40
2.900000
  0
CIRCLE
  8
0
 62
     3
 10
67.036728
 20
93.779221
 40
2.403589
  0
CIRCLE
  8
0
 62
     3
 10
71.936722
 20
65.679214
 40
2.403589
  0
CIRCLE
  8
0
 10
71.936722
 20
65.679214
 40
2.900000
  0
CIRCLE
  8
0
 62
     3
 10
43.836716
 20
60.779221
 40
2.403589
  0
CIRCLE
  8
0
 10
43.836716
 20
60.779221
 40
2.900000
  0
ARC
  8
0
 10
30.936722
 20
52.779221
 40
2.500000
 50
180.000000
 51
269.999969
  0
ARC
  8
0
 10
30.936722
 20
101.779221
 40
2.500000
 50
90.000000
 51
180.000000
  0
CIRCLE
  8
0
 10
67.036728
 20
93.779221
 40
2.900000
  0
CIRCLE
  8
0
 10
283.436798
 20
88.279205
 40
1.500000
  0
CIRCLE
  8
0
 10
283.436798
 20
88.279205
 40
1.250000
  0
ARC
  8
0
 10
265.936798
 20
52.779221
 40
2.500000
 50
180.000000
 51
270.000000
  0
ARC
  8
0
 10
314.936768
 20
52.779221
 40
2.500000
 50
270.000000
 51
0.000000
  0
ARC
  8
0
 10
314.936768
 20
101.779221
 40
2.500000
 50
0.000000
 51
90.000000
  0
ARC
  8
0
 10
265.936798
 20
101.779221
 40
2.500000
 50
90.000000
 51
180.000000
  0
CIRCLE
  8
0
 10
297.436798
 20
66.279205
 40
1.250000
  0
CIRCLE
  8
0
 10
297.436798
 20
66.279205
 40
1.500000
  0
CIRCLE
  8
0
 10
290.436798
 20
77.279205
 40
2.500000
  0
CIRCLE
  8
0
 10
290.436798
 20
77.279205
 40
3.000000
  0
ARC
  8
0
 10
308.436798
 20
59.279205
 40
4.000000
 50
90.000000
 51
180.000000
  0
ARC
  8
0
 10
272.436798
 20
95.279205
 40
4.000000
 50
270.000000
 51
359.999878
  0
ARC
  8
0
 10
272.436798
 20
59.279205
 40
4.000000
 50
0.000000
 51
90.000000
  0
ARC
  8
0
 10
308.436798
 20
95.279205
 40
4.000000
 50
180.000000
 51
270.000000
  0
ARC
  8
0
 10
302.936798
 20
56.279205
 40
1.500000
 50
270.000000
 51
0.000000
  0
ARC
  8
0
 10
311.436798
 20
64.779205
 40
1.500000
 50
270.000000
 51
0.000000
  0
ARC
  8
0
 10
311.436798
 20
89.779205
 40
1.500000
 50
0.000000
 51
90.000000
  0
ARC
  8
0
 10
302.936798
 20
98.279205
 40
1.500000
 50
0.000000
 51
90.000000
  0
ARC
  8
0
 10
277.936798
 20
98.279205
 40
1.500000
 50
90.000000
 51
180.000000
  0
ARC
  8
0
 10
269.436798
 20
89.779205
 40
1.500000
 50
90.000000
 51
180.000000
  0
ARC
  8
0
 10
269.436798
 20
64.779205
 40
1.500000
 50
180.000000
 51
270.000000
  0
ARC
  8
0
 10
277.936798
 20
56.279205
 40
1.500000
 50
180.000000
 51
270.000000
  0
CIRCLE
  8
0
 10
290.436798
 20
77.279205
 40
10.000000
  0
TEXT
  8
0
 10
298.797760
 20
244.589584
 40
4.242641
  1
DATE : FEB ,1992
 50
0.000000
 41
1.052631
 51
0.000000
  7
STANDARD
  0
TEXT
  8
0
 10
2.113382
 20
243.907959
 40
5.000000
  1
ROTARY ACUTUATOR
 50
0.000000
 41
0.937799
 51
0.000000
  7
STANDARD
  0
TEXT
  8
0
 10
27.035715
 20
206.757431
 40
5.000000
  1
MODEL : RAN8-*-2
 50
0.000000
 41
1.052632
 51
0.000000
  7
STANDARD
  0
TEXT
  8
0
 10
302.273193
 20
3.650512
 40
5.000000
  1
KOGANEI,CORP
 50
0.000000
 41
1.052632
 51
0.000000
  7
STANDARD
  0
LINE
  8
0
 10
186.186783
 20
195.944351
 11
205.432709
 21
229.279312
  0
LINE
  8
0
 10
205.432709
 20
229.279312
 11
220.577789
 21
229.279297
  0
LINE
  8
0
 10
186.186783
 20
195.944351
 11
188.308105
 21
198.065674
  0
LINE
  8
0
 10
186.186783
 20
195.944351
 11
186.963242
 21
198.842133
  0
TEXT
  8
0
 10
205.827789
 20
230.279297
 40
3.500000
  1
2-M5
 50
0.000000
 41
1.052632
 51
0.000000
  7
STANDARD
  0
ENDSEC
  0
EOF
