  0
SECTION
  2
HEADER
  0
ENDSEC
  0
SECTION
  2
TABLES
  0
TABLE
  2
LTYPE
 70
     4
  0
LTYPE
  2
CONTINUOUS
 70
    64
  3
Solid line
 72
    65
 73
     0
 40
0.000000
  0
LTYPE
  2
DASHED
 70
    64
  3
__ __ __ __ __ __ __ __ __ __ __ __ __ __ __
 72
    65
 73
     2
 40
3.500000
 49
2.000000
 49
-1.500000
  0
LTYPE
  2
CENTER
 70
    64
  3
____ _ ____ _ ____ _ ____ _ ____ _ ____ _ ____
 72
    65
 73
     4
 40
17.500000
 49
13.000000
 49
-1.500000
 49
1.500000
 49
-1.500000
  0
LTYPE
  2
PHANTOM
 70
    64
  3
_____ _ _ _____ _ _ _____ _ _ _____ _ _ ____  
 72
    65
 73
     6
 40
15.500000
 49
8.000000
 49
-1.500000
 49
1.500000
 49
-1.500000
 49
1.500000
 49
-1.500000
  0
LTYPE
  2
DASHED1
 70
    64
  3
__ __ __ __ __ __ __ __ __ __ __ __ __ __ __
 72
    65
 73
     2
 40
1.500000
 49
1.000000
 49
-0.500000
  0
LTYPE
  2
DASHED2
 70
    64
  3
__ __ __ __ __ __ __ __ __ __ __ __ __ __ __
 72
    65
 73
     2
 40
3.500000
 49
2.500000
 49
-1.000000
  0
LTYPE
  2
DASHED3
 70
    64
  3
__ __ __ __ __ __ __ __ __ __ __ __ __ __ __
 72
    65
 73
     2
 40
6.000000
 49
4.000000
 49
-2.000000
  0
LTYPE
  2
DASHED4
 70
    64
  3
__ __ __ __ __ __ __ __ __ __ __ __ __ __ __
 72
    65
 73
     2
 40
12.000000
 49
10.000000
 49
-2.000000
  0
LTYPE
  2
DASHED5
 70
    64
  3
__ __ __ __ __ __ __ __ __ __ __ __ __ __ __
 72
    65
 73
     2
 40
17.000000
 49
15.000000
 49
-2.000000
  0
LTYPE
  2
DASHED6
 70
    64
  3
__ __ __ __ __ __ __ __ __ __ __ __ __ __ __
 72
    65
 73
     2
 40
29.000000
 49
27.000000
 49
-2.000000
  0
LTYPE
  2
PHANTOM1
 70
    64
  3
_____ _ _ _____ _ _ _____ _ _ _____ _ _ ____  
 72
    65
 73
     6
 40
31.000000
 49
25.000000
 49
-1.500000
 49
1.000000
 49
-1.000000
 49
1.000000
 49
-1.500000
  0
LTYPE
  2
PHANTOM2
 70
    64
  3
_____ _ _ _____ _ _ _____ _ _ _____ _ _ ____  
 72
    65
 73
     6
 40
36.000000
 49
27.000000
 49
-1.500000
 49
2.500000
 49
-1.000000
 49
2.500000
 49
-1.500000
  0
LTYPE
  2
PHANTOM3
 70
    64
  3
_____ _ _ _____ _ _ _____ _ _ _____ _ _ ____  
 72
    65
 73
     6
 40
78.000000
 49
64.000000
 49
-2.000000
 49
4.000000
 49
-2.000000
 49
4.000000
 49
-2.000000
  0
LTYPE
  2
CENTER1
 70
    64
  3
____ _ ____ _ ____ _ ____ _ ____ _ ____ _ ____
 72
    65
 73
     4
 40
19.000000
 49
14.000000
 49
-1.000000
 49
3.000000
 49
-1.000000
  0
LTYPE
  2
CENTER2
 70
    64
  3
____ _ ____ _ ____ _ ____ _ ____ _ ____ _ ____
 72
    65
 73
     4
 40
28.500000
 49
25.000000
 49
-1.000000
 49
1.500000
 49
-1.000000
  0
LTYPE
  2
CENTER3
 70
    64
  3
____ _ ____ _ ____ _ ____ _ ____ _ ____ _ ____
 72
    65
 73
     4
 40
31.500000
 49
27.000000
 49
-1.000000
 49
2.500000
 49
-1.000000
  0
LTYPE
  2
CENTER4
 70
    64
  3
____ _ ____ _ ____ _ ____ _ ____ _ ____ _ ____
 72
    65
 73
     4
 40
50.000000
 49
45.000000
 49
-1.000000
 49
3.000000
 49
-1.000000
  0
LTYPE
  2
CENTER5
 70
    64
  3
____ _ ____ _ ____ _ ____ _ ____ _ ____ _ ____
 72
    65
 73
     4
 40
100.000000
 49
92.000000
 49
-2.000000
 49
4.000000
 49
-2.000000
  0
LTYPE
  2
SBK1
 70
    64
  3
______ _ _ _ ______ _ _ _ ______ _ _ _ _____  
 72
    65
 73
     8
 40
60.500000
 49
45.000000
 49
-2.000000
 49
2.500000
 49
-2.000000
 49
2.500000
 49
-2.000000
 49
2.500000
 49
-2.000000
  0
LTYPE
  2
SBK2
 70
    64
  3
______ _ _ _ ______ _ _ _ ______ _ _ _ _____  
 72
    65
 73
     8
 40
84.000000
 49
64.000000
 49
-2.000000
 49
4.000000
 49
-2.000000
 49
4.000000
 49
-2.000000
 49
4.000000
 49
-2.000000
  0
LTYPE
  2
STCH
 70
    64
  3
__ __ __ __ __ __ __ __ __ __ __ __ __ __ __
 72
    65
 73
     2
 40
3.000000
 49
1.000000
 49
-2.000000
  0
LTYPE
  2
MTCH
 70
    64
  3
_____ _ _ _____ _ _ _____ _ _ _____ _ _ ____  
 72
    65
 73
     6
 40
80.000000
 49
66.000000
 49
-2.000000
 49
4.000000
 49
-2.000000
 49
4.000000
 49
-2.000000
  0
ENDTAB
  0
TABLE
  2
LAYER
 70
     1
  0
LAYER
  2
0
 70
     0
 62
     7
  6
CONTINUOUS
  0
ENDTAB
  0
TABLE
  2
STYLE
 70
     1
  0
STYLE
  2
STANDARD
 70
     0
 40
0.000000
 41
1.000000
 50
0.000000
 71
     0
 42
0.200000
  3
txt
  4
BIGFONT
  0
ENDTAB
  0
TABLE
  2
VIEW
 70
     0
  0
ENDTAB
  0
ENDSEC
  0
SECTION
  2
BLOCKS
  0
ENDSEC
  0
SECTION
  2
ENTITIES
  0
POINT
  8
0
 10
107.247223
 20
140.000061
  0
POINT
  8
0
 10
291.247223
 20
270.000031
  0
POINT
  8
0
 10
291.247223
 20
140.000046
  0
POINT
  8
0
 10
256.247223
 20
45.000046
  0
POINT
  8
0
 10
401.247223
 20
140.000046
  0
POINT
  8
0
 10
401.247192
 20
270.000031
  0
POINT
  8
0
 10
157.247223
 20
140.000061
  0
POINT
  8
0
 10
292.247223
 20
45.000046
  0
POINT
  8
0
 10
107.247223
 20
75.000061
  0
LINE
  8
0
 62
     3
 10
0.000000
 20
0.000000
 11
0.000000
 21
360.000092
  0
LINE
  8
0
 62
     3
 10
524.494446
 20
360.000092
 11
524.494446
 21
0.000000
  0
LINE
  8
0
 62
     3
 10
0.000000
 20
0.000000
 11
524.494446
 21
0.000000
  0
LINE
  8
0
 62
     3
 10
0.000000
 20
360.000092
 11
524.494446
 21
360.000092
  0
LINE
  8
0
 62
     3
 10
0.000000
 20
339.775330
 11
107.865173
 21
339.775330
  0
LINE
  8
0
 62
     3
 10
107.865173
 20
339.775330
 11
107.865173
 21
360.000092
  0
LINE
  8
0
 62
     3
 10
416.629272
 20
20.224701
 11
524.494446
 21
20.224701
  0
LINE
  8
0
 62
     3
 10
416.629272
 20
339.775330
 11
524.494446
 21
339.775330
  0
LINE
  8
0
 62
     3
 10
416.629272
 20
360.000092
 11
416.629272
 21
339.775330
  0
LINE
  8
0
 62
     3
 10
416.629272
 20
20.224701
 11
416.629272
 21
0.000000
  0
LINE
  8
0
 10
291.247223
 20
105.000061
 11
295.747223
 21
105.000061
  0
LINE
  8
0
 10
291.247223
 20
175.000061
 11
295.747223
 21
175.000061
  0
LINE
  8
0
 10
291.247223
 20
175.000061
 11
291.247223
 21
105.000061
  0
LINE
  8
0
 10
400.247223
 20
136.683426
 11
400.247223
 21
135.000046
  0
LINE
  8
0
 10
401.247192
 20
144.000046
 11
400.247192
 21
145.000046
  0
LINE
  8
0
 10
361.747223
 20
175.000046
 11
361.747223
 21
105.000046
  0
LINE
  8
0
 10
401.247253
 20
143.316635
 11
388.247253
 21
136.683395
  0
LINE
  8
0
 10
388.247253
 20
143.316681
 11
401.247223
 21
136.683441
  0
LINE
  8
0
 10
315.747223
 20
175.000046
 11
361.747223
 21
175.000046
  0
LINE
  8
0
 10
315.747223
 20
105.000046
 11
361.747223
 21
105.000046
  0
LINE
  8
0
 10
295.747223
 20
175.000061
 11
295.747223
 21
105.000061
  0
LINE
  8
0
 10
337.747223
 20
175.000046
 11
337.747223
 21
105.000046
  0
LINE
  8
0
 10
296.747223
 20
170.000046
 11
315.747223
 21
170.000046
  0
LINE
  8
0
 10
296.747223
 20
110.000046
 11
315.747223
 21
110.000046
  0
LINE
  8
0
 10
295.747223
 20
169.000046
 11
296.747223
 21
170.000046
  0
LINE
  8
0
 10
295.747223
 20
111.000053
 11
296.747223
 21
110.000053
  0
LINE
  8
0
 10
315.747223
 20
175.000046
 11
315.747223
 21
105.000046
  0
LINE
  8
0
 10
296.747223
 20
110.000046
 11
296.747223
 21
170.000046
  0
LINE
  8
0
 10
256.247223
 20
145.000046
 11
256.247223
 21
135.000046
  0
LINE
  8
0
 10
381.747223
 20
169.000046
 11
381.747223
 21
111.000046
  0
LINE
  8
0
 10
385.247223
 20
151.500046
 11
385.247223
 21
128.500046
  0
LINE
  8
0
 10
381.747223
 20
152.500046
 11
384.247223
 21
152.500046
  0
LINE
  8
0
 10
381.747223
 20
127.500046
 11
384.247223
 21
127.500046
  0
LINE
  8
0
 10
385.247223
 20
151.500031
 11
384.247223
 21
152.500031
  0
LINE
  8
0
 10
385.247192
 20
128.500076
 11
384.247162
 21
127.500069
  0
LINE
  8
0
 10
384.247223
 20
152.500046
 11
384.247223
 21
127.500046
  0
LINE
  8
0
 10
361.747223
 20
110.000046
 11
380.747223
 21
110.000046
  0
LINE
  8
0
 10
361.747223
 20
170.000046
 11
380.747223
 21
170.000046
  0
LINE
  8
0
 10
381.747192
 20
111.000061
 11
380.747192
 21
110.000061
  0
LINE
  8
0
 10
380.747101
 20
169.999954
 11
381.747101
 21
168.999954
  0
LINE
  8
0
 10
380.747223
 20
170.000046
 11
380.747223
 21
110.000046
  0
LINE
  8
0
 10
401.247223
 20
144.000046
 11
401.247223
 21
136.000046
  0
LINE
  8
0
 10
257.247223
 20
134.000046
 11
291.247223
 21
134.000046
  0
LINE
  8
0
 10
257.247223
 20
146.000046
 11
291.247223
 21
146.000046
  0
LINE
  8
0
 10
256.247223
 20
145.000046
 11
257.247192
 21
146.000031
  0
LINE
  8
0
 10
256.247253
 20
135.000076
 11
257.247253
 21
134.000076
  0
LINE
  8
0
 10
257.247223
 20
146.000046
 11
257.247223
 21
134.000046
  0
LINE
  8
0
 10
385.247223
 20
146.000046
 11
388.247223
 21
146.000046
  0
LINE
  8
0
 10
385.247223
 20
134.000046
 11
388.247223
 21
134.000046
  0
LINE
  8
0
 10
388.247223
 20
146.000046
 11
388.247223
 21
145.000046
  0
LINE
  8
0
 10
388.247223
 20
135.000046
 11
400.247223
 21
135.000046
  0
LINE
  8
0
 10
388.247223
 20
145.000046
 11
400.247223
 21
145.000046
  0
LINE
  8
0
 10
388.247223
 20
135.000046
 11
400.247223
 21
135.000046
  0
LINE
  8
0
 10
388.247223
 20
145.000046
 11
400.247223
 21
145.000046
  0
LINE
  8
0
 10
388.247223
 20
143.316681
 11
401.247223
 21
143.316681
  0
LINE
  8
0
 10
388.247223
 20
136.683426
 11
401.247223
 21
136.683426
  0
LINE
  8
0
 10
388.247223
 20
135.000046
 11
388.247223
 21
134.000046
  0
LINE
  8
0
 10
388.247223
 20
143.316681
 11
388.247223
 21
136.683426
  0
LINE
  8
0
 10
400.247223
 20
145.000046
 11
400.247223
 21
143.316681
  0
LINE
  8
0
 10
400.247162
 20
135.000076
 11
401.247162
 21
136.000076
  0
LINE
  8
0
  6
CENTER
 10
253.247223
 20
140.000046
 11
404.247223
 21
140.000046
  0
LINE
  8
0
 10
291.247223
 20
320.000061
 11
295.747223
 21
320.000061
  0
LINE
  8
0
 10
291.247223
 20
220.000031
 11
295.747223
 21
220.000031
  0
LINE
  8
0
 10
291.247223
 20
320.000061
 11
291.247223
 21
220.000031
  0
LINE
  8
0
 10
263.247223
 20
268.000031
 11
279.247223
 21
268.000031
  0
LINE
  8
0
 10
263.247223
 20
272.000031
 11
279.247223
 21
272.000031
  0
LINE
  8
0
 10
315.747223
 20
305.000031
 11
361.747223
 21
305.000031
  0
LINE
  8
0
 10
315.747223
 20
235.000031
 11
361.747223
 21
235.000031
  0
LINE
  8
0
 10
295.747223
 20
320.000061
 11
295.747223
 21
220.000031
  0
LINE
  8
0
 10
337.747223
 20
305.000031
 11
337.747223
 21
235.000031
  0
LINE
  8
0
 10
296.747223
 20
300.000031
 11
315.747223
 21
300.000031
  0
LINE
  8
0
 10
296.747223
 20
240.000031
 11
315.747223
 21
240.000031
  0
LINE
  8
0
 10
295.747253
 20
299.000031
 11
296.747253
 21
300.000031
  0
LINE
  8
0
 10
295.747131
 20
240.999985
 11
296.747131
 21
239.999969
  0
LINE
  8
0
 10
315.747223
 20
305.000031
 11
315.747223
 21
235.000031
  0
LINE
  8
0
 10
296.747223
 20
240.000031
 11
296.747223
 21
300.000031
  0
LINE
  8
0
 10
381.747223
 20
299.000031
 11
381.747223
 21
241.000031
  0
LINE
  8
0
 10
385.247223
 20
281.500031
 11
385.247223
 21
258.500031
  0
LINE
  8
0
 10
381.747223
 20
282.500031
 11
384.247223
 21
282.500031
  0
LINE
  8
0
 10
381.747223
 20
257.500031
 11
384.247223
 21
257.500031
  0
LINE
  8
0
 10
385.247192
 20
281.500000
 11
384.247192
 21
282.500000
  0
LINE
  8
0
 10
385.247162
 20
258.500031
 11
384.247162
 21
257.500031
  0
LINE
  8
0
 10
384.247223
 20
282.500031
 11
384.247223
 21
257.500031
  0
LINE
  8
0
 10
361.747223
 20
240.000031
 11
380.747223
 21
240.000031
  0
LINE
  8
0
 10
361.747223
 20
300.000031
 11
380.747223
 21
300.000031
  0
LINE
  8
0
 10
381.747192
 20
241.000015
 11
380.747192
 21
240.000015
  0
LINE
  8
0
 10
380.747009
 20
299.999756
 11
381.747009
 21
298.999756
  0
LINE
  8
0
 10
380.747223
 20
300.000031
 11
380.747223
 21
240.000031
  0
LINE
  8
0
 10
401.247223
 20
274.000031
 11
401.247223
 21
266.000031
  0
LINE
  8
0
 10
385.247223
 20
276.000031
 11
388.247223
 21
276.000031
  0
LINE
  8
0
 10
385.247223
 20
264.000031
 11
388.247223
 21
264.000031
  0
LINE
  8
0
 10
388.247223
 20
276.000031
 11
388.247223
 21
275.000031
  0
LINE
  8
0
 10
388.247223
 20
265.000031
 11
400.247223
 21
265.000031
  0
LINE
  8
0
 10
388.247223
 20
275.000031
 11
400.247223
 21
275.000031
  0
LINE
  8
0
 10
388.247223
 20
265.000031
 11
400.247223
 21
265.000031
  0
LINE
  8
0
 10
388.247223
 20
275.000031
 11
400.247223
 21
275.000031
  0
LINE
  8
0
 10
388.247223
 20
273.316650
 11
401.247223
 21
273.316650
  0
LINE
  8
0
 10
388.247223
 20
266.683411
 11
401.247223
 21
266.683411
  0
LINE
  8
0
 10
388.247223
 20
265.000031
 11
388.247223
 21
264.000031
  0
LINE
  8
0
 10
388.247223
 20
273.316650
 11
388.247223
 21
266.683411
  0
LINE
  8
0
 10
400.247223
 20
275.000031
 11
400.247223
 21
273.316650
  0
LINE
  8
0
 10
400.247192
 20
265.000061
 11
401.247192
 21
266.000061
  0
LINE
  8
0
 10
401.247192
 20
274.000000
 11
400.247192
 21
275.000000
  0
LINE
  8
0
 10
400.247223
 20
266.683411
 11
400.247223
 21
265.000031
  0
LINE
  8
0
 10
388.247223
 20
273.316681
 11
401.247223
 21
266.683411
  0
LINE
  8
0
 10
401.247223
 20
273.316650
 11
388.247253
 21
266.683441
  0
LINE
  8
0
 10
361.747223
 20
305.000031
 11
361.747223
 21
235.000031
  0
LINE
  8
0
 10
257.247223
 20
276.000031
 11
257.247223
 21
264.000031
  0
LINE
  8
0
 10
256.247223
 20
275.000031
 11
256.247223
 21
265.000031
  0
LINE
  8
0
 10
257.247223
 20
264.000031
 11
291.247223
 21
264.000031
  0
LINE
  8
0
 10
257.247223
 20
276.000031
 11
291.247223
 21
276.000031
  0
LINE
  8
0
 10
256.247223
 20
275.000000
 11
257.247223
 21
276.000000
  0
LINE
  8
0
 10
256.247162
 20
264.999969
 11
257.247162
 21
263.999969
  0
LINE
  8
0
  6
CENTER
 10
253.247223
 20
270.000031
 11
404.247223
 21
270.000031
  0
LINE
  8
0
  6
CENTER
 10
326.747223
 20
292.500031
 11
326.747223
 21
277.500031
  0
LINE
  8
0
  6
CENTER
 10
319.247223
 20
285.000031
 11
334.247223
 21
285.000031
  0
LINE
  8
0
  6
CENTER
 10
350.747223
 20
262.500031
 11
350.747223
 21
247.500031
  0
LINE
  8
0
  6
CENTER
 10
343.247223
 20
255.000031
 11
358.247223
 21
255.000031
  0
LINE
  8
0
 10
61.247238
 20
105.000061
 11
153.247238
 21
105.000061
  0
LINE
  8
0
 10
61.247208
 20
175.000061
 11
153.247208
 21
175.000061
  0
LINE
  8
0
  6
CENTER
 10
107.247223
 20
178.000061
 11
107.247223
 21
102.000061
  0
LINE
  8
0
  6
CENTER
 10
121.969681
 20
148.500076
 11
135.826096
 21
156.500076
  0
LINE
  8
0
  6
CENTER
 10
54.247223
 20
140.000061
 11
160.247223
 21
140.000061
  0
LINE
  8
0
 10
88.977348
 20
153.405960
 11
82.215866
 21
151.594223
  0
LINE
  8
0
  6
CENTER
 10
78.668365
 20
156.500046
 11
92.524773
 21
148.500046
  0
LINE
  8
0
 10
84.690575
 20
155.880783
 11
86.502312
 21
149.119293
  0
LINE
  8
0
  6
CENTER
 10
78.668411
 20
123.500076
 11
92.524803
 21
131.500076
  0
LINE
  8
0
 10
86.502472
 20
130.880798
 11
84.690742
 21
124.119316
  0
LINE
  8
0
 10
82.215843
 20
128.405930
 11
88.977325
 21
126.594193
  0
LINE
  8
0
 10
104.772331
 20
117.474930
 11
109.722084
 21
112.525177
  0
LINE
  8
0
 10
104.772369
 20
112.525230
 11
109.722115
 21
117.474983
  0
LINE
  8
0
  6
CENTER
 10
135.826035
 20
123.500053
 11
121.969643
 21
131.500046
  0
LINE
  8
0
 10
125.517120
 20
126.594193
 11
132.278595
 21
128.405930
  0
LINE
  8
0
 10
129.803726
 20
124.119331
 11
127.991989
 21
130.880814
  0
LINE
  8
0
 10
127.991966
 20
149.119324
 11
129.803696
 21
155.880814
  0
LINE
  8
0
 10
132.278580
 20
151.594177
 11
125.517097
 21
153.405914
  0
LINE
  8
0
 10
109.722061
 20
162.525146
 11
104.772316
 21
167.474899
  0
LINE
  8
0
 10
109.722061
 20
167.474991
 11
104.772316
 21
162.525238
  0
LINE
  8
0
 10
157.247223
 20
171.000061
 11
157.247223
 21
109.000076
  0
LINE
  8
0
 10
57.247223
 20
171.000046
 11
57.247223
 21
109.000046
  0
LINE
  8
0
  6
CENTER
 10
143.747223
 20
113.000061
 11
154.747223
 21
113.000061
  0
LINE
  8
0
  6
CENTER
 10
143.747223
 20
167.000061
 11
154.747223
 21
167.000061
  0
LINE
  8
0
  6
CENTER
 10
149.247223
 20
172.500061
 11
149.247223
 21
161.500061
  0
LINE
  8
0
  6
CENTER
 10
149.247223
 20
118.500076
 11
149.247223
 21
107.500076
  0
LINE
  8
0
  6
CENTER
 10
65.247223
 20
118.500046
 11
65.247223
 21
107.500046
  0
LINE
  8
0
  6
CENTER
 10
70.747223
 20
113.000061
 11
59.747223
 21
113.000061
  0
LINE
  8
0
  6
CENTER
 10
65.247223
 20
172.500046
 11
65.247223
 21
161.500046
  0
LINE
  8
0
  6
CENTER
 10
70.747223
 20
167.000061
 11
59.747223
 21
167.000061
  0
LINE
  8
0
 10
257.247223
 20
51.000046
 11
292.247223
 21
51.000046
  0
LINE
  8
0
 10
256.247223
 20
50.000042
 11
257.247223
 21
51.000042
  0
LINE
  8
0
 10
256.247223
 20
50.000046
 11
256.247223
 21
40.000046
  0
LINE
  8
0
 10
257.247223
 20
39.000046
 11
292.247223
 21
39.000046
  0
LINE
  8
0
 10
261.247223
 20
52.500046
 11
281.115997
 21
52.500046
  0
LINE
  8
0
 10
281.115997
 20
52.500046
 11
281.115997
 21
51.000046
  0
LINE
  8
0
 10
261.247223
 20
52.500046
 11
261.247223
 21
51.000046
  0
LINE
  8
0
 10
257.247223
 20
51.000046
 11
257.247223
 21
39.000046
  0
LINE
  8
0
 10
256.247253
 20
40.000126
 11
257.247253
 21
39.000122
  0
LINE
  8
0
  6
CENTER
 10
253.247223
 20
45.000046
 11
300.747223
 21
45.000046
  0
LINE
  8
0
  6
PHANTOM
 10
292.247223
 20
56.500046
 11
292.247223
 21
33.500053
  0
LINE
  8
0
  6
PHANTOM
 10
293.247223
 20
32.500046
 11
295.747223
 21
32.500046
  0
LINE
  8
0
  6
PHANTOM
 10
293.247223
 20
57.500046
 11
295.747223
 21
57.500046
  0
LINE
  8
0
  6
PHANTOM
 10
293.247253
 20
32.500053
 11
292.247253
 21
33.500061
  0
LINE
  8
0
  6
PHANTOM
 10
292.247223
 20
56.500038
 11
293.247223
 21
57.500038
  0
LINE
  8
0
  6
PHANTOM
 10
293.247223
 20
57.500046
 11
293.247223
 21
32.500046
  0
ARC
  8
0
 10
263.247223
 20
270.000031
 40
2.000000
 50
90.000000
 51
270.000000
  0
ARC
  8
0
 10
279.247223
 20
270.000031
 40
2.000000
 50
270.000000
 51
90.000000
  0
CIRCLE
  8
0
 10
326.747223
 20
285.000031
 40
4.283000
  0
CIRCLE
  8
0
 10
350.747223
 20
255.000031
 40
4.864000
  0
CIRCLE
  8
0
 10
350.747223
 20
255.000031
 40
4.283000
  0
CIRCLE
  8
0
 10
326.747223
 20
285.000031
 40
4.864000
  0
CIRCLE
  8
0
 10
65.247223
 20
167.000046
 40
3.500000
  0
CIRCLE
  8
0
 10
149.247223
 20
113.000069
 40
3.500000
  0
CIRCLE
  8
0
 10
65.247223
 20
113.000053
 40
3.500000
  0
CIRCLE
  8
0
 10
107.247223
 20
140.000061
 40
5.000000
  0
CIRCLE
  8
0
 10
107.247223
 20
140.000061
 40
6.000000
  0
CIRCLE
  8
0
 10
107.247223
 20
140.000061
 40
11.500000
  0
CIRCLE
  8
0
 10
107.247223
 20
140.000061
 40
12.500000
  0
ARC
  8
0
  6
CENTER
 10
107.247223
 20
140.000061
 40
25.000000
 50
131.337036
 51
168.662842
  0
CIRCLE
  8
0
 10
85.596603
 20
152.500061
 40
5.500000
  0
CIRCLE
  8
0
 10
85.596603
 20
152.500061
 40
6.250000
  0
CIRCLE
  8
0
 10
85.596588
 20
127.500061
 40
6.250000
  0
ARC
  8
0
  6
CENTER
 10
107.247223
 20
140.000061
 40
24.999998
 50
191.337051
 51
228.662903
  0
CIRCLE
  8
0
 10
85.596588
 20
127.500061
 40
5.500000
  0
CIRCLE
  8
0
 10
107.247208
 20
115.000061
 40
6.250000
  0
ARC
  8
0
  6
CENTER
 10
107.247223
 20
140.000061
 40
25.000000
 50
251.337036
 51
288.662903
  0
CIRCLE
  8
0
 10
107.247208
 20
115.000061
 40
5.500000
  0
CIRCLE
  8
0
 10
128.897842
 20
127.500046
 40
6.250000
  0
ARC
  8
0
  6
CENTER
 10
107.247223
 20
140.000061
 40
25.000000
 50
311.337036
 51
348.662872
  0
CIRCLE
  8
0
 10
128.897842
 20
127.500046
 40
5.500000
  0
CIRCLE
  8
0
 10
128.897858
 20
152.500046
 40
6.250000
  0
ARC
  8
0
  6
CENTER
 10
107.247223
 20
140.000061
 40
24.999994
 50
11.337016
 51
48.662872
  0
CIRCLE
  8
0
 10
128.897858
 20
152.500046
 40
5.500000
  0
CIRCLE
  8
0
 10
107.247238
 20
165.000046
 40
6.250000
  0
ARC
  8
0
  6
CENTER
 10
107.247223
 20
140.000061
 40
24.999994
 50
71.337013
 51
108.662872
  0
CIRCLE
  8
0
 10
107.247238
 20
165.000046
 40
5.500000
  0
ARC
  8
0
 10
61.247223
 20
109.000046
 40
4.000000
 50
180.000000
 51
270.000000
  0
ARC
  8
0
 10
61.247223
 20
171.000046
 40
4.000000
 50
90.000000
 51
180.000000
  0
ARC
  8
0
 10
153.247223
 20
171.000061
 40
4.000000
 50
0.000000
 51
90.000000
  0
ARC
  8
0
 10
153.247223
 20
109.000076
 40
4.000000
 50
270.000000
 51
0.000000
  0
CIRCLE
  8
0
 10
149.247223
 20
167.000061
 40
3.500000
  0
TEXT
  8
0
 10
422.460297
 20
345.487762
 40
6.000000
  1
DATE : FEB ,1992
 50
0.000000
 41
1.052631
 51
0.000000
  7
STANDARD
  0
TEXT
  8
0
 10
2.364426
 20
344.587769
 40
7.000000
  1
ROTARY ACUTUATOR
 50
0.000000
 41
0.956938
 51
0.000000
  7
STANDARD
  0
TEXT
  8
0
 10
50.750000
 20
294.475342
 40
7.000000
  1
MODEL : RAN50-*-3A
 50
0.000000
 41
1.052632
 51
0.000000
  7
STANDARD
  0
TEXT
  8
0
 10
427.811859
 20
4.812350
 40
7.000000
  1
KOGANEI,CORP
 50
0.000000
 41
1.052632
 51
0.000000
  7
STANDARD
  0
LINE
  8
0
 10
329.179199
 20
289.212372
 11
349.841187
 21
325.000000
  0
LINE
  8
0
 10
349.841187
 20
325.000000
 11
386.931030
 21
325.000000
  0
LINE
  8
0
 10
329.179199
 20
289.212372
 11
331.300507
 21
291.333679
  0
LINE
  8
0
 10
329.179199
 20
289.212372
 11
329.955658
 21
292.110138
  0
TEXT
  8
0
 10
350.752472
 20
326.000000
 40
5.000000
  1
2-Rc1/8
 50
0.000000
 41
1.052632
 51
0.000000
  7
STANDARD
  0
ENDSEC
  0
EOF
