  0
SECTION
  2
HEADER
  0
ENDSEC
  0
SECTION
  2
TABLES
  0
TABLE
  2
LTYPE
 70
     4
  0
LTYPE
  2
CONTINUOUS
 70
    64
  3
Solid line
 72
    65
 73
     0
 40
0.000000
  0
LTYPE
  2
DASHED
 70
    64
  3
__ __ __ __ __ __ __ __ __ __ __ __ __ __ __
 72
    65
 73
     2
 40
3.500000
 49
2.000000
 49
-1.500000
  0
LTYPE
  2
CENTER
 70
    64
  3
____ _ ____ _ ____ _ ____ _ ____ _ ____ _ ____
 72
    65
 73
     4
 40
17.500000
 49
13.000000
 49
-1.500000
 49
1.500000
 49
-1.500000
  0
LTYPE
  2
PHANTOM
 70
    64
  3
_____ _ _ _____ _ _ _____ _ _ _____ _ _ ____  
 72
    65
 73
     6
 40
15.500000
 49
8.000000
 49
-1.500000
 49
1.500000
 49
-1.500000
 49
1.500000
 49
-1.500000
  0
LTYPE
  2
DASHED1
 70
    64
  3
__ __ __ __ __ __ __ __ __ __ __ __ __ __ __
 72
    65
 73
     2
 40
1.500000
 49
1.000000
 49
-0.500000
  0
LTYPE
  2
DASHED2
 70
    64
  3
__ __ __ __ __ __ __ __ __ __ __ __ __ __ __
 72
    65
 73
     2
 40
3.500000
 49
2.500000
 49
-1.000000
  0
LTYPE
  2
DASHED3
 70
    64
  3
__ __ __ __ __ __ __ __ __ __ __ __ __ __ __
 72
    65
 73
     2
 40
6.000000
 49
4.000000
 49
-2.000000
  0
LTYPE
  2
DASHED4
 70
    64
  3
__ __ __ __ __ __ __ __ __ __ __ __ __ __ __
 72
    65
 73
     2
 40
12.000000
 49
10.000000
 49
-2.000000
  0
LTYPE
  2
DASHED5
 70
    64
  3
__ __ __ __ __ __ __ __ __ __ __ __ __ __ __
 72
    65
 73
     2
 40
17.000000
 49
15.000000
 49
-2.000000
  0
LTYPE
  2
DASHED6
 70
    64
  3
__ __ __ __ __ __ __ __ __ __ __ __ __ __ __
 72
    65
 73
     2
 40
29.000000
 49
27.000000
 49
-2.000000
  0
LTYPE
  2
PHANTOM1
 70
    64
  3
_____ _ _ _____ _ _ _____ _ _ _____ _ _ ____  
 72
    65
 73
     6
 40
31.000000
 49
25.000000
 49
-1.500000
 49
1.000000
 49
-1.000000
 49
1.000000
 49
-1.500000
  0
LTYPE
  2
PHANTOM2
 70
    64
  3
_____ _ _ _____ _ _ _____ _ _ _____ _ _ ____  
 72
    65
 73
     6
 40
36.000000
 49
27.000000
 49
-1.500000
 49
2.500000
 49
-1.000000
 49
2.500000
 49
-1.500000
  0
LTYPE
  2
PHANTOM3
 70
    64
  3
_____ _ _ _____ _ _ _____ _ _ _____ _ _ ____  
 72
    65
 73
     6
 40
78.000000
 49
64.000000
 49
-2.000000
 49
4.000000
 49
-2.000000
 49
4.000000
 49
-2.000000
  0
LTYPE
  2
CENTER1
 70
    64
  3
____ _ ____ _ ____ _ ____ _ ____ _ ____ _ ____
 72
    65
 73
     4
 40
19.000000
 49
14.000000
 49
-1.000000
 49
3.000000
 49
-1.000000
  0
LTYPE
  2
CENTER2
 70
    64
  3
____ _ ____ _ ____ _ ____ _ ____ _ ____ _ ____
 72
    65
 73
     4
 40
28.500000
 49
25.000000
 49
-1.000000
 49
1.500000
 49
-1.000000
  0
LTYPE
  2
CENTER3
 70
    64
  3
____ _ ____ _ ____ _ ____ _ ____ _ ____ _ ____
 72
    65
 73
     4
 40
31.500000
 49
27.000000
 49
-1.000000
 49
2.500000
 49
-1.000000
  0
LTYPE
  2
CENTER4
 70
    64
  3
____ _ ____ _ ____ _ ____ _ ____ _ ____ _ ____
 72
    65
 73
     4
 40
50.000000
 49
45.000000
 49
-1.000000
 49
3.000000
 49
-1.000000
  0
LTYPE
  2
CENTER5
 70
    64
  3
____ _ ____ _ ____ _ ____ _ ____ _ ____ _ ____
 72
    65
 73
     4
 40
100.000000
 49
92.000000
 49
-2.000000
 49
4.000000
 49
-2.000000
  0
LTYPE
  2
SBK1
 70
    64
  3
______ _ _ _ ______ _ _ _ ______ _ _ _ _____  
 72
    65
 73
     8
 40
60.500000
 49
45.000000
 49
-2.000000
 49
2.500000
 49
-2.000000
 49
2.500000
 49
-2.000000
 49
2.500000
 49
-2.000000
  0
LTYPE
  2
SBK2
 70
    64
  3
______ _ _ _ ______ _ _ _ ______ _ _ _ _____  
 72
    65
 73
     8
 40
84.000000
 49
64.000000
 49
-2.000000
 49
4.000000
 49
-2.000000
 49
4.000000
 49
-2.000000
 49
4.000000
 49
-2.000000
  0
LTYPE
  2
STCH
 70
    64
  3
__ __ __ __ __ __ __ __ __ __ __ __ __ __ __
 72
    65
 73
     2
 40
3.000000
 49
1.000000
 49
-2.000000
  0
LTYPE
  2
MTCH
 70
    64
  3
_____ _ _ _____ _ _ _____ _ _ _____ _ _ ____  
 72
    65
 73
     6
 40
80.000000
 49
66.000000
 49
-2.000000
 49
4.000000
 49
-2.000000
 49
4.000000
 49
-2.000000
  0
ENDTAB
  0
TABLE
  2
LAYER
 70
     1
  0
LAYER
  2
0
 70
     0
 62
     7
  6
CONTINUOUS
  0
ENDTAB
  0
TABLE
  2
STYLE
 70
     1
  0
STYLE
  2
STANDARD
 70
     0
 40
0.000000
 41
1.000000
 50
0.000000
 71
     0
 42
0.200000
  3
txt
  4
BIGFONT
  0
ENDTAB
  0
TABLE
  2
VIEW
 70
     0
  0
ENDTAB
  0
ENDSEC
  0
SECTION
  2
BLOCKS
  0
ENDSEC
  0
SECTION
  2
ENTITIES
  0
POINT
  8
0
 10
107.247223
 20
140.000061
  0
POINT
  8
0
 10
270.747223
 20
270.000031
  0
POINT
  8
0
 10
270.747223
 20
140.000046
  0
POINT
  8
0
 10
256.247223
 20
45.000046
  0
POINT
  8
0
 10
401.247223
 20
140.000046
  0
POINT
  8
0
 10
401.247192
 20
270.000031
  0
POINT
  8
0
 10
142.247223
 20
140.000061
  0
POINT
  8
0
 10
292.247223
 20
45.000046
  0
LINE
  8
0
 62
     3
 10
0.000000
 20
0.000000
 11
0.000000
 21
360.000092
  0
LINE
  8
0
 62
     3
 10
524.494446
 20
360.000092
 11
524.494446
 21
0.000000
  0
LINE
  8
0
 62
     3
 10
0.000000
 20
0.000000
 11
524.494446
 21
0.000000
  0
LINE
  8
0
 62
     3
 10
0.000000
 20
360.000092
 11
524.494446
 21
360.000092
  0
LINE
  8
0
 62
     3
 10
0.000000
 20
339.775330
 11
107.865173
 21
339.775330
  0
LINE
  8
0
 62
     3
 10
107.865173
 20
339.775330
 11
107.865173
 21
360.000092
  0
LINE
  8
0
 62
     3
 10
416.629272
 20
20.224701
 11
524.494446
 21
20.224701
  0
LINE
  8
0
 62
     3
 10
416.629272
 20
339.775330
 11
524.494446
 21
339.775330
  0
LINE
  8
0
 62
     3
 10
416.629272
 20
360.000092
 11
416.629272
 21
339.775330
  0
LINE
  8
0
 62
     3
 10
416.629272
 20
20.224701
 11
416.629272
 21
0.000000
  0
LINE
  8
0
 10
290.247223
 20
171.250046
 11
291.247223
 21
171.250046
  0
LINE
  8
0
 10
290.247223
 20
146.437546
 11
291.247223
 21
146.437546
  0
LINE
  8
0
 10
290.247223
 20
158.750046
 11
291.247223
 21
158.750046
  0
LINE
  8
0
 10
291.247223
 20
172.500061
 11
295.747223
 21
172.500061
  0
LINE
  8
0
 10
361.747223
 20
175.000046
 11
361.747223
 21
105.000046
  0
LINE
  8
0
 10
401.247253
 20
143.316635
 11
388.247253
 21
136.683395
  0
LINE
  8
0
 10
388.247253
 20
143.316681
 11
401.247223
 21
136.683441
  0
LINE
  8
0
 10
315.747223
 20
175.000046
 11
361.747223
 21
175.000046
  0
LINE
  8
0
 10
315.747223
 20
105.000046
 11
361.747223
 21
105.000046
  0
LINE
  8
0
 10
295.747223
 20
172.500061
 11
295.747223
 21
99.000046
  0
LINE
  8
0
 10
337.747223
 20
175.000046
 11
337.747223
 21
105.000046
  0
LINE
  8
0
 10
296.747223
 20
170.000046
 11
315.747223
 21
170.000046
  0
LINE
  8
0
 10
296.747223
 20
110.000046
 11
315.747223
 21
110.000046
  0
LINE
  8
0
 10
295.747223
 20
169.000046
 11
296.747223
 21
170.000046
  0
LINE
  8
0
 10
295.747223
 20
111.000053
 11
296.747223
 21
110.000053
  0
LINE
  8
0
 10
315.747223
 20
175.000046
 11
315.747223
 21
105.000046
  0
LINE
  8
0
 10
296.747223
 20
110.000046
 11
296.747223
 21
170.000046
  0
LINE
  8
0
 10
256.247223
 20
145.000046
 11
256.247223
 21
135.000046
  0
LINE
  8
0
 10
381.747223
 20
169.000046
 11
381.747223
 21
111.000046
  0
LINE
  8
0
 10
385.247223
 20
151.500046
 11
385.247223
 21
128.500046
  0
LINE
  8
0
 10
381.747223
 20
152.500046
 11
384.247223
 21
152.500046
  0
LINE
  8
0
 10
381.747223
 20
127.500046
 11
384.247223
 21
127.500046
  0
LINE
  8
0
 10
385.247192
 20
151.500015
 11
384.247192
 21
152.500015
  0
LINE
  8
0
 10
385.247162
 20
128.500076
 11
384.247162
 21
127.500084
  0
LINE
  8
0
 10
384.247223
 20
152.500046
 11
384.247223
 21
127.500046
  0
LINE
  8
0
 10
361.747223
 20
110.000046
 11
380.747223
 21
110.000046
  0
LINE
  8
0
 10
361.747223
 20
170.000046
 11
380.747223
 21
170.000046
  0
LINE
  8
0
 10
381.747192
 20
111.000061
 11
380.747192
 21
110.000061
  0
LINE
  8
0
 10
380.747101
 20
169.999954
 11
381.747101
 21
168.999954
  0
LINE
  8
0
 10
380.747223
 20
170.000046
 11
380.747223
 21
110.000046
  0
LINE
  8
0
 10
401.247223
 20
144.000046
 11
401.247223
 21
136.000046
  0
LINE
  8
0
 10
257.247223
 20
134.000046
 11
291.247223
 21
134.000046
  0
LINE
  8
0
 10
257.247223
 20
146.000046
 11
291.247223
 21
146.000046
  0
LINE
  8
0
 10
256.247192
 20
145.000031
 11
257.247192
 21
146.000031
  0
LINE
  8
0
 10
256.247253
 20
135.000076
 11
257.247253
 21
134.000076
  0
LINE
  8
0
 10
257.247223
 20
146.000046
 11
257.247223
 21
134.000046
  0
LINE
  8
0
 10
385.247223
 20
146.000046
 11
388.247223
 21
146.000046
  0
LINE
  8
0
 10
385.247223
 20
134.000046
 11
388.247223
 21
134.000046
  0
LINE
  8
0
 10
388.247223
 20
146.000046
 11
388.247223
 21
145.000046
  0
LINE
  8
0
 10
388.247223
 20
135.000046
 11
400.247223
 21
135.000046
  0
LINE
  8
0
 10
388.247223
 20
145.000046
 11
400.247223
 21
145.000046
  0
LINE
  8
0
 10
388.247223
 20
135.000046
 11
400.247223
 21
135.000046
  0
LINE
  8
0
 10
388.247223
 20
145.000046
 11
400.247223
 21
145.000046
  0
LINE
  8
0
 10
388.247223
 20
143.316681
 11
401.247223
 21
143.316681
  0
LINE
  8
0
 10
388.247223
 20
136.683426
 11
401.247223
 21
136.683426
  0
LINE
  8
0
 10
388.247223
 20
135.000046
 11
388.247223
 21
134.000046
  0
LINE
  8
0
 10
388.247223
 20
143.316681
 11
388.247223
 21
136.683426
  0
LINE
  8
0
 10
400.247223
 20
145.000046
 11
400.247223
 21
143.316681
  0
LINE
  8
0
 10
400.247162
 20
135.000076
 11
401.247162
 21
136.000076
  0
LINE
  8
0
 10
401.247192
 20
144.000031
 11
400.247192
 21
145.000031
  0
LINE
  8
0
 10
400.247223
 20
136.683426
 11
400.247223
 21
135.000046
  0
LINE
  8
0
 10
290.247223
 20
121.062546
 11
291.247223
 21
121.062546
  0
LINE
  8
0
 10
260.747223
 20
95.000046
 11
291.747223
 21
95.000046
  0
LINE
  8
0
 10
291.247223
 20
172.500061
 11
291.247223
 21
99.500046
  0
LINE
  8
0
 10
260.747223
 20
99.500046
 11
260.747223
 21
95.000046
  0
LINE
  8
0
 10
260.747223
 20
99.500046
 11
291.247223
 21
99.500046
  0
LINE
  8
0
 10
291.247314
 20
105.500038
 11
285.247314
 21
99.500031
  0
LINE
  8
0
 10
290.247223
 20
108.937546
 11
291.247223
 21
108.937546
  0
LINE
  8
0
 10
290.247223
 20
158.562546
 11
290.247223
 21
146.437546
  0
LINE
  8
0
 10
284.847229
 20
157.500046
 11
290.247223
 21
157.500046
  0
LINE
  8
0
 10
284.847229
 20
147.500046
 11
290.247223
 21
147.500046
  0
LINE
  8
0
 10
284.247223
 20
156.900040
 11
284.247223
 21
148.100037
  0
LINE
  8
0
 10
284.847229
 20
157.500046
 11
284.847229
 21
147.500046
  0
LINE
  8
0
 10
284.847229
 20
157.500046
 11
284.247253
 21
156.900070
  0
LINE
  8
0
 10
284.847198
 20
147.500031
 11
284.247192
 21
148.100037
  0
LINE
  8
0
 10
290.247223
 20
133.562546
 11
291.247223
 21
133.562546
  0
LINE
  8
0
 10
290.247223
 20
121.437546
 11
291.247223
 21
121.437546
  0
LINE
  8
0
 10
290.247223
 20
121.437546
 11
290.247223
 21
133.562546
  0
LINE
  8
0
 10
284.847229
 20
122.500046
 11
290.247223
 21
122.500046
  0
LINE
  8
0
 10
284.847229
 20
132.500046
 11
290.247223
 21
132.500046
  0
LINE
  8
0
 10
284.247223
 20
123.100052
 11
284.247223
 21
131.900055
  0
LINE
  8
0
 10
284.847229
 20
122.500046
 11
284.847229
 21
132.500046
  0
LINE
  8
0
 10
284.847229
 20
122.500046
 11
284.247223
 21
123.100052
  0
LINE
  8
0
 10
284.847260
 20
132.500046
 11
284.247223
 21
131.900040
  0
LINE
  8
0
 10
290.247223
 20
108.937546
 11
290.247223
 21
121.062546
  0
LINE
  8
0
 10
284.847229
 20
110.000046
 11
290.247223
 21
110.000046
  0
LINE
  8
0
 10
284.847229
 20
120.000046
 11
290.247223
 21
120.000046
  0
LINE
  8
0
 10
284.847229
 20
110.000046
 11
284.847229
 21
120.000046
  0
LINE
  8
0
 10
284.847198
 20
120.000038
 11
284.247223
 21
119.400055
  0
LINE
  8
0
 10
284.847198
 20
110.000038
 11
284.247223
 21
110.600044
  0
LINE
  8
0
 10
284.247223
 20
110.600052
 11
284.247223
 21
119.400047
  0
LINE
  8
0
 10
290.247223
 20
158.562546
 11
291.247223
 21
158.562546
  0
LINE
  8
0
 10
290.247223
 20
171.250046
 11
290.247223
 21
158.750046
  0
LINE
  8
0
 10
284.247223
 20
169.400040
 11
284.247223
 21
160.600052
  0
LINE
  8
0
 10
284.847229
 20
170.000031
 11
284.247223
 21
169.400024
  0
LINE
  8
0
 10
284.847229
 20
170.000046
 11
284.847229
 21
160.000046
  0
LINE
  8
0
 10
284.847198
 20
160.000046
 11
284.247192
 21
160.600037
  0
LINE
  8
0
 10
284.847229
 20
160.000046
 11
290.247223
 21
160.000046
  0
LINE
  8
0
 10
284.847229
 20
170.000046
 11
290.247223
 21
170.000046
  0
LINE
  8
0
  6
CENTER
 10
253.247223
 20
140.000046
 11
404.247223
 21
140.000046
  0
LINE
  8
0
  6
CENTER
 10
281.247223
 20
127.500046
 11
300.747223
 21
127.500046
  0
LINE
  8
0
  6
CENTER
 10
281.247223
 20
115.000046
 11
300.747223
 21
115.000046
  0
LINE
  8
0
  6
CENTER
 10
281.247223
 20
152.500046
 11
300.747223
 21
152.500046
  0
LINE
  8
0
  6
CENTER
 10
281.247223
 20
165.000046
 11
300.747223
 21
165.000046
  0
LINE
  8
0
 10
290.247223
 20
285.400665
 11
291.247223
 21
285.400665
  0
LINE
  8
0
 10
290.247223
 20
297.900665
 11
291.247223
 21
297.900665
  0
LINE
  8
0
 10
290.247223
 20
263.750031
 11
291.247223
 21
263.750031
  0
LINE
  8
0
 10
290.247223
 20
276.250031
 11
291.247223
 21
276.250031
  0
LINE
  8
0
 10
290.247223
 20
254.599396
 11
291.247223
 21
254.599396
  0
LINE
  8
0
 10
290.247223
 20
297.900665
 11
290.247223
 21
285.400665
  0
LINE
  8
0
 10
284.847229
 20
296.650665
 11
290.247223
 21
296.650665
  0
LINE
  8
0
 10
284.847229
 20
286.650665
 11
290.247223
 21
286.650665
  0
LINE
  8
0
 10
284.847229
 20
296.650665
 11
284.847229
 21
286.650665
  0
LINE
  8
0
 10
284.847198
 20
286.650635
 11
284.247223
 21
287.250641
  0
LINE
  8
0
 10
284.847229
 20
296.650665
 11
284.247223
 21
296.050659
  0
LINE
  8
0
 10
284.247223
 20
296.050659
 11
284.247223
 21
287.250671
  0
LINE
  8
0
 10
263.247223
 20
268.000031
 11
279.247223
 21
268.000031
  0
LINE
  8
0
 10
263.247223
 20
272.000031
 11
279.247223
 21
272.000031
  0
LINE
  8
0
 10
315.747223
 20
305.000031
 11
361.747223
 21
305.000031
  0
LINE
  8
0
 10
315.747223
 20
235.000031
 11
361.747223
 21
235.000031
  0
LINE
  8
0
 10
295.747223
 20
302.500031
 11
295.747223
 21
237.500031
  0
LINE
  8
0
 10
337.747223
 20
305.000031
 11
337.747223
 21
235.000031
  0
LINE
  8
0
 10
296.747223
 20
300.000031
 11
315.747223
 21
300.000031
  0
LINE
  8
0
 10
296.747223
 20
240.000031
 11
315.747223
 21
240.000031
  0
LINE
  8
0
 10
295.747253
 20
299.000031
 11
296.747253
 21
300.000031
  0
LINE
  8
0
 10
295.747131
 20
240.999969
 11
296.747131
 21
239.999969
  0
LINE
  8
0
 10
315.747223
 20
305.000031
 11
315.747223
 21
235.000031
  0
LINE
  8
0
 10
296.747223
 20
240.000031
 11
296.747223
 21
300.000031
  0
LINE
  8
0
 10
381.747223
 20
299.000031
 11
381.747223
 21
241.000031
  0
LINE
  8
0
 10
385.247223
 20
281.500031
 11
385.247223
 21
258.500031
  0
LINE
  8
0
 10
381.747223
 20
282.500031
 11
384.247223
 21
282.500031
  0
LINE
  8
0
 10
381.747223
 20
257.500031
 11
384.247223
 21
257.500031
  0
LINE
  8
0
 10
385.247192
 20
281.500000
 11
384.247192
 21
282.500000
  0
LINE
  8
0
 10
385.247162
 20
258.500031
 11
384.247162
 21
257.500031
  0
LINE
  8
0
 10
384.247223
 20
282.500031
 11
384.247223
 21
257.500031
  0
LINE
  8
0
 10
361.747223
 20
240.000031
 11
380.747223
 21
240.000031
  0
LINE
  8
0
 10
361.747223
 20
300.000031
 11
380.747223
 21
300.000031
  0
LINE
  8
0
 10
381.747192
 20
241.000015
 11
380.747192
 21
240.000015
  0
LINE
  8
0
 10
380.746979
 20
299.999786
 11
381.746979
 21
298.999786
  0
LINE
  8
0
 10
380.747223
 20
300.000031
 11
380.747223
 21
240.000031
  0
LINE
  8
0
 10
401.247223
 20
274.000031
 11
401.247223
 21
266.000031
  0
LINE
  8
0
 10
385.247223
 20
276.000031
 11
388.247223
 21
276.000031
  0
LINE
  8
0
 10
385.247223
 20
264.000031
 11
388.247223
 21
264.000031
  0
LINE
  8
0
 10
388.247223
 20
276.000031
 11
388.247223
 21
275.000031
  0
LINE
  8
0
 10
388.247223
 20
265.000031
 11
400.247223
 21
265.000031
  0
LINE
  8
0
 10
388.247223
 20
275.000031
 11
400.247223
 21
275.000031
  0
LINE
  8
0
 10
388.247223
 20
265.000031
 11
400.247223
 21
265.000031
  0
LINE
  8
0
 10
388.247223
 20
275.000031
 11
400.247223
 21
275.000031
  0
LINE
  8
0
 10
388.247223
 20
273.316650
 11
401.247223
 21
273.316650
  0
LINE
  8
0
 10
388.247223
 20
266.683411
 11
401.247223
 21
266.683411
  0
LINE
  8
0
 10
388.247223
 20
265.000031
 11
388.247223
 21
264.000031
  0
LINE
  8
0
 10
388.247223
 20
273.316650
 11
388.247223
 21
266.683411
  0
LINE
  8
0
 10
400.247223
 20
275.000031
 11
400.247223
 21
273.316650
  0
LINE
  8
0
 10
400.247162
 20
265.000031
 11
401.247162
 21
266.000031
  0
LINE
  8
0
 10
401.247192
 20
273.999969
 11
400.247192
 21
274.999969
  0
LINE
  8
0
 10
400.247223
 20
266.683411
 11
400.247223
 21
265.000031
  0
LINE
  8
0
 10
388.247223
 20
273.316681
 11
401.247223
 21
266.683441
  0
LINE
  8
0
 10
401.247223
 20
273.316650
 11
388.247253
 21
266.683411
  0
LINE
  8
0
 10
361.747223
 20
305.000031
 11
361.747223
 21
235.000031
  0
LINE
  8
0
 10
257.247223
 20
276.000031
 11
257.247223
 21
264.000031
  0
LINE
  8
0
 10
256.247223
 20
275.000031
 11
256.247223
 21
265.000031
  0
LINE
  8
0
 10
257.247223
 20
264.000031
 11
290.247223
 21
264.000031
  0
LINE
  8
0
 10
257.247223
 20
276.000031
 11
290.247223
 21
276.000031
  0
LINE
  8
0
 10
256.247253
 20
275.000031
 11
257.247223
 21
276.000000
  0
LINE
  8
0
 10
256.247192
 20
265.000000
 11
257.247192
 21
264.000000
  0
LINE
  8
0
 10
260.747223
 20
297.500031
 11
260.747223
 21
276.000031
  0
LINE
  8
0
 10
265.747223
 20
302.500031
 11
295.747223
 21
302.500031
  0
LINE
  8
0
 10
265.747223
 20
237.500031
 11
295.747223
 21
237.500031
  0
LINE
  8
0
 10
291.247223
 20
302.500031
 11
291.247223
 21
237.500031
  0
LINE
  8
0
 10
260.747223
 20
264.000031
 11
260.747223
 21
242.500031
  0
LINE
  8
0
 10
290.247223
 20
285.000031
 11
291.247223
 21
285.000031
  0
LINE
  8
0
 10
290.247223
 20
255.000031
 11
291.247223
 21
255.000031
  0
LINE
  8
0
 10
290.247223
 20
254.599396
 11
290.247223
 21
242.099396
  0
LINE
  8
0
 10
284.247223
 20
252.749405
 11
284.247223
 21
243.949402
  0
LINE
  8
0
 10
284.847229
 20
253.349380
 11
284.247223
 21
252.749405
  0
LINE
  8
0
 10
284.847229
 20
253.349396
 11
284.847229
 21
243.349396
  0
LINE
  8
0
 10
284.847198
 20
243.349380
 11
284.247192
 21
243.949387
  0
LINE
  8
0
 10
284.847229
 20
243.349396
 11
290.247223
 21
243.349396
  0
LINE
  8
0
 10
284.847229
 20
253.349396
 11
290.247223
 21
253.349396
  0
LINE
  8
0
 10
290.247223
 20
276.250031
 11
290.247223
 21
263.750031
  0
LINE
  8
0
 10
284.247223
 20
274.400024
 11
284.247223
 21
265.600037
  0
LINE
  8
0
 10
284.847229
 20
275.000031
 11
284.247223
 21
274.400024
  0
LINE
  8
0
 10
284.847229
 20
275.000031
 11
284.847229
 21
265.000031
  0
LINE
  8
0
 10
284.847229
 20
265.000031
 11
284.247223
 21
265.600037
  0
LINE
  8
0
 10
284.847229
 20
265.000031
 11
290.247223
 21
265.000031
  0
LINE
  8
0
 10
284.847229
 20
275.000031
 11
290.247223
 21
275.000031
  0
LINE
  8
0
 10
290.247223
 20
242.099396
 11
291.247223
 21
242.099396
  0
LINE
  8
0
  6
CENTER
 10
270.747223
 20
300.000031
 11
270.747223
 21
285.000031
  0
LINE
  8
0
  6
CENTER
 10
263.247223
 20
292.500031
 11
278.247223
 21
292.500031
  0
LINE
  8
0
  6
CENTER
 10
281.247223
 20
291.650665
 11
300.747223
 21
291.650665
  0
LINE
  8
0
  6
CENTER
 10
253.247223
 20
270.000031
 11
404.247223
 21
270.000031
  0
LINE
  8
0
  6
CENTER
 10
281.247223
 20
248.349396
 11
300.747223
 21
248.349396
  0
LINE
  8
0
  6
CENTER
 10
270.747223
 20
240.000031
 11
270.747223
 21
255.000031
  0
LINE
  8
0
  6
CENTER
 10
263.247223
 20
247.500031
 11
278.247223
 21
247.500031
  0
LINE
  8
0
  6
CENTER
 10
319.247223
 20
285.000031
 11
334.247223
 21
285.000031
  0
LINE
  8
0
  6
CENTER
 10
326.747223
 20
292.500031
 11
326.747223
 21
277.500031
  0
LINE
  8
0
  6
CENTER
 10
350.747223
 20
262.500031
 11
350.747223
 21
247.500031
  0
LINE
  8
0
  6
CENTER
 10
343.247223
 20
255.000031
 11
358.247223
 21
255.000031
  0
LINE
  8
0
 10
76.247208
 20
175.000061
 11
138.247208
 21
175.000061
  0
LINE
  8
0
 10
142.247223
 20
171.000061
 11
142.247223
 21
109.000076
  0
LINE
  8
0
 10
72.247223
 20
171.000046
 11
72.247223
 21
109.000046
  0
LINE
  8
0
 10
133.247269
 20
167.056763
 11
135.747269
 21
165.613373
  0
LINE
  8
0
 10
135.747192
 20
165.613419
 11
138.247192
 21
167.056793
  0
LINE
  8
0
 10
138.247223
 20
167.056702
 11
138.247223
 21
169.943451
  0
LINE
  8
0
 10
138.247238
 20
169.943497
 11
135.747238
 21
171.386871
  0
LINE
  8
0
 10
135.747177
 20
171.387009
 11
133.247192
 21
169.943634
  0
LINE
  8
0
 10
133.247223
 20
169.943436
 11
133.247223
 21
167.056686
  0
LINE
  8
0
 10
83.096634
 20
151.056686
 11
85.596634
 21
149.613312
  0
LINE
  8
0
 10
83.096588
 20
153.943451
 11
83.096588
 21
151.056702
  0
LINE
  8
0
 10
85.596581
 20
155.386856
 11
83.096581
 21
153.943481
  0
LINE
  8
0
 10
88.096642
 20
153.943527
 11
85.596619
 21
155.386917
  0
LINE
  8
0
 10
88.096558
 20
151.056702
 11
88.096558
 21
153.943451
  0
LINE
  8
0
 10
85.596573
 20
149.613388
 11
88.096573
 21
151.056763
  0
LINE
  8
0
  6
CENTER
 10
69.247223
 20
140.000061
 11
145.247223
 21
140.000061
  0
LINE
  8
0
  6
CENTER
 10
78.747223
 20
176.000046
 11
78.747223
 21
161.000046
  0
LINE
  8
0
  6
CENTER
 10
71.247208
 20
168.500061
 11
86.247208
 21
168.500061
  0
LINE
  8
0
  6
CENTER
 10
122.835709
 20
149.000076
 11
133.228027
 21
155.000076
  0
LINE
  8
0
  6
CENTER
 10
107.247223
 20
178.000061
 11
107.247223
 21
92.000046
  0
LINE
  8
0
  6
CENTER
 10
79.534393
 20
156.000046
 11
91.658752
 21
149.000046
  0
LINE
  8
0
  6
CENTER
 10
143.247208
 20
168.500061
 11
128.247208
 21
168.500061
  0
LINE
  8
0
  6
CENTER
 10
135.747223
 20
176.000061
 11
135.747223
 21
161.000061
  0
LINE
  8
0
 10
74.747238
 20
99.500046
 11
139.747238
 21
99.500046
  0
LINE
  8
0
 10
74.747238
 20
95.000046
 11
139.747238
 21
95.000046
  0
LINE
  8
0
 10
74.747223
 20
140.000046
 11
74.747223
 21
95.000031
  0
LINE
  8
0
 10
139.747223
 20
140.000061
 11
139.747223
 21
95.000061
  0
LINE
  8
0
 10
78.747169
 20
171.386887
 11
76.247169
 21
169.943512
  0
LINE
  8
0
 10
81.247200
 20
169.943405
 11
78.747200
 21
171.386780
  0
LINE
  8
0
 10
81.247223
 20
167.056671
 11
81.247223
 21
169.943420
  0
LINE
  8
0
 10
78.747215
 20
165.613327
 11
81.247208
 21
167.056702
  0
LINE
  8
0
 10
76.247223
 20
167.056702
 11
78.747223
 21
165.613312
  0
LINE
  8
0
 10
76.247238
 20
169.943420
 11
76.247238
 21
167.056671
  0
LINE
  8
0
 10
88.096573
 20
128.943405
 11
85.596581
 21
130.386780
  0
LINE
  8
0
 10
88.096588
 20
126.056686
 11
88.096588
 21
128.943436
  0
LINE
  8
0
 10
83.096603
 20
126.056694
 11
85.596611
 21
124.613312
  0
LINE
  8
0
 10
85.596588
 20
124.613373
 11
88.096603
 21
126.056755
  0
LINE
  8
0
 10
83.096603
 20
128.943436
 11
83.096603
 21
126.056686
  0
LINE
  8
0
 10
85.596542
 20
130.386948
 11
83.096527
 21
128.943558
  0
LINE
  8
0
  6
CENTER
 10
79.534439
 20
124.000076
 11
91.658791
 21
131.000076
  0
LINE
  8
0
 10
107.247246
 20
117.886810
 11
104.747253
 21
116.443436
  0
LINE
  8
0
 10
109.747208
 20
116.443420
 11
107.247215
 21
117.886795
  0
LINE
  8
0
 10
107.247238
 20
112.113335
 11
109.747253
 21
113.556709
  0
LINE
  8
0
 10
109.747208
 20
113.556702
 11
109.747208
 21
116.443466
  0
LINE
  8
0
 10
104.747253
 20
113.556702
 11
107.247253
 21
112.113327
  0
LINE
  8
0
 10
104.747147
 20
116.443436
 11
104.747147
 21
113.556671
  0
LINE
  8
0
 10
126.397903
 20
128.943420
 11
126.397903
 21
126.056679
  0
LINE
  8
0
 10
128.897888
 20
130.386810
 11
126.397888
 21
128.943436
  0
LINE
  8
0
 10
131.397873
 20
126.056679
 11
131.397873
 21
128.943451
  0
LINE
  8
0
 10
131.397827
 20
128.943436
 11
128.897812
 21
130.386810
  0
LINE
  8
0
 10
128.897842
 20
124.613350
 11
131.397842
 21
126.056725
  0
LINE
  8
0
 10
126.397804
 20
126.056610
 11
128.897812
 21
124.613228
  0
LINE
  8
0
  6
CENTER
 10
134.960007
 20
124.000053
 11
122.835655
 21
131.000061
  0
LINE
  8
0
 10
126.397896
 20
151.056717
 11
128.897888
 21
149.613342
  0
LINE
  8
0
 10
126.397903
 20
153.943451
 11
126.397903
 21
151.056702
  0
LINE
  8
0
 10
131.397888
 20
153.943436
 11
128.897873
 21
155.386810
  0
LINE
  8
0
 10
128.897873
 20
155.386810
 11
126.397858
 21
153.943436
  0
LINE
  8
0
 10
131.397858
 20
151.056702
 11
131.397858
 21
153.943451
  0
LINE
  8
0
 10
128.897919
 20
149.613235
 11
131.397919
 21
151.056625
  0
LINE
  8
0
 10
107.247223
 20
162.113403
 11
109.747223
 21
163.556778
  0
LINE
  8
0
 10
104.747253
 20
163.556717
 11
107.247246
 21
162.113342
  0
LINE
  8
0
 10
107.247238
 20
167.886871
 11
104.747231
 21
166.443481
  0
LINE
  8
0
 10
104.747269
 20
166.443405
 11
104.747269
 21
163.556641
  0
LINE
  8
0
 10
109.747215
 20
166.443436
 11
107.247215
 21
167.886810
  0
LINE
  8
0
 10
109.747330
 20
163.556671
 11
109.747330
 21
166.443436
  0
LINE
  8
0
 10
82.247223
 20
100.500038
 11
82.247223
 21
99.500038
  0
LINE
  8
0
 10
92.247223
 20
100.500046
 11
92.247223
 21
99.500046
  0
LINE
  8
0
 10
122.247223
 20
100.500046
 11
122.247223
 21
99.500046
  0
LINE
  8
0
 10
132.247223
 20
100.500053
 11
132.247223
 21
99.500053
  0
LINE
  8
0
 10
257.247223
 20
51.000046
 11
292.247223
 21
51.000046
  0
LINE
  8
0
 10
256.247223
 20
50.000042
 11
257.247223
 21
51.000042
  0
LINE
  8
0
 10
256.247223
 20
50.000046
 11
256.247223
 21
40.000046
  0
LINE
  8
0
 10
257.247223
 20
39.000046
 11
292.247223
 21
39.000046
  0
LINE
  8
0
 10
261.247223
 20
52.500046
 11
281.115997
 21
52.500046
  0
LINE
  8
0
 10
281.115997
 20
52.500046
 11
281.115997
 21
51.000046
  0
LINE
  8
0
 10
261.247223
 20
52.500046
 11
261.247223
 21
51.000046
  0
LINE
  8
0
 10
257.247223
 20
51.000046
 11
257.247223
 21
39.000046
  0
LINE
  8
0
 10
256.247253
 20
40.000126
 11
257.247253
 21
39.000122
  0
LINE
  8
0
  6
CENTER
 10
253.247223
 20
45.000046
 11
301.747223
 21
45.000046
  0
LINE
  8
0
  6
PHANTOM
 10
292.247223
 20
56.500046
 11
292.247223
 21
33.500046
  0
LINE
  8
0
  6
PHANTOM
 10
293.247223
 20
57.500046
 11
295.747223
 21
57.500046
  0
LINE
  8
0
  6
PHANTOM
 10
293.247223
 20
32.500046
 11
295.747223
 21
32.500046
  0
LINE
  8
0
  6
PHANTOM
 10
292.247223
 20
56.500038
 11
293.247223
 21
57.500038
  0
LINE
  8
0
  6
PHANTOM
 10
292.247223
 20
33.500046
 11
293.247223
 21
32.500046
  0
LINE
  8
0
  6
PHANTOM
 10
293.247223
 20
57.500046
 11
293.247223
 21
32.500046
  0
ARC
  8
0
 10
291.747223
 20
99.000046
 40
4.000000
 50
270.000000
 51
0.000000
  0
CIRCLE
  8
0
 10
270.747223
 20
247.500031
 40
5.500000
  0
CIRCLE
  8
0
 10
270.747223
 20
292.500031
 40
5.500000
  0
ARC
  8
0
 10
290.247223
 20
250.000031
 40
5.000000
 50
90.000000
 51
137.942688
  0
ARC
  8
0
 10
290.247223
 20
290.000031
 40
4.999995
 50
222.057312
 51
270.000000
  0
ARC
  8
0
 10
265.747223
 20
297.500031
 40
5.000000
 50
90.000000
 51
180.000000
  0
ARC
  8
0
 10
265.747223
 20
242.500031
 40
5.000000
 50
180.000000
 51
270.000000
  0
CIRCLE
  8
0
 10
350.747223
 20
255.000031
 40
4.864000
  0
CIRCLE
  8
0
 10
350.747223
 20
255.000031
 40
4.283000
  0
CIRCLE
  8
0
 10
326.747223
 20
285.000031
 40
4.864000
  0
CIRCLE
  8
0
 10
326.747223
 20
285.000031
 40
4.283000
  0
ARC
  8
0
 10
279.247223
 20
270.000031
 40
2.000000
 50
270.000000
 51
90.000000
  0
ARC
  8
0
 10
263.247223
 20
270.000031
 40
2.000000
 50
90.000000
 51
270.000000
  0
ARC
  8
0
  6
CENTER
 10
107.247223
 20
140.000061
 40
25.000006
 50
73.739746
 51
106.260124
  0
ARC
  8
0
 10
87.247238
 20
100.500038
 40
5.000000
 50
0.000000
 51
180.000000
  0
ARC
  8
0
 10
127.247238
 20
100.500053
 40
5.000000
 50
0.000000
 51
180.000000
  0
CIRCLE
  8
0
 10
135.747223
 20
168.500061
 40
5.500000
  0
CIRCLE
  8
0
 10
107.247223
 20
140.000061
 40
5.000000
  0
CIRCLE
  8
0
 10
107.247223
 20
140.000061
 40
6.000000
  0
ARC
  8
0
 10
135.747223
 20
111.500069
 40
5.500000
 50
316.658234
 51
43.341763
  0
ARC
  8
0
 10
76.247208
 20
171.000046
 40
4.000000
 50
90.000000
 51
180.000000
  0
ARC
  8
0
 10
76.247238
 20
109.000053
 40
4.000000
 50
180.000000
 51
247.975693
  0
ARC
  8
0
 10
138.247223
 20
109.000069
 40
4.000000
 50
292.024323
 51
0.000000
  0
ARC
  8
0
 10
138.247223
 20
171.000061
 40
4.000000
 50
0.000000
 51
90.000000
  0
CIRCLE
  8
0
 10
107.247223
 20
140.000061
 40
11.500000
  0
CIRCLE
  8
0
 10
135.747223
 20
168.500061
 40
5.000000
  0
CIRCLE
  8
0
 10
85.596603
 20
152.500061
 40
5.000000
  0
ARC
  8
0
 10
78.747238
 20
111.500053
 40
5.000000
 50
143.130096
 51
216.869904
  0
ARC
  8
0
 10
135.747223
 20
111.500069
 40
5.000000
 50
323.130096
 51
36.869896
  0
CIRCLE
  8
0
 10
107.247223
 20
140.000061
 40
12.500000
  0
ARC
  8
0
  6
CENTER
 10
107.247223
 20
140.000061
 40
25.000000
 50
133.739746
 51
166.260132
  0
ARC
  8
0
 10
107.247223
 20
140.000061
 40
32.500000
 50
0.000000
 51
179.999969
  0
ARC
  8
0
 10
78.747238
 20
111.500053
 40
5.500000
 50
136.658234
 51
223.341766
  0
CIRCLE
  8
0
 10
78.747208
 20
168.500046
 40
5.000000
  0
CIRCLE
  8
0
 10
78.747208
 20
168.500046
 40
5.500000
  0
CIRCLE
  8
0
 10
85.596588
 20
127.500061
 40
5.000000
  0
ARC
  8
0
  6
CENTER
 10
107.247223
 20
140.000061
 40
25.000000
 50
193.739761
 51
226.260162
  0
CIRCLE
  8
0
 10
107.247223
 20
115.000061
 40
5.000000
  0
ARC
  8
0
  6
CENTER
 10
107.247223
 20
140.000061
 40
25.000004
 50
253.739761
 51
286.260162
  0
CIRCLE
  8
0
 10
128.897842
 20
127.500053
 40
5.000000
  0
ARC
  8
0
  6
CENTER
 10
107.247223
 20
140.000061
 40
25.000000
 50
313.739777
 51
346.260132
  0
CIRCLE
  8
0
 10
128.897858
 20
152.500046
 40
5.000000
  0
ARC
  8
0
  6
CENTER
 10
107.247223
 20
140.000061
 40
25.000008
 50
13.739751
 51
46.260151
  0
CIRCLE
  8
0
 10
107.247223
 20
165.000046
 40
5.000000
  0
TEXT
  8
0
 10
422.460297
 20
345.487762
 40
6.000000
  1
DATE : FEB ,1992
 50
0.000000
 41
1.052631
 51
0.000000
  7
STANDARD
  0
TEXT
  8
0
 10
2.364426
 20
344.587769
 40
7.000000
  1
ROTARY ACUTUATOR
 50
0.000000
 41
0.956938
 51
0.000000
  7
STANDARD
  0
TEXT
  8
0
 10
50.750000
 20
294.475342
 40
7.000000
  1
MODEL : RAN50-*-1A
 50
0.000000
 41
1.052632
 51
0.000000
  7
STANDARD
  0
TEXT
  8
0
 10
427.811859
 20
4.812350
 40
7.000000
  1
KOGANEI,CORP
 50
0.000000
 41
1.052632
 51
0.000000
  7
STANDARD
  0
LINE
  8
0
 10
329.179199
 20
289.212372
 11
349.841187
 21
325.000000
  0
LINE
  8
0
 10
349.841187
 20
325.000000
 11
386.931030
 21
325.000000
  0
LINE
  8
0
 10
329.179199
 20
289.212372
 11
331.300507
 21
291.333679
  0
LINE
  8
0
 10
329.179199
 20
289.212372
 11
329.955658
 21
292.110138
  0
TEXT
  8
0
 10
350.752472
 20
326.000000
 40
5.000000
  1
2-Rc1/8
 50
0.000000
 41
1.052632
 51
0.000000
  7
STANDARD
  0
ENDSEC
  0
EOF
