  0
SECTION
  2
HEADER
  0
ENDSEC
  0
SECTION
  2
TABLES
  0
TABLE
  2
LTYPE
 70
     4
  0
LTYPE
  2
CONTINUOUS
 70
    64
  3
Solid line
 72
    65
 73
     0
 40
0.000000
  0
LTYPE
  2
DASHED
 70
    64
  3
__ __ __ __ __ __ __ __ __ __ __ __ __ __ __
 72
    65
 73
     2
 40
3.500000
 49
2.000000
 49
-1.500000
  0
LTYPE
  2
CENTER
 70
    64
  3
____ _ ____ _ ____ _ ____ _ ____ _ ____ _ ____
 72
    65
 73
     4
 40
17.500000
 49
13.000000
 49
-1.500000
 49
1.500000
 49
-1.500000
  0
LTYPE
  2
PHANTOM
 70
    64
  3
_____ _ _ _____ _ _ _____ _ _ _____ _ _ ____  
 72
    65
 73
     6
 40
15.500000
 49
8.000000
 49
-1.500000
 49
1.500000
 49
-1.500000
 49
1.500000
 49
-1.500000
  0
LTYPE
  2
DASHED1
 70
    64
  3
__ __ __ __ __ __ __ __ __ __ __ __ __ __ __
 72
    65
 73
     2
 40
1.500000
 49
1.000000
 49
-0.500000
  0
LTYPE
  2
DASHED2
 70
    64
  3
__ __ __ __ __ __ __ __ __ __ __ __ __ __ __
 72
    65
 73
     2
 40
3.500000
 49
2.500000
 49
-1.000000
  0
LTYPE
  2
DASHED3
 70
    64
  3
__ __ __ __ __ __ __ __ __ __ __ __ __ __ __
 72
    65
 73
     2
 40
6.000000
 49
4.000000
 49
-2.000000
  0
LTYPE
  2
DASHED4
 70
    64
  3
__ __ __ __ __ __ __ __ __ __ __ __ __ __ __
 72
    65
 73
     2
 40
12.000000
 49
10.000000
 49
-2.000000
  0
LTYPE
  2
DASHED5
 70
    64
  3
__ __ __ __ __ __ __ __ __ __ __ __ __ __ __
 72
    65
 73
     2
 40
17.000000
 49
15.000000
 49
-2.000000
  0
LTYPE
  2
DASHED6
 70
    64
  3
__ __ __ __ __ __ __ __ __ __ __ __ __ __ __
 72
    65
 73
     2
 40
29.000000
 49
27.000000
 49
-2.000000
  0
LTYPE
  2
PHANTOM1
 70
    64
  3
_____ _ _ _____ _ _ _____ _ _ _____ _ _ ____  
 72
    65
 73
     6
 40
31.000000
 49
25.000000
 49
-1.500000
 49
1.000000
 49
-1.000000
 49
1.000000
 49
-1.500000
  0
LTYPE
  2
PHANTOM2
 70
    64
  3
_____ _ _ _____ _ _ _____ _ _ _____ _ _ ____  
 72
    65
 73
     6
 40
36.000000
 49
27.000000
 49
-1.500000
 49
2.500000
 49
-1.000000
 49
2.500000
 49
-1.500000
  0
LTYPE
  2
PHANTOM3
 70
    64
  3
_____ _ _ _____ _ _ _____ _ _ _____ _ _ ____  
 72
    65
 73
     6
 40
78.000000
 49
64.000000
 49
-2.000000
 49
4.000000
 49
-2.000000
 49
4.000000
 49
-2.000000
  0
LTYPE
  2
CENTER1
 70
    64
  3
____ _ ____ _ ____ _ ____ _ ____ _ ____ _ ____
 72
    65
 73
     4
 40
19.000000
 49
14.000000
 49
-1.000000
 49
3.000000
 49
-1.000000
  0
LTYPE
  2
CENTER2
 70
    64
  3
____ _ ____ _ ____ _ ____ _ ____ _ ____ _ ____
 72
    65
 73
     4
 40
28.500000
 49
25.000000
 49
-1.000000
 49
1.500000
 49
-1.000000
  0
LTYPE
  2
CENTER3
 70
    64
  3
____ _ ____ _ ____ _ ____ _ ____ _ ____ _ ____
 72
    65
 73
     4
 40
31.500000
 49
27.000000
 49
-1.000000
 49
2.500000
 49
-1.000000
  0
LTYPE
  2
CENTER4
 70
    64
  3
____ _ ____ _ ____ _ ____ _ ____ _ ____ _ ____
 72
    65
 73
     4
 40
50.000000
 49
45.000000
 49
-1.000000
 49
3.000000
 49
-1.000000
  0
LTYPE
  2
CENTER5
 70
    64
  3
____ _ ____ _ ____ _ ____ _ ____ _ ____ _ ____
 72
    65
 73
     4
 40
100.000000
 49
92.000000
 49
-2.000000
 49
4.000000
 49
-2.000000
  0
LTYPE
  2
SBK1
 70
    64
  3
______ _ _ _ ______ _ _ _ ______ _ _ _ _____  
 72
    65
 73
     8
 40
60.500000
 49
45.000000
 49
-2.000000
 49
2.500000
 49
-2.000000
 49
2.500000
 49
-2.000000
 49
2.500000
 49
-2.000000
  0
LTYPE
  2
SBK2
 70
    64
  3
______ _ _ _ ______ _ _ _ ______ _ _ _ _____  
 72
    65
 73
     8
 40
84.000000
 49
64.000000
 49
-2.000000
 49
4.000000
 49
-2.000000
 49
4.000000
 49
-2.000000
 49
4.000000
 49
-2.000000
  0
LTYPE
  2
STCH
 70
    64
  3
__ __ __ __ __ __ __ __ __ __ __ __ __ __ __
 72
    65
 73
     2
 40
3.000000
 49
1.000000
 49
-2.000000
  0
LTYPE
  2
MTCH
 70
    64
  3
_____ _ _ _____ _ _ _____ _ _ _____ _ _ ____  
 72
    65
 73
     6
 40
80.000000
 49
66.000000
 49
-2.000000
 49
4.000000
 49
-2.000000
 49
4.000000
 49
-2.000000
  0
ENDTAB
  0
TABLE
  2
LAYER
 70
     1
  0
LAYER
  2
0
 70
     0
 62
     7
  6
CONTINUOUS
  0
ENDTAB
  0
TABLE
  2
STYLE
 70
     1
  0
STYLE
  2
STANDARD
 70
     0
 40
0.000000
 41
1.000000
 50
0.000000
 71
     0
 42
0.200000
  3
txt
  4
BIGFONT
  0
ENDTAB
  0
TABLE
  2
VIEW
 70
     0
  0
ENDTAB
  0
ENDSEC
  0
SECTION
  2
BLOCKS
  0
ENDSEC
  0
SECTION
  2
ENTITIES
  0
POINT
  8
0
 10
60.436806
 20
72.279243
  0
POINT
  8
0
 10
167.436768
 20
72.279228
  0
POINT
  8
0
 10
295.436768
 20
72.279236
  0
POINT
  8
0
 10
167.436783
 20
177.279236
  0
POINT
  8
0
 10
202.436768
 20
72.279228
  0
POINT
  8
0
 10
202.436783
 20
177.279236
  0
POINT
  8
0
 10
78.936806
 20
72.279243
  0
POINT
  8
0
 10
313.936768
 20
72.279236
  0
LINE
  8
0
 62
     3
 10
0.000000
 20
0.000000
 11
0.000000
 21
254.558472
  0
LINE
  8
0
 62
     3
 10
370.873566
 20
254.558472
 11
370.873566
 21
0.000000
  0
LINE
  8
0
 62
     3
 10
0.000000
 20
0.000000
 11
370.873566
 21
0.000000
  0
LINE
  8
0
 62
     3
 10
0.000000
 20
254.558472
 11
370.873566
 21
254.558472
  0
LINE
  8
0
 62
     3
 10
0.000000
 20
240.257431
 11
76.272194
 21
240.257431
  0
LINE
  8
0
 62
     3
 10
76.272194
 20
240.257431
 11
76.272194
 21
254.558472
  0
LINE
  8
0
 62
     3
 10
294.601379
 20
14.301025
 11
370.873566
 21
14.301025
  0
LINE
  8
0
 62
     3
 10
294.601379
 20
240.257431
 11
370.873566
 21
240.257431
  0
LINE
  8
0
 62
     3
 10
294.601379
 20
254.558472
 11
294.601379
 21
240.257431
  0
LINE
  8
0
 62
     3
 10
294.601379
 20
14.301025
 11
294.601379
 21
0.000000
  0
LINE
  8
0
 10
202.436783
 20
72.632790
 11
197.436783
 21
74.779243
  0
LINE
  8
0
 10
180.436768
 20
53.779228
 11
180.436768
 21
90.779228
  0
LINE
  8
0
 10
152.436783
 20
70.279228
 11
152.436783
 21
74.779228
  0
LINE
  8
0
 10
167.436768
 20
65.279228
 11
167.436768
 21
79.279228
  0
LINE
  8
0
 10
171.436768
 20
53.779228
 11
171.436768
 21
90.779228
  0
LINE
  8
0
 10
193.936768
 20
53.779228
 11
193.936768
 21
90.779228
  0
LINE
  8
0
 10
195.936768
 20
62.279228
 11
195.936768
 21
82.279228
  0
LINE
  8
0
 10
202.436768
 20
70.279228
 11
202.436768
 21
74.779228
  0
LINE
  8
0
 10
171.436768
 20
53.779228
 11
193.936768
 21
53.779228
  0
LINE
  8
0
 10
171.436768
 20
90.779228
 11
193.936768
 21
90.779228
  0
LINE
  8
0
 10
167.436768
 20
65.279228
 11
171.436768
 21
65.279228
  0
LINE
  8
0
 10
167.436768
 20
79.279228
 11
171.436768
 21
79.279228
  0
LINE
  8
0
 10
193.936768
 20
82.279228
 11
195.936768
 21
82.279228
  0
LINE
  8
0
 10
193.936768
 20
62.279228
 11
195.936768
 21
62.279228
  0
LINE
  8
0
 10
180.436768
 20
60.529228
 11
193.936768
 21
60.529228
  0
LINE
  8
0
 10
180.436768
 20
84.029228
 11
193.936768
 21
84.029228
  0
LINE
  8
0
 10
152.436783
 20
74.779228
 11
167.436768
 21
74.779228
  0
LINE
  8
0
 10
152.936768
 20
69.779228
 11
167.436768
 21
69.779228
  0
LINE
  8
0
 10
195.936768
 20
69.779228
 11
201.936768
 21
69.779228
  0
LINE
  8
0
 10
195.936768
 20
74.779228
 11
202.436768
 21
74.779228
  0
LINE
  8
0
 10
202.436737
 20
70.279251
 11
201.936737
 21
69.779251
  0
LINE
  8
0
 10
152.436844
 20
70.279335
 11
152.936844
 21
69.779335
  0
LINE
  8
0
 10
152.936768
 20
69.779228
 11
152.936768
 21
72.632790
  0
LINE
  8
0
 10
201.936768
 20
69.779228
 11
201.936768
 21
72.632790
  0
LINE
  8
0
 10
152.436783
 20
72.632790
 11
162.436783
 21
72.632790
  0
LINE
  8
0
 10
162.436783
 20
72.632790
 11
162.436783
 21
74.779228
  0
LINE
  8
0
 10
152.436752
 20
72.632797
 11
162.436752
 21
74.779243
  0
LINE
  8
0
 10
162.436783
 20
72.632812
 11
152.436783
 21
74.779259
  0
LINE
  8
0
 10
202.436768
 20
72.632790
 11
197.436768
 21
72.632790
  0
LINE
  8
0
 10
197.436768
 20
72.632790
 11
197.436768
 21
74.779228
  0
LINE
  8
0
 10
197.436752
 20
72.632820
 11
202.436752
 21
74.779266
  0
LINE
  8
0
  6
CENTER
 10
149.436783
 20
72.279228
 11
205.436768
 21
72.279228
  0
LINE
  8
0
  6
CENTER
 10
187.936783
 20
167.779236
 11
187.936783
 21
175.779236
  0
LINE
  8
0
 10
180.436783
 20
195.779236
 11
180.436783
 21
158.779236
  0
LINE
  8
0
 10
152.436798
 20
179.279236
 11
152.436798
 21
174.779236
  0
LINE
  8
0
 10
167.436783
 20
184.279236
 11
167.436783
 21
170.279236
  0
LINE
  8
0
 10
171.436783
 20
195.779236
 11
171.436783
 21
158.779236
  0
LINE
  8
0
 10
193.936783
 20
195.779236
 11
193.936783
 21
158.779236
  0
LINE
  8
0
 10
195.936783
 20
187.279236
 11
195.936783
 21
167.279236
  0
LINE
  8
0
 10
202.436783
 20
179.279236
 11
202.436783
 21
174.779236
  0
LINE
  8
0
 10
171.436783
 20
195.779236
 11
193.936783
 21
195.779236
  0
LINE
  8
0
 10
171.436783
 20
158.779236
 11
193.936783
 21
158.779236
  0
LINE
  8
0
 10
167.436783
 20
184.279236
 11
171.436783
 21
184.279236
  0
LINE
  8
0
 10
167.436783
 20
170.279236
 11
171.436783
 21
170.279236
  0
LINE
  8
0
 10
193.936783
 20
167.279236
 11
195.936783
 21
167.279236
  0
LINE
  8
0
 10
193.936783
 20
187.279236
 11
195.936783
 21
187.279236
  0
LINE
  8
0
 10
180.436783
 20
189.029236
 11
193.936783
 21
189.029236
  0
LINE
  8
0
 10
180.436783
 20
165.529236
 11
193.936783
 21
165.529236
  0
LINE
  8
0
 10
152.436798
 20
174.779236
 11
167.436783
 21
174.779236
  0
LINE
  8
0
 10
152.936783
 20
179.779236
 11
167.436783
 21
179.779236
  0
LINE
  8
0
 10
195.936783
 20
179.779236
 11
201.936783
 21
179.779236
  0
LINE
  8
0
 10
195.936783
 20
174.779236
 11
202.436783
 21
174.779236
  0
LINE
  8
0
 10
202.436768
 20
179.279221
 11
201.936768
 21
179.779236
  0
LINE
  8
0
 10
152.436874
 20
179.279099
 11
152.936874
 21
179.779114
  0
LINE
  8
0
 10
152.936783
 20
179.779236
 11
152.936783
 21
176.925674
  0
LINE
  8
0
 10
201.936783
 20
179.779236
 11
201.936783
 21
176.925674
  0
LINE
  8
0
 10
152.436798
 20
176.925674
 11
162.436783
 21
176.925674
  0
LINE
  8
0
 10
162.436783
 20
176.925674
 11
162.436783
 21
174.779236
  0
LINE
  8
0
 10
152.436783
 20
176.925659
 11
162.436783
 21
174.779205
  0
LINE
  8
0
 10
162.436783
 20
176.925644
 11
152.436798
 21
174.779205
  0
LINE
  8
0
 10
202.436783
 20
176.925674
 11
197.436783
 21
176.925674
  0
LINE
  8
0
 10
197.436783
 20
176.925674
 11
197.436783
 21
174.779236
  0
LINE
  8
0
 10
197.436752
 20
176.925629
 11
202.436752
 21
174.779190
  0
LINE
  8
0
 10
202.436768
 20
176.925644
 11
197.436768
 21
174.779190
  0
LINE
  8
0
  6
CENTER
 10
149.436783
 20
177.279236
 11
205.436783
 21
177.279236
  0
LINE
  8
0
  6
CENTER
 10
183.936783
 20
182.779236
 11
191.936783
 21
182.779236
  0
LINE
  8
0
  6
CENTER
 10
187.936783
 20
186.779236
 11
187.936783
 21
178.779236
  0
LINE
  8
0
  6
CENTER
 10
183.936783
 20
171.779236
 11
191.936783
 21
171.779236
  0
LINE
  8
0
 62
     3
 10
49.715118
 20
58.029236
 11
51.158493
 21
58.029236
  0
LINE
  8
0
 62
     3
 10
49.715118
 20
60.529243
 11
51.158493
 21
60.529243
  0
LINE
  8
0
 62
     3
 10
49.715031
 20
58.029224
 11
48.993343
 21
59.279224
  0
LINE
  8
0
 62
     3
 10
51.880074
 20
59.279198
 11
51.158382
 21
60.529205
  0
LINE
  8
0
 62
     3
 10
48.993446
 20
59.279240
 11
49.715141
 21
60.529255
  0
LINE
  8
0
 62
     3
 10
51.158501
 20
58.029228
 11
51.880196
 21
59.279240
  0
LINE
  8
0
 62
     3
 10
48.158493
 20
83.529259
 11
46.715118
 21
83.529259
  0
LINE
  8
0
 62
     3
 10
48.158493
 20
81.029259
 11
46.715118
 21
81.029259
  0
LINE
  8
0
 62
     3
 10
48.158241
 20
83.529083
 11
48.879929
 21
82.279083
  0
LINE
  8
0
 62
     3
 10
45.993183
 20
82.279129
 11
46.714878
 21
81.029114
  0
LINE
  8
0
 62
     3
 10
48.880219
 20
82.279243
 11
48.158524
 21
81.029236
  0
LINE
  8
0
 62
     3
 10
46.715137
 20
83.529266
 11
45.993443
 21
82.279251
  0
LINE
  8
0
 10
60.790249
 20
74.754028
 11
62.911564
 21
72.632713
  0
LINE
  8
0
 10
41.936813
 20
55.779236
 11
41.936813
 21
88.779236
  0
LINE
  8
0
 10
43.936798
 20
90.779243
 11
76.936798
 21
90.779243
  0
LINE
  8
0
 10
43.936798
 20
53.779236
 11
76.936798
 21
53.779236
  0
LINE
  8
0
 10
78.936806
 20
55.779236
 11
78.936806
 21
88.779236
  0
LINE
  8
0
 62
     3
 10
72.715118
 20
61.029243
 11
74.158493
 21
61.029243
  0
LINE
  8
0
 62
     3
 10
72.715118
 20
63.529243
 11
74.158493
 21
63.529243
  0
LINE
  8
0
 62
     3
 10
72.714973
 20
61.029182
 11
71.993286
 21
62.279182
  0
LINE
  8
0
 62
     3
 10
74.880058
 20
62.279186
 11
74.158363
 21
63.529198
  0
LINE
  8
0
 62
     3
 10
71.993454
 20
62.279228
 11
72.715149
 21
63.529240
  0
LINE
  8
0
 62
     3
 10
74.158531
 20
61.029221
 11
74.880226
 21
62.279232
  0
LINE
  8
0
 62
     3
 10
71.686806
 20
84.557556
 11
71.686806
 21
86.000931
  0
LINE
  8
0
 62
     3
 10
69.186806
 20
84.557556
 11
69.186806
 21
86.000931
  0
LINE
  8
0
 62
     3
 10
71.686836
 20
84.557510
 11
70.436836
 21
83.835823
  0
LINE
  8
0
 62
     3
 10
70.436844
 20
86.722565
 11
69.186829
 21
86.000877
  0
LINE
  8
0
 62
     3
 10
70.436821
 20
83.835823
 11
69.186813
 21
84.557518
  0
LINE
  8
0
 62
     3
 10
71.686798
 20
86.000900
 11
70.436783
 21
86.722595
  0
LINE
  8
0
  6
CENTER
 10
48.436798
 20
87.279259
 11
42.436798
 21
87.279259
  0
LINE
  8
0
  6
CENTER
 10
45.436813
 20
84.279236
 11
45.436813
 21
90.279236
  0
LINE
  8
0
  6
CENTER
 10
51.936798
 20
82.279259
 11
42.936798
 21
82.279259
  0
LINE
  8
0
  6
CENTER
 10
47.436813
 20
86.779236
 11
47.436813
 21
77.779236
  0
LINE
  8
0
  6
CENTER
 10
38.936798
 20
72.279243
 11
81.936798
 21
72.279243
  0
LINE
  8
0
  6
CENTER
 10
50.436783
 20
63.779240
 11
50.436783
 21
54.779236
  0
LINE
  8
0
  6
CENTER
 10
45.936798
 20
59.279243
 11
54.936798
 21
59.279243
  0
LINE
  8
0
  6
CENTER
 10
45.436783
 20
60.279236
 11
45.436783
 21
54.279236
  0
LINE
  8
0
  6
CENTER
 10
48.436798
 20
57.279251
 11
42.436798
 21
57.279251
  0
LINE
  8
0
  6
CENTER
 10
60.436806
 20
50.779236
 11
60.436806
 21
93.779236
  0
LINE
  8
0
  6
CENTER
 10
70.436806
 20
80.779236
 11
70.436806
 21
89.779236
  0
LINE
  8
0
  6
CENTER
 10
74.936798
 20
85.279259
 11
65.936798
 21
85.279259
  0
LINE
  8
0
  6
CENTER
 10
75.436806
 20
84.279236
 11
75.436806
 21
90.279236
  0
LINE
  8
0
  6
CENTER
 10
72.436798
 20
87.279243
 11
78.436798
 21
87.279243
  0
LINE
  8
0
  6
CENTER
 10
73.436806
 20
57.779236
 11
73.436806
 21
66.779236
  0
LINE
  8
0
  6
CENTER
 10
68.936798
 20
62.279243
 11
77.936798
 21
62.279243
  0
LINE
  8
0
  6
CENTER
 10
72.436798
 20
57.279236
 11
78.436798
 21
57.279236
  0
LINE
  8
0
  6
CENTER
 10
75.436790
 20
60.279236
 11
75.436790
 21
54.279236
  0
LINE
  8
0
 10
311.936768
 20
90.779236
 11
278.936768
 21
90.779236
  0
LINE
  8
0
 10
313.936768
 20
88.779236
 11
313.936768
 21
55.779236
  0
LINE
  8
0
 10
311.936768
 20
53.779236
 11
278.936768
 21
53.779236
  0
LINE
  8
0
 10
276.936768
 20
88.779236
 11
276.936768
 21
55.779236
  0
LINE
  8
0
 10
277.936768
 20
60.529236
 11
280.436768
 21
60.529236
  0
LINE
  8
0
 10
277.936768
 20
84.029236
 11
280.436768
 21
84.029236
  0
LINE
  8
0
 10
307.186768
 20
89.779236
 11
307.186768
 21
87.279236
  0
LINE
  8
0
 10
283.686768
 20
89.779236
 11
283.686768
 21
87.279236
  0
LINE
  8
0
 10
283.686768
 20
57.279236
 11
283.686768
 21
54.779236
  0
LINE
  8
0
 10
307.186768
 20
57.279236
 11
307.186768
 21
54.779236
  0
LINE
  8
0
 10
310.436768
 20
84.029236
 11
312.936768
 21
84.029236
  0
LINE
  8
0
 10
310.436768
 20
60.529236
 11
312.936768
 21
60.529236
  0
LINE
  8
0
 10
295.083313
 20
74.754059
 11
292.961975
 21
72.632736
  0
LINE
  8
0
  6
CENTER
 10
280.436737
 20
84.279236
 11
280.436737
 21
90.279236
  0
LINE
  8
0
  6
CENTER
 10
283.436768
 20
87.279236
 11
277.436768
 21
87.279236
  0
LINE
  8
0
  6
CENTER
 10
284.436768
 20
81.779236
 11
284.436768
 21
76.779236
  0
LINE
  8
0
  6
CENTER
 10
281.936768
 20
79.279236
 11
286.936768
 21
79.279236
  0
LINE
  8
0
  6
CENTER
 10
273.936768
 20
72.279236
 11
316.936768
 21
72.279236
  0
LINE
  8
0
  6
CENTER
 10
295.436768
 20
93.779236
 11
295.436768
 21
50.779236
  0
LINE
  8
0
  6
CENTER
 10
310.436737
 20
84.279236
 11
310.436737
 21
90.279236
  0
LINE
  8
0
  6
CENTER
 10
307.436768
 20
87.279236
 11
313.436768
 21
87.279236
  0
LINE
  8
0
  6
CENTER
 10
306.436768
 20
62.779236
 11
306.436768
 21
67.779236
  0
LINE
  8
0
  6
CENTER
 10
308.936768
 20
65.279236
 11
303.936768
 21
65.279236
  0
LINE
  8
0
  6
CENTER
 10
310.436768
 20
60.279236
 11
310.436768
 21
54.279236
  0
LINE
  8
0
  6
CENTER
 10
307.436768
 20
57.279251
 11
313.436768
 21
57.279251
  0
LINE
  8
0
  6
CENTER
 10
280.436768
 20
60.279236
 11
280.436768
 21
54.279236
  0
LINE
  8
0
  6
CENTER
 10
283.436768
 20
57.279236
 11
277.436768
 21
57.279236
  0
ARC
  8
0
 10
161.534973
 20
73.706001
 40
1.401806
 50
310.039825
 51
49.960178
  0
ARC
  8
0
 10
198.338593
 20
73.706001
 40
1.401806
 50
130.039825
 51
229.960175
  0
ARC
  8
0
 10
198.338593
 20
175.852463
 40
1.401812
 50
130.039612
 51
229.960388
  0
ARC
  8
0
 10
161.534973
 20
175.852463
 40
1.401812
 50
310.039612
 51
49.960381
  0
CIRCLE
  8
0
 10
187.936783
 20
171.779236
 40
2.099999
  0
CIRCLE
  8
0
 10
187.936783
 20
182.779236
 40
2.500000
  0
CIRCLE
  8
0
 10
187.936783
 20
182.779236
 40
2.099999
  0
CIRCLE
  8
0
 10
187.936783
 20
171.779236
 40
2.500000
  0
CIRCLE
  8
0
 62
     3
 10
50.436798
 20
59.279236
 40
2.403589
  0
CIRCLE
  8
0
 62
     3
 10
47.436798
 20
82.279236
 40
2.403589
  0
CIRCLE
  8
0
 10
75.436798
 20
87.279236
 40
1.650000
  0
CIRCLE
  8
0
 10
75.436798
 20
87.279236
 40
2.000000
  0
CIRCLE
  8
0
 62
     3
 10
70.436798
 20
85.279236
 40
2.403589
  0
CIRCLE
  8
0
 10
70.436798
 20
85.279236
 40
3.000000
  0
CIRCLE
  8
0
 10
75.436798
 20
57.279236
 40
1.650000
  0
CIRCLE
  8
0
 10
75.436798
 20
57.279236
 40
2.000000
  0
CIRCLE
  8
0
 62
     3
 10
73.436798
 20
62.279236
 40
2.403589
  0
CIRCLE
  8
0
 10
73.436798
 20
62.279236
 40
3.000000
  0
CIRCLE
  8
0
 10
60.436798
 20
72.279236
 40
2.000000
  0
CIRCLE
  8
0
 10
45.436798
 20
87.279236
 40
1.650000
  0
ARC
  8
0
 10
76.936798
 20
55.779236
 40
2.000000
 50
270.000000
 51
0.000000
  0
ARC
  8
0
 10
43.936798
 20
55.779236
 40
2.000000
 50
180.000000
 51
270.000000
  0
ARC
  8
0
 10
76.936798
 20
88.779236
 40
2.000000
 50
0.000000
 51
90.000000
  0
ARC
  8
0
 10
43.936798
 20
88.779236
 40
2.000000
 50
90.000000
 51
180.000000
  0
CIRCLE
  8
0
 10
45.436798
 20
57.279236
 40
1.650000
  0
CIRCLE
  8
0
 10
60.436798
 20
72.279236
 40
2.500000
  0
CIRCLE
  8
0
 10
45.436798
 20
57.279236
 40
2.000000
  0
CIRCLE
  8
0
 10
45.436798
 20
87.279236
 40
2.000000
  0
CIRCLE
  8
0
 10
50.436798
 20
59.279236
 40
3.000000
  0
CIRCLE
  8
0
 10
60.436798
 20
72.279236
 40
7.000000
  0
CIRCLE
  8
0
 10
47.436798
 20
82.279236
 40
3.000000
  0
ARC
  8
0
 10
280.436768
 20
57.279236
 40
3.250000
 50
0.000000
 51
90.000000
  0
ARC
  8
0
 10
284.686768
 20
89.779236
 40
1.000000
 50
90.000000
 51
180.000000
  0
CIRCLE
  8
0
 10
295.436768
 20
72.279236
 40
2.000000
  0
CIRCLE
  8
0
 10
284.436768
 20
79.279236
 40
1.250000
  0
CIRCLE
  8
0
 10
284.436768
 20
79.279236
 40
1.500000
  0
CIRCLE
  8
0
 10
306.436768
 20
65.279236
 40
1.250000
  0
CIRCLE
  8
0
 10
306.436768
 20
65.279236
 40
1.500000
  0
CIRCLE
  8
0
 10
295.436768
 20
72.279236
 40
10.000000
  0
CIRCLE
  8
0
 10
295.436768
 20
72.279236
 40
2.500000
  0
ARC
  8
0
 10
277.936768
 20
83.029236
 40
1.000000
 50
90.000000
 51
180.000000
  0
ARC
  8
0
 10
277.936768
 20
61.529236
 40
1.000000
 50
180.000000
 51
270.000000
  0
ARC
  8
0
 10
284.686768
 20
54.779236
 40
1.000000
 50
180.000000
 51
270.000000
  0
ARC
  8
0
 10
306.186768
 20
54.779236
 40
1.000000
 50
270.000000
 51
0.000000
  0
ARC
  8
0
 10
312.936768
 20
61.529236
 40
1.000000
 50
270.000000
 51
0.000000
  0
ARC
  8
0
 10
312.936768
 20
83.029236
 40
1.000000
 50
0.000000
 51
90.000000
  0
ARC
  8
0
 10
306.186768
 20
89.779236
 40
1.000000
 50
0.000000
 51
90.000000
  0
ARC
  8
0
 10
280.436768
 20
87.279236
 40
3.250000
 50
270.000000
 51
0.000000
  0
ARC
  8
0
 10
310.436768
 20
87.279236
 40
3.250000
 50
180.000000
 51
270.000000
  0
ARC
  8
0
 10
311.936768
 20
88.779236
 40
2.000000
 50
0.000000
 51
90.000000
  0
CIRCLE
  8
0
 10
310.436768
 20
87.279236
 40
1.650000
  0
CIRCLE
  8
0
 10
310.436768
 20
57.279236
 40
1.650000
  0
ARC
  8
0
 10
311.936768
 20
55.779236
 40
2.000000
 50
270.000000
 51
0.000000
  0
CIRCLE
  8
0
 10
280.436768
 20
57.279236
 40
1.650000
  0
ARC
  8
0
 10
278.936768
 20
55.779236
 40
2.000000
 50
180.000000
 51
270.000000
  0
ARC
  8
0
 10
278.936768
 20
88.779236
 40
2.000000
 50
90.000000
 51
180.000000
  0
CIRCLE
  8
0
 10
280.436768
 20
87.279236
 40
1.650000
  0
ARC
  8
0
 10
310.436768
 20
57.279236
 40
3.250000
 50
90.000000
 51
179.999939
  0
TEXT
  8
0
 10
298.797760
 20
244.589584
 40
4.242641
  1
DATE : FEB ,1992
 50
0.000000
 41
1.052631
 51
0.000000
  7
STANDARD
  0
TEXT
  8
0
 10
2.113382
 20
243.907959
 40
5.000000
  1
ROTARY ACUTUATOR
 50
0.000000
 41
0.937799
 51
0.000000
  7
STANDARD
  0
TEXT
  8
0
 10
37.035717
 20
196.757431
 40
5.000000
  1
MODEL : RAN3-*-4
 50
0.000000
 41
1.052632
 51
0.000000
  7
STANDARD
  0
TEXT
  8
0
 10
302.273193
 20
3.650512
 40
5.000000
  1
KOGANEI,CORP
 50
0.000000
 41
1.052632
 51
0.000000
  7
STANDARD
  0
LINE
  8
0
 10
189.186783
 20
184.944290
 11
204.102600
 21
210.779236
  0
LINE
  8
0
 10
204.102600
 20
210.779236
 11
219.401276
 21
210.779236
  0
LINE
  8
0
 10
189.186783
 20
184.944290
 11
191.308105
 21
187.065613
  0
LINE
  8
0
 10
189.186783
 20
184.944290
 11
189.963242
 21
187.842072
  0
TEXT
  8
0
 10
204.651276
 20
211.779236
 40
3.500000
  1
2-M5
 50
0.000000
 41
1.052632
 51
0.000000
  7
STANDARD
  0
ENDSEC
  0
EOF
