  0
SECTION
  2
HEADER
  0
ENDSEC
  0
SECTION
  2
TABLES
  0
TABLE
  2
LTYPE
 70
     4
  0
LTYPE
  2
CONTINUOUS
 70
    64
  3
Solid line
 72
    65
 73
     0
 40
0.000000
  0
LTYPE
  2
DASHED
 70
    64
  3
__ __ __ __ __ __ __ __ __ __ __ __ __ __ __
 72
    65
 73
     2
 40
3.500000
 49
2.000000
 49
-1.500000
  0
LTYPE
  2
CENTER
 70
    64
  3
____ _ ____ _ ____ _ ____ _ ____ _ ____ _ ____
 72
    65
 73
     4
 40
17.500000
 49
13.000000
 49
-1.500000
 49
1.500000
 49
-1.500000
  0
LTYPE
  2
PHANTOM
 70
    64
  3
_____ _ _ _____ _ _ _____ _ _ _____ _ _ ____  
 72
    65
 73
     6
 40
15.500000
 49
8.000000
 49
-1.500000
 49
1.500000
 49
-1.500000
 49
1.500000
 49
-1.500000
  0
LTYPE
  2
DASHED1
 70
    64
  3
__ __ __ __ __ __ __ __ __ __ __ __ __ __ __
 72
    65
 73
     2
 40
1.500000
 49
1.000000
 49
-0.500000
  0
LTYPE
  2
DASHED2
 70
    64
  3
__ __ __ __ __ __ __ __ __ __ __ __ __ __ __
 72
    65
 73
     2
 40
3.500000
 49
2.500000
 49
-1.000000
  0
LTYPE
  2
DASHED3
 70
    64
  3
__ __ __ __ __ __ __ __ __ __ __ __ __ __ __
 72
    65
 73
     2
 40
6.000000
 49
4.000000
 49
-2.000000
  0
LTYPE
  2
DASHED4
 70
    64
  3
__ __ __ __ __ __ __ __ __ __ __ __ __ __ __
 72
    65
 73
     2
 40
12.000000
 49
10.000000
 49
-2.000000
  0
LTYPE
  2
DASHED5
 70
    64
  3
__ __ __ __ __ __ __ __ __ __ __ __ __ __ __
 72
    65
 73
     2
 40
17.000000
 49
15.000000
 49
-2.000000
  0
LTYPE
  2
DASHED6
 70
    64
  3
__ __ __ __ __ __ __ __ __ __ __ __ __ __ __
 72
    65
 73
     2
 40
29.000000
 49
27.000000
 49
-2.000000
  0
LTYPE
  2
PHANTOM1
 70
    64
  3
_____ _ _ _____ _ _ _____ _ _ _____ _ _ ____  
 72
    65
 73
     6
 40
31.000000
 49
25.000000
 49
-1.500000
 49
1.000000
 49
-1.000000
 49
1.000000
 49
-1.500000
  0
LTYPE
  2
PHANTOM2
 70
    64
  3
_____ _ _ _____ _ _ _____ _ _ _____ _ _ ____  
 72
    65
 73
     6
 40
36.000000
 49
27.000000
 49
-1.500000
 49
2.500000
 49
-1.000000
 49
2.500000
 49
-1.500000
  0
LTYPE
  2
PHANTOM3
 70
    64
  3
_____ _ _ _____ _ _ _____ _ _ _____ _ _ ____  
 72
    65
 73
     6
 40
78.000000
 49
64.000000
 49
-2.000000
 49
4.000000
 49
-2.000000
 49
4.000000
 49
-2.000000
  0
LTYPE
  2
CENTER1
 70
    64
  3
____ _ ____ _ ____ _ ____ _ ____ _ ____ _ ____
 72
    65
 73
     4
 40
19.000000
 49
14.000000
 49
-1.000000
 49
3.000000
 49
-1.000000
  0
LTYPE
  2
CENTER2
 70
    64
  3
____ _ ____ _ ____ _ ____ _ ____ _ ____ _ ____
 72
    65
 73
     4
 40
28.500000
 49
25.000000
 49
-1.000000
 49
1.500000
 49
-1.000000
  0
LTYPE
  2
CENTER3
 70
    64
  3
____ _ ____ _ ____ _ ____ _ ____ _ ____ _ ____
 72
    65
 73
     4
 40
31.500000
 49
27.000000
 49
-1.000000
 49
2.500000
 49
-1.000000
  0
LTYPE
  2
CENTER4
 70
    64
  3
____ _ ____ _ ____ _ ____ _ ____ _ ____ _ ____
 72
    65
 73
     4
 40
50.000000
 49
45.000000
 49
-1.000000
 49
3.000000
 49
-1.000000
  0
LTYPE
  2
CENTER5
 70
    64
  3
____ _ ____ _ ____ _ ____ _ ____ _ ____ _ ____
 72
    65
 73
     4
 40
100.000000
 49
92.000000
 49
-2.000000
 49
4.000000
 49
-2.000000
  0
LTYPE
  2
SBK1
 70
    64
  3
______ _ _ _ ______ _ _ _ ______ _ _ _ _____  
 72
    65
 73
     8
 40
60.500000
 49
45.000000
 49
-2.000000
 49
2.500000
 49
-2.000000
 49
2.500000
 49
-2.000000
 49
2.500000
 49
-2.000000
  0
LTYPE
  2
SBK2
 70
    64
  3
______ _ _ _ ______ _ _ _ ______ _ _ _ _____  
 72
    65
 73
     8
 40
84.000000
 49
64.000000
 49
-2.000000
 49
4.000000
 49
-2.000000
 49
4.000000
 49
-2.000000
 49
4.000000
 49
-2.000000
  0
LTYPE
  2
STCH
 70
    64
  3
__ __ __ __ __ __ __ __ __ __ __ __ __ __ __
 72
    65
 73
     2
 40
3.000000
 49
1.000000
 49
-2.000000
  0
LTYPE
  2
MTCH
 70
    64
  3
_____ _ _ _____ _ _ _____ _ _ _____ _ _ ____  
 72
    65
 73
     6
 40
80.000000
 49
66.000000
 49
-2.000000
 49
4.000000
 49
-2.000000
 49
4.000000
 49
-2.000000
  0
ENDTAB
  0
TABLE
  2
LAYER
 70
     1
  0
LAYER
  2
0
 70
     0
 62
     7
  6
CONTINUOUS
  0
ENDTAB
  0
TABLE
  2
STYLE
 70
     1
  0
STYLE
  2
STANDARD
 70
     0
 40
0.000000
 41
1.000000
 50
0.000000
 71
     0
 42
0.200000
  3
txt
  4
BIGFONT
  0
ENDTAB
  0
TABLE
  2
VIEW
 70
     0
  0
ENDTAB
  0
ENDSEC
  0
SECTION
  2
BLOCKS
  0
ENDSEC
  0
SECTION
  2
ENTITIES
  0
POINT
  8
0
 10
60.436760
 20
74.779228
  0
POINT
  8
0
 10
167.436783
 20
74.779236
  0
POINT
  8
0
 10
167.436783
 20
179.779251
  0
POINT
  8
0
 10
295.436768
 20
74.779251
  0
POINT
  8
0
 10
202.436783
 20
74.779236
  0
POINT
  8
0
 10
202.436783
 20
179.779251
  0
POINT
  8
0
 10
82.936760
 20
74.779228
  0
POINT
  8
0
 10
317.936768
 20
74.779251
  0
LINE
  8
0
 62
     3
 10
0.000000
 20
0.000000
 11
0.000000
 21
254.558472
  0
LINE
  8
0
 62
     3
 10
370.873566
 20
254.558472
 11
370.873566
 21
0.000000
  0
LINE
  8
0
 62
     3
 10
0.000000
 20
0.000000
 11
370.873566
 21
0.000000
  0
LINE
  8
0
 62
     3
 10
0.000000
 20
254.558472
 11
370.873566
 21
254.558472
  0
LINE
  8
0
 62
     3
 10
0.000000
 20
240.257431
 11
76.272194
 21
240.257431
  0
LINE
  8
0
 62
     3
 10
76.272194
 20
240.257431
 11
76.272194
 21
254.558472
  0
LINE
  8
0
 62
     3
 10
294.601379
 20
14.301025
 11
370.873566
 21
14.301025
  0
LINE
  8
0
 62
     3
 10
294.601379
 20
240.257431
 11
370.873566
 21
240.257431
  0
LINE
  8
0
 62
     3
 10
294.601379
 20
254.558472
 11
294.601379
 21
240.257431
  0
LINE
  8
0
 62
     3
 10
294.601379
 20
14.301025
 11
294.601379
 21
0.000000
  0
LINE
  8
0
 10
180.436783
 20
52.279236
 11
180.436783
 21
97.279236
  0
LINE
  8
0
 10
152.436798
 20
72.779236
 11
152.436798
 21
77.279236
  0
LINE
  8
0
 10
167.436783
 20
52.279236
 11
167.436783
 21
97.279236
  0
LINE
  8
0
 10
193.936783
 20
56.279236
 11
193.936783
 21
93.279236
  0
LINE
  8
0
 10
195.936783
 20
64.779236
 11
195.936783
 21
84.779236
  0
LINE
  8
0
 10
202.436783
 20
72.779236
 11
202.436783
 21
77.279236
  0
LINE
  8
0
 10
180.436783
 20
56.279236
 11
193.936783
 21
56.279236
  0
LINE
  8
0
 10
180.436783
 20
93.279236
 11
193.936783
 21
93.279236
  0
LINE
  8
0
 10
193.936783
 20
84.779236
 11
195.936783
 21
84.779236
  0
LINE
  8
0
 10
193.936783
 20
64.779236
 11
195.936783
 21
64.779236
  0
LINE
  8
0
 10
180.436783
 20
63.029236
 11
193.936783
 21
63.029236
  0
LINE
  8
0
 10
180.436783
 20
86.529236
 11
193.936783
 21
86.529236
  0
LINE
  8
0
 10
152.436798
 20
77.279236
 11
167.436783
 21
77.279236
  0
LINE
  8
0
 10
152.936783
 20
72.279236
 11
167.436783
 21
72.279236
  0
LINE
  8
0
 10
195.936783
 20
72.279236
 11
201.936783
 21
72.279236
  0
LINE
  8
0
 10
195.936783
 20
77.279236
 11
202.436783
 21
77.279236
  0
LINE
  8
0
 10
202.436768
 20
72.779259
 11
201.936768
 21
72.279259
  0
LINE
  8
0
 10
152.436874
 20
72.779343
 11
152.936874
 21
72.279335
  0
LINE
  8
0
 10
152.936783
 20
72.279236
 11
152.936783
 21
75.132797
  0
LINE
  8
0
 10
201.936783
 20
72.279236
 11
201.936783
 21
75.132797
  0
LINE
  8
0
 10
152.436798
 20
75.132797
 11
162.436798
 21
75.132797
  0
LINE
  8
0
 10
162.436798
 20
75.132797
 11
162.436798
 21
77.279236
  0
LINE
  8
0
 10
152.436798
 20
75.132812
 11
162.436783
 21
77.279251
  0
LINE
  8
0
 10
162.436783
 20
75.132782
 11
152.436783
 21
77.279228
  0
LINE
  8
0
 10
202.436783
 20
75.132797
 11
197.436783
 21
75.132797
  0
LINE
  8
0
 10
197.436783
 20
75.132797
 11
197.436783
 21
77.279236
  0
LINE
  8
0
 10
197.436737
 20
75.132828
 11
202.436737
 21
77.279274
  0
LINE
  8
0
 10
202.436783
 20
75.132790
 11
197.436783
 21
77.279243
  0
LINE
  8
0
 10
167.436783
 20
97.279236
 11
180.436783
 21
97.279236
  0
LINE
  8
0
 10
167.436783
 20
52.279236
 11
180.436783
 21
52.279236
  0
LINE
  8
0
  6
CENTER
 10
149.436798
 20
74.779236
 11
205.436783
 21
74.779236
  0
LINE
  8
0
  6
CENTER
 10
173.436783
 20
88.279236
 11
173.436783
 21
96.279236
  0
LINE
  8
0
  6
CENTER
 10
169.436783
 20
92.279236
 11
177.436783
 21
92.279236
  0
LINE
  8
0
  6
CENTER
 10
173.436783
 20
53.279236
 11
173.436783
 21
61.279236
  0
LINE
  8
0
  6
CENTER
 10
169.436783
 20
57.279236
 11
177.436783
 21
57.279236
  0
LINE
  8
0
 10
167.436783
 20
202.279251
 11
180.436783
 21
202.279251
  0
LINE
  8
0
 10
180.436783
 20
202.279251
 11
180.436783
 21
157.279251
  0
LINE
  8
0
 10
152.436798
 20
181.779251
 11
152.436798
 21
177.279251
  0
LINE
  8
0
 10
167.436783
 20
202.279251
 11
167.436783
 21
157.279251
  0
LINE
  8
0
 10
193.936783
 20
198.279251
 11
193.936783
 21
161.279251
  0
LINE
  8
0
 10
195.936783
 20
189.779251
 11
195.936783
 21
169.779251
  0
LINE
  8
0
 10
202.436783
 20
181.779251
 11
202.436783
 21
177.279251
  0
LINE
  8
0
 10
180.436783
 20
198.279251
 11
193.936783
 21
198.279251
  0
LINE
  8
0
 10
180.436783
 20
161.279251
 11
193.936783
 21
161.279251
  0
LINE
  8
0
 10
193.936783
 20
169.779251
 11
195.936783
 21
169.779251
  0
LINE
  8
0
 10
193.936783
 20
189.779251
 11
195.936783
 21
189.779251
  0
LINE
  8
0
 10
180.436783
 20
191.529251
 11
193.936783
 21
191.529251
  0
LINE
  8
0
 10
180.436783
 20
168.029251
 11
193.936783
 21
168.029251
  0
LINE
  8
0
 10
152.436798
 20
177.279251
 11
167.436783
 21
177.279251
  0
LINE
  8
0
 10
152.936783
 20
182.279251
 11
167.436783
 21
182.279251
  0
LINE
  8
0
 10
195.936783
 20
182.279251
 11
201.936783
 21
182.279251
  0
LINE
  8
0
 10
195.936783
 20
177.279251
 11
202.436783
 21
177.279251
  0
LINE
  8
0
 10
202.436768
 20
181.779221
 11
201.936768
 21
182.279221
  0
LINE
  8
0
 10
152.436859
 20
181.779114
 11
152.936859
 21
182.279114
  0
LINE
  8
0
 10
152.936783
 20
182.279251
 11
152.936783
 21
179.425690
  0
LINE
  8
0
 10
201.936783
 20
182.279251
 11
201.936783
 21
179.425690
  0
LINE
  8
0
 10
152.436798
 20
179.425690
 11
162.436783
 21
179.425690
  0
LINE
  8
0
 10
162.436783
 20
179.425690
 11
162.436783
 21
177.279251
  0
LINE
  8
0
 10
152.436783
 20
179.425659
 11
162.436768
 21
177.279221
  0
LINE
  8
0
 10
162.436798
 20
179.425690
 11
152.436798
 21
177.279251
  0
LINE
  8
0
 10
202.436783
 20
179.425690
 11
197.436783
 21
179.425690
  0
LINE
  8
0
 10
197.436783
 20
179.425690
 11
197.436783
 21
177.279251
  0
LINE
  8
0
 10
197.436752
 20
179.425674
 11
202.436752
 21
177.279221
  0
LINE
  8
0
 10
202.436798
 20
179.425659
 11
197.436783
 21
177.279205
  0
LINE
  8
0
 10
167.436783
 20
157.279251
 11
180.436783
 21
157.279251
  0
LINE
  8
0
  6
CENTER
 10
149.436783
 20
179.779251
 11
205.436783
 21
179.779251
  0
LINE
  8
0
  6
CENTER
 10
173.436783
 20
201.279251
 11
173.436783
 21
193.279251
  0
LINE
  8
0
  6
CENTER
 10
169.436783
 20
197.279251
 11
177.436783
 21
197.279251
  0
LINE
  8
0
  6
CENTER
 10
173.436783
 20
166.279251
 11
173.436783
 21
158.279251
  0
LINE
  8
0
  6
CENTER
 10
169.436783
 20
162.279251
 11
177.436783
 21
162.279251
  0
LINE
  8
0
  6
CENTER
 10
183.936783
 20
174.279251
 11
191.936783
 21
174.279251
  0
LINE
  8
0
  6
CENTER
 10
187.936783
 20
170.279251
 11
187.936783
 21
178.279251
  0
LINE
  8
0
  6
CENTER
 10
183.936783
 20
185.279251
 11
191.936783
 21
185.279251
  0
LINE
  8
0
  6
CENTER
 10
187.936783
 20
189.279251
 11
187.936783
 21
181.279251
  0
LINE
  8
0
  6
CENTER
 10
70.436760
 20
83.279228
 11
70.436760
 21
92.279228
  0
LINE
  8
0
 62
     3
 10
49.715073
 20
60.529228
 11
51.158447
 21
60.529228
  0
LINE
  8
0
 62
     3
 10
49.715073
 20
63.029228
 11
51.158447
 21
63.029228
  0
LINE
  8
0
 62
     3
 10
49.714935
 20
60.529190
 11
48.993248
 21
61.779190
  0
LINE
  8
0
 62
     3
 10
51.880047
 20
61.779186
 11
51.158360
 21
63.029186
  0
LINE
  8
0
 62
     3
 10
48.993408
 20
61.779224
 11
49.715103
 21
63.029236
  0
LINE
  8
0
 62
     3
 10
51.158459
 20
60.529205
 11
51.880154
 21
61.779217
  0
LINE
  8
0
 62
     3
 10
48.158447
 20
86.029243
 11
46.715073
 21
86.029243
  0
LINE
  8
0
 62
     3
 10
48.158447
 20
83.529243
 11
46.715073
 21
83.529243
  0
LINE
  8
0
 62
     3
 10
48.158195
 20
86.029099
 11
48.879883
 21
84.779099
  0
LINE
  8
0
 62
     3
 10
45.993145
 20
84.779121
 11
46.714840
 21
83.529114
  0
LINE
  8
0
 62
     3
 10
48.880150
 20
84.779228
 11
48.158455
 21
83.529221
  0
LINE
  8
0
 62
     3
 10
46.715096
 20
86.029251
 11
45.993401
 21
84.779243
  0
LINE
  8
0
 10
60.790249
 20
77.254074
 11
62.911572
 21
75.132751
  0
LINE
  8
0
 62
     3
 10
72.715073
 20
63.529228
 11
74.158447
 21
63.529228
  0
LINE
  8
0
 62
     3
 10
72.715073
 20
66.029228
 11
74.158447
 21
66.029228
  0
LINE
  8
0
 62
     3
 10
72.714958
 20
63.529186
 11
71.993271
 21
64.779182
  0
LINE
  8
0
 62
     3
 10
74.880043
 20
64.779182
 11
74.158348
 21
66.029198
  0
LINE
  8
0
 62
     3
 10
71.993401
 20
64.779213
 11
72.715096
 21
66.029228
  0
LINE
  8
0
 62
     3
 10
74.158463
 20
63.529221
 11
74.880157
 21
64.779236
  0
LINE
  8
0
 62
     3
 10
71.686760
 20
87.057549
 11
71.686760
 21
88.500923
  0
LINE
  8
0
 62
     3
 10
69.186760
 20
87.057549
 11
69.186760
 21
88.500923
  0
LINE
  8
0
 62
     3
 10
71.686768
 20
87.057510
 11
70.436768
 21
86.335823
  0
LINE
  8
0
 62
     3
 10
70.436790
 20
89.222572
 11
69.186775
 21
88.500877
  0
LINE
  8
0
 62
     3
 10
70.436768
 20
86.335846
 11
69.186752
 21
87.057541
  0
LINE
  8
0
 62
     3
 10
71.686745
 20
88.500908
 11
70.436729
 21
89.222603
  0
LINE
  8
0
 10
82.936760
 20
54.779228
 11
82.936760
 21
94.779228
  0
LINE
  8
0
 10
37.936752
 20
54.779228
 11
37.936752
 21
94.779228
  0
LINE
  8
0
 10
40.436752
 20
97.279228
 11
80.436752
 21
97.279228
  0
LINE
  8
0
 10
40.436752
 20
52.279228
 11
80.436752
 21
52.279228
  0
LINE
  8
0
  6
CENTER
 10
47.436752
 20
89.279228
 11
47.436752
 21
80.279228
  0
LINE
  8
0
  6
CENTER
 10
51.936752
 20
84.779243
 11
42.936752
 21
84.779243
  0
LINE
  8
0
  6
CENTER
 10
34.936752
 20
74.779228
 11
85.936752
 21
74.779228
  0
LINE
  8
0
  6
CENTER
 10
50.436752
 20
66.279228
 11
50.436752
 21
57.279228
  0
LINE
  8
0
  6
CENTER
 10
45.936752
 20
61.779228
 11
54.936752
 21
61.779228
  0
LINE
  8
0
  6
CENTER
 10
60.436760
 20
49.279236
 11
60.436760
 21
100.279236
  0
LINE
  8
0
  6
CENTER
 10
74.936752
 20
87.779243
 11
65.936752
 21
87.779243
  0
LINE
  8
0
  6
CENTER
 10
73.436760
 20
60.279228
 11
73.436760
 21
69.279228
  0
LINE
  8
0
  6
CENTER
 10
68.936752
 20
64.779228
 11
77.936752
 21
64.779228
  0
LINE
  8
0
 10
306.186768
 20
93.279251
 11
284.686768
 21
93.279251
  0
LINE
  8
0
 10
313.936768
 20
85.529251
 11
313.936768
 21
64.029251
  0
LINE
  8
0
 10
276.936768
 20
85.529251
 11
276.936768
 21
64.029251
  0
LINE
  8
0
 10
277.936768
 20
63.029251
 11
280.436768
 21
63.029251
  0
LINE
  8
0
 10
277.936768
 20
86.529251
 11
280.436768
 21
86.529251
  0
LINE
  8
0
 10
307.186768
 20
92.279251
 11
307.186768
 21
89.779251
  0
LINE
  8
0
 10
283.686768
 20
92.279251
 11
283.686768
 21
89.779251
  0
LINE
  8
0
 10
283.686768
 20
59.779251
 11
283.686768
 21
57.279251
  0
LINE
  8
0
 10
307.186768
 20
59.779251
 11
307.186768
 21
57.279251
  0
LINE
  8
0
 10
310.436768
 20
86.529251
 11
312.936768
 21
86.529251
  0
LINE
  8
0
 10
310.436768
 20
63.029251
 11
312.936768
 21
63.029251
  0
LINE
  8
0
 10
295.083313
 20
77.254028
 11
292.962006
 21
75.132706
  0
LINE
  8
0
 10
306.186768
 20
56.279251
 11
284.686768
 21
56.279251
  0
LINE
  8
0
 10
275.436768
 20
97.279251
 11
315.436768
 21
97.279251
  0
LINE
  8
0
 10
275.436768
 20
52.279251
 11
315.436768
 21
52.279251
  0
LINE
  8
0
 10
272.936768
 20
94.779251
 11
272.936768
 21
54.779251
  0
LINE
  8
0
 10
317.936768
 20
94.779251
 11
317.936768
 21
54.779251
  0
LINE
  8
0
  6
CENTER
 10
281.936768
 20
81.779251
 11
286.936768
 21
81.779251
  0
LINE
  8
0
  6
CENTER
 10
284.436768
 20
84.279251
 11
284.436768
 21
79.279251
  0
LINE
  8
0
  6
CENTER
 10
269.936768
 20
74.779251
 11
320.936768
 21
74.779251
  0
LINE
  8
0
  6
CENTER
 10
295.436768
 20
100.279251
 11
295.436768
 21
49.279251
  0
LINE
  8
0
  6
CENTER
 10
306.436768
 20
65.279251
 11
306.436768
 21
70.279251
  0
LINE
  8
0
  6
CENTER
 10
308.936768
 20
67.779251
 11
303.936768
 21
67.779251
  0
ARC
  8
0
 10
198.338593
 20
76.206009
 40
1.401806
 50
130.039825
 51
229.960175
  0
CIRCLE
  8
0
 10
173.436783
 20
92.279236
 40
2.299999
  0
CIRCLE
  8
0
 10
173.436783
 20
57.279236
 40
2.299999
  0
ARC
  8
0
 10
161.534973
 20
76.206009
 40
1.401806
 50
310.039825
 51
49.960178
  0
ARC
  8
0
 10
161.534973
 20
178.352478
 40
1.401812
 50
310.039612
 51
49.960381
  0
CIRCLE
  8
0
 10
173.436783
 20
162.279251
 40
2.299999
  0
CIRCLE
  8
0
 10
173.436783
 20
197.279251
 40
2.299999
  0
CIRCLE
  8
0
 10
187.936783
 20
174.279251
 40
2.500000
  0
CIRCLE
  8
0
 10
187.936783
 20
174.279251
 40
2.099999
  0
CIRCLE
  8
0
 10
187.936783
 20
185.279251
 40
2.500000
  0
CIRCLE
  8
0
 10
187.936783
 20
185.279251
 40
2.099999
  0
ARC
  8
0
 10
198.338593
 20
178.352478
 40
1.401812
 50
130.039612
 51
229.960388
  0
CIRCLE
  8
0
 62
     3
 10
50.436752
 20
61.779228
 40
2.403589
  0
CIRCLE
  8
0
 62
     3
 10
47.436752
 20
84.779228
 40
2.403589
  0
ARC
  8
0
 10
80.436752
 20
94.779228
 40
2.500000
 50
0.000000
 51
90.000000
  0
ARC
  8
0
 10
40.436752
 20
94.779228
 40
2.500000
 50
90.000000
 51
180.000000
  0
ARC
  8
0
 10
40.436752
 20
54.779228
 40
2.500000
 50
180.000000
 51
269.999908
  0
ARC
  8
0
 10
80.436752
 20
54.779228
 40
2.500000
 50
270.000000
 51
0.000000
  0
CIRCLE
  8
0
 62
     3
 10
70.436752
 20
87.779228
 40
2.403589
  0
CIRCLE
  8
0
 10
70.436752
 20
87.779228
 40
3.000000
  0
CIRCLE
  8
0
 62
     3
 10
73.436752
 20
64.779228
 40
2.403589
  0
CIRCLE
  8
0
 10
73.436752
 20
64.779228
 40
3.000000
  0
CIRCLE
  8
0
 10
60.436752
 20
74.779228
 40
2.000000
  0
CIRCLE
  8
0
 10
47.436752
 20
84.779228
 40
3.000000
  0
CIRCLE
  8
0
 10
50.436752
 20
61.779228
 40
3.000000
  0
CIRCLE
  8
0
 10
60.436752
 20
74.779228
 40
2.500000
  0
CIRCLE
  8
0
 10
306.436768
 20
67.779251
 40
1.250000
  0
CIRCLE
  8
0
 10
284.436768
 20
81.779251
 40
1.500000
  0
ARC
  8
0
 10
275.436768
 20
94.779251
 40
2.500000
 50
90.000000
 51
180.000000
  0
ARC
  8
0
 10
275.436768
 20
54.779251
 40
2.500000
 50
180.000000
 51
270.000000
  0
ARC
  8
0
 10
315.436768
 20
54.779251
 40
2.500000
 50
270.000000
 51
0.000000
  0
ARC
  8
0
 10
315.436768
 20
94.779251
 40
2.500000
 50
0.000000
 51
90.000000
  0
CIRCLE
  8
0
 10
295.436768
 20
74.779251
 40
2.000000
  0
CIRCLE
  8
0
 10
284.436768
 20
81.779251
 40
1.250000
  0
CIRCLE
  8
0
 10
306.436768
 20
67.779251
 40
1.500000
  0
CIRCLE
  8
0
 10
295.436768
 20
74.779251
 40
10.000000
  0
ARC
  8
0
 10
310.436768
 20
59.779251
 40
3.250000
 50
90.000000
 51
179.999939
  0
ARC
  8
0
 10
310.436768
 20
89.779251
 40
3.250000
 50
180.000000
 51
270.000000
  0
ARC
  8
0
 10
280.436768
 20
89.779251
 40
3.250000
 50
270.000000
 51
0.000000
  0
ARC
  8
0
 10
280.436768
 20
59.779251
 40
3.250000
 50
0.000000
 51
90.000000
  0
ARC
  8
0
 10
284.686768
 20
92.279251
 40
1.000000
 50
90.000000
 51
180.000000
  0
ARC
  8
0
 10
306.186768
 20
92.279251
 40
1.000000
 50
0.000000
 51
90.000000
  0
ARC
  8
0
 10
312.936768
 20
85.529251
 40
1.000000
 50
0.000000
 51
90.000000
  0
ARC
  8
0
 10
312.936768
 20
64.029251
 40
1.000000
 50
270.000000
 51
0.000000
  0
ARC
  8
0
 10
306.186768
 20
57.279251
 40
1.000000
 50
270.000000
 51
0.000000
  0
ARC
  8
0
 10
284.686768
 20
57.279251
 40
1.000000
 50
180.000000
 51
270.000000
  0
ARC
  8
0
 10
277.936768
 20
64.029251
 40
1.000000
 50
180.000000
 51
270.000000
  0
ARC
  8
0
 10
277.936768
 20
85.529251
 40
1.000000
 50
90.000000
 51
180.000000
  0
CIRCLE
  8
0
 10
295.436768
 20
74.779251
 40
2.500000
  0
TEXT
  8
0
 10
298.797760
 20
244.589584
 40
4.242641
  1
DATE : FEB ,1992
 50
0.000000
 41
1.052631
 51
0.000000
  7
STANDARD
  0
TEXT
  8
0
 10
2.113382
 20
243.907959
 40
5.000000
  1
ROTARY ACUTUATOR
 50
0.000000
 41
0.937799
 51
0.000000
  7
STANDARD
  0
TEXT
  8
0
 10
37.035717
 20
196.757431
 40
5.000000
  1
MODEL : RAN3-*-2
 50
0.000000
 41
1.052632
 51
0.000000
  7
STANDARD
  0
TEXT
  8
0
 10
302.273193
 20
3.650512
 40
5.000000
  1
KOGANEI,CORP
 50
0.000000
 41
1.052632
 51
0.000000
  7
STANDARD
  0
LINE
  8
0
 10
189.186798
 20
187.444305
 11
206.412003
 21
217.279251
  0
LINE
  8
0
 10
206.412003
 20
217.279251
 11
221.894623
 21
217.279221
  0
LINE
  8
0
 10
189.186798
 20
187.444305
 11
191.308121
 21
189.565628
  0
LINE
  8
0
 10
189.186798
 20
187.444305
 11
189.963257
 21
190.342087
  0
TEXT
  8
0
 10
207.144623
 20
218.279221
 40
3.500000
  1
2-M5
 50
0.000000
 41
1.052632
 51
0.000000
  7
STANDARD
  0
ENDSEC
  0
EOF
