  0
SECTION
  2
HEADER
  0
ENDSEC
  0
SECTION
  2
TABLES
  0
TABLE
  2
LTYPE
 70
     4
  0
LTYPE
  2
CONTINUOUS
 70
    64
  3
Solid line
 72
    65
 73
     0
 40
0.000000
  0
LTYPE
  2
DASHED
 70
    64
  3
__ __ __ __ __ __ __ __ __ __ __ __ __ __ __
 72
    65
 73
     2
 40
3.500000
 49
2.000000
 49
-1.500000
  0
LTYPE
  2
CENTER
 70
    64
  3
____ _ ____ _ ____ _ ____ _ ____ _ ____ _ ____
 72
    65
 73
     4
 40
17.500000
 49
13.000000
 49
-1.500000
 49
1.500000
 49
-1.500000
  0
LTYPE
  2
PHANTOM
 70
    64
  3
_____ _ _ _____ _ _ _____ _ _ _____ _ _ ____  
 72
    65
 73
     6
 40
15.500000
 49
8.000000
 49
-1.500000
 49
1.500000
 49
-1.500000
 49
1.500000
 49
-1.500000
  0
LTYPE
  2
DASHED1
 70
    64
  3
__ __ __ __ __ __ __ __ __ __ __ __ __ __ __
 72
    65
 73
     2
 40
1.500000
 49
1.000000
 49
-0.500000
  0
LTYPE
  2
DASHED2
 70
    64
  3
__ __ __ __ __ __ __ __ __ __ __ __ __ __ __
 72
    65
 73
     2
 40
3.500000
 49
2.500000
 49
-1.000000
  0
LTYPE
  2
DASHED3
 70
    64
  3
__ __ __ __ __ __ __ __ __ __ __ __ __ __ __
 72
    65
 73
     2
 40
6.000000
 49
4.000000
 49
-2.000000
  0
LTYPE
  2
DASHED4
 70
    64
  3
__ __ __ __ __ __ __ __ __ __ __ __ __ __ __
 72
    65
 73
     2
 40
12.000000
 49
10.000000
 49
-2.000000
  0
LTYPE
  2
DASHED5
 70
    64
  3
__ __ __ __ __ __ __ __ __ __ __ __ __ __ __
 72
    65
 73
     2
 40
17.000000
 49
15.000000
 49
-2.000000
  0
LTYPE
  2
DASHED6
 70
    64
  3
__ __ __ __ __ __ __ __ __ __ __ __ __ __ __
 72
    65
 73
     2
 40
29.000000
 49
27.000000
 49
-2.000000
  0
LTYPE
  2
PHANTOM1
 70
    64
  3
_____ _ _ _____ _ _ _____ _ _ _____ _ _ ____  
 72
    65
 73
     6
 40
31.000000
 49
25.000000
 49
-1.500000
 49
1.000000
 49
-1.000000
 49
1.000000
 49
-1.500000
  0
LTYPE
  2
PHANTOM2
 70
    64
  3
_____ _ _ _____ _ _ _____ _ _ _____ _ _ ____  
 72
    65
 73
     6
 40
36.000000
 49
27.000000
 49
-1.500000
 49
2.500000
 49
-1.000000
 49
2.500000
 49
-1.500000
  0
LTYPE
  2
PHANTOM3
 70
    64
  3
_____ _ _ _____ _ _ _____ _ _ _____ _ _ ____  
 72
    65
 73
     6
 40
78.000000
 49
64.000000
 49
-2.000000
 49
4.000000
 49
-2.000000
 49
4.000000
 49
-2.000000
  0
LTYPE
  2
CENTER1
 70
    64
  3
____ _ ____ _ ____ _ ____ _ ____ _ ____ _ ____
 72
    65
 73
     4
 40
19.000000
 49
14.000000
 49
-1.000000
 49
3.000000
 49
-1.000000
  0
LTYPE
  2
CENTER2
 70
    64
  3
____ _ ____ _ ____ _ ____ _ ____ _ ____ _ ____
 72
    65
 73
     4
 40
28.500000
 49
25.000000
 49
-1.000000
 49
1.500000
 49
-1.000000
  0
LTYPE
  2
CENTER3
 70
    64
  3
____ _ ____ _ ____ _ ____ _ ____ _ ____ _ ____
 72
    65
 73
     4
 40
31.500000
 49
27.000000
 49
-1.000000
 49
2.500000
 49
-1.000000
  0
LTYPE
  2
CENTER4
 70
    64
  3
____ _ ____ _ ____ _ ____ _ ____ _ ____ _ ____
 72
    65
 73
     4
 40
50.000000
 49
45.000000
 49
-1.000000
 49
3.000000
 49
-1.000000
  0
LTYPE
  2
CENTER5
 70
    64
  3
____ _ ____ _ ____ _ ____ _ ____ _ ____ _ ____
 72
    65
 73
     4
 40
100.000000
 49
92.000000
 49
-2.000000
 49
4.000000
 49
-2.000000
  0
LTYPE
  2
SBK1
 70
    64
  3
______ _ _ _ ______ _ _ _ ______ _ _ _ _____  
 72
    65
 73
     8
 40
60.500000
 49
45.000000
 49
-2.000000
 49
2.500000
 49
-2.000000
 49
2.500000
 49
-2.000000
 49
2.500000
 49
-2.000000
  0
LTYPE
  2
SBK2
 70
    64
  3
______ _ _ _ ______ _ _ _ ______ _ _ _ _____  
 72
    65
 73
     8
 40
84.000000
 49
64.000000
 49
-2.000000
 49
4.000000
 49
-2.000000
 49
4.000000
 49
-2.000000
 49
4.000000
 49
-2.000000
  0
LTYPE
  2
STCH
 70
    64
  3
__ __ __ __ __ __ __ __ __ __ __ __ __ __ __
 72
    65
 73
     2
 40
3.000000
 49
1.000000
 49
-2.000000
  0
LTYPE
  2
MTCH
 70
    64
  3
_____ _ _ _____ _ _ _____ _ _ _____ _ _ ____  
 72
    65
 73
     6
 40
80.000000
 49
66.000000
 49
-2.000000
 49
4.000000
 49
-2.000000
 49
4.000000
 49
-2.000000
  0
ENDTAB
  0
TABLE
  2
LAYER
 70
     1
  0
LAYER
  2
0
 70
     0
 62
     7
  6
CONTINUOUS
  0
ENDTAB
  0
TABLE
  2
STYLE
 70
     1
  0
STYLE
  2
STANDARD
 70
     0
 40
0.000000
 41
1.000000
 50
0.000000
 71
     0
 42
0.200000
  3
txt
  4
BIGFONT
  0
ENDTAB
  0
TABLE
  2
VIEW
 70
     0
  0
ENDTAB
  0
ENDSEC
  0
SECTION
  2
BLOCKS
  0
ENDSEC
  0
SECTION
  2
ENTITIES
  0
POINT
  8
0
 10
55.436722
 20
77.279205
  0
POINT
  8
0
 10
150.436783
 20
192.279236
  0
POINT
  8
0
 10
150.436783
 20
77.279228
  0
POINT
  8
0
 10
290.436768
 20
77.279228
  0
POINT
  8
0
 10
208.436783
 20
77.279228
  0
POINT
  8
0
 10
208.436783
 20
192.279236
  0
POINT
  8
0
 10
82.436722
 20
77.279205
  0
POINT
  8
0
 10
317.436768
 20
77.279228
  0
LINE
  8
0
 62
     3
 10
0.000000
 20
0.000000
 11
0.000000
 21
254.558472
  0
LINE
  8
0
 62
     3
 10
370.873566
 20
254.558472
 11
370.873566
 21
0.000000
  0
LINE
  8
0
 62
     3
 10
0.000000
 20
0.000000
 11
370.873566
 21
0.000000
  0
LINE
  8
0
 62
     3
 10
0.000000
 20
254.558472
 11
370.873566
 21
254.558472
  0
LINE
  8
0
 62
     3
 10
0.000000
 20
240.257431
 11
76.272194
 21
240.257431
  0
LINE
  8
0
 62
     3
 10
76.272194
 20
240.257431
 11
76.272194
 21
254.558472
  0
LINE
  8
0
 62
     3
 10
294.601379
 20
14.301025
 11
370.873566
 21
14.301025
  0
LINE
  8
0
 62
     3
 10
294.601379
 20
240.257431
 11
370.873566
 21
240.257431
  0
LINE
  8
0
 62
     3
 10
294.601379
 20
254.558472
 11
294.601379
 21
240.257431
  0
LINE
  8
0
 62
     3
 10
294.601379
 20
14.301025
 11
294.601379
 21
0.000000
  0
LINE
  8
0
 10
203.436829
 20
77.529686
 11
208.436829
 21
81.279190
  0
LINE
  8
0
 10
131.436783
 20
73.779228
 11
131.436783
 21
81.279228
  0
LINE
  8
0
 10
155.436783
 20
50.279228
 11
155.436783
 21
104.279228
  0
LINE
  8
0
 10
150.436783
 20
68.279228
 11
150.436783
 21
86.279228
  0
LINE
  8
0
 10
170.436783
 20
50.279228
 11
170.436783
 21
104.279228
  0
LINE
  8
0
 10
201.436783
 20
67.279228
 11
201.436783
 21
87.279228
  0
LINE
  8
0
 10
208.436783
 20
73.779228
 11
208.436783
 21
81.279228
  0
LINE
  8
0
 10
155.436783
 20
50.279228
 11
199.436783
 21
50.279228
  0
LINE
  8
0
 10
155.436783
 20
104.279228
 11
199.436783
 21
104.279228
  0
LINE
  8
0
 10
150.436783
 20
86.279228
 11
155.436783
 21
86.279228
  0
LINE
  8
0
 10
150.436783
 20
68.279228
 11
155.436783
 21
68.279228
  0
LINE
  8
0
 10
131.436783
 20
81.279228
 11
150.436783
 21
81.279228
  0
LINE
  8
0
 10
131.936798
 20
73.279228
 11
150.436783
 21
73.279228
  0
LINE
  8
0
 10
201.436783
 20
73.279228
 11
207.936783
 21
73.279228
  0
LINE
  8
0
 10
201.436783
 20
81.279228
 11
208.436783
 21
81.279228
  0
LINE
  8
0
 10
131.436920
 20
73.779411
 11
131.936935
 21
73.279404
  0
LINE
  8
0
 10
208.436676
 20
73.779320
 11
207.936676
 21
73.279320
  0
LINE
  8
0
 10
131.936798
 20
73.279228
 11
131.936798
 21
77.529716
  0
LINE
  8
0
 10
207.936783
 20
73.279228
 11
207.936783
 21
77.529716
  0
LINE
  8
0
 10
170.436783
 20
95.279228
 11
199.436783
 21
95.279228
  0
LINE
  8
0
 10
170.436783
 20
59.279228
 11
199.436783
 21
59.279228
  0
LINE
  8
0
 10
199.436783
 20
50.279228
 11
199.436783
 21
104.279228
  0
LINE
  8
0
 10
199.436783
 20
87.279228
 11
201.436783
 21
87.279228
  0
LINE
  8
0
 10
199.436783
 20
67.279228
 11
201.436783
 21
67.279228
  0
LINE
  8
0
 10
131.436783
 20
77.529716
 11
143.436768
 21
77.529716
  0
LINE
  8
0
 10
143.436768
 20
77.529716
 11
143.436768
 21
81.279228
  0
LINE
  8
0
 10
131.436768
 20
81.279213
 11
143.436768
 21
77.529709
  0
LINE
  8
0
 10
131.436768
 20
77.529701
 11
143.436768
 21
81.279213
  0
LINE
  8
0
 10
203.436768
 20
77.529716
 11
203.436768
 21
81.279228
  0
LINE
  8
0
 10
208.436783
 20
77.529716
 11
203.436768
 21
77.529716
  0
LINE
  8
0
 10
208.436783
 20
77.529739
 11
203.436768
 21
81.279243
  0
LINE
  8
0
  6
CENTER
 10
128.436783
 20
77.279228
 11
211.436783
 21
77.279228
  0
LINE
  8
0
 10
203.436844
 20
192.028824
 11
208.436844
 21
188.279312
  0
LINE
  8
0
 10
208.436783
 20
192.028717
 11
203.436783
 21
188.279221
  0
LINE
  8
0
 10
131.436783
 20
195.779236
 11
131.436783
 21
188.279236
  0
LINE
  8
0
 10
155.436783
 20
219.279236
 11
155.436783
 21
165.279236
  0
LINE
  8
0
 10
150.436783
 20
201.279236
 11
150.436783
 21
183.279236
  0
LINE
  8
0
 10
170.436783
 20
219.279236
 11
170.436783
 21
165.279236
  0
LINE
  8
0
 10
201.436783
 20
202.279236
 11
201.436783
 21
182.279236
  0
LINE
  8
0
 10
208.436783
 20
195.779236
 11
208.436783
 21
188.279236
  0
LINE
  8
0
 10
155.436783
 20
219.279236
 11
199.436783
 21
219.279236
  0
LINE
  8
0
 10
155.436783
 20
165.279236
 11
199.436783
 21
165.279236
  0
LINE
  8
0
 10
150.436783
 20
183.279236
 11
155.436783
 21
183.279236
  0
LINE
  8
0
 10
150.436783
 20
201.279236
 11
155.436783
 21
201.279236
  0
LINE
  8
0
 10
131.436783
 20
188.279236
 11
150.436783
 21
188.279236
  0
LINE
  8
0
 10
131.936798
 20
196.279236
 11
150.436783
 21
196.279236
  0
LINE
  8
0
 10
201.436783
 20
196.279236
 11
207.936783
 21
196.279236
  0
LINE
  8
0
 10
201.436783
 20
188.279236
 11
208.436783
 21
188.279236
  0
LINE
  8
0
 10
131.436920
 20
195.778992
 11
131.936935
 21
196.279007
  0
LINE
  8
0
 10
208.436630
 20
195.779068
 11
207.936630
 21
196.279068
  0
LINE
  8
0
 10
131.936798
 20
196.279236
 11
131.936798
 21
192.028748
  0
LINE
  8
0
 10
207.936783
 20
196.279236
 11
207.936783
 21
192.028748
  0
LINE
  8
0
 10
170.436783
 20
174.279236
 11
199.436783
 21
174.279236
  0
LINE
  8
0
 10
170.436783
 20
210.279236
 11
199.436783
 21
210.279236
  0
LINE
  8
0
 10
199.436783
 20
219.279236
 11
199.436783
 21
165.279236
  0
LINE
  8
0
 10
199.436783
 20
182.279236
 11
201.436783
 21
182.279236
  0
LINE
  8
0
 10
199.436783
 20
202.279236
 11
201.436783
 21
202.279236
  0
LINE
  8
0
 10
208.436783
 20
192.028748
 11
203.436768
 21
192.028748
  0
LINE
  8
0
 10
131.436783
 20
192.028748
 11
143.436783
 21
192.028748
  0
LINE
  8
0
 10
143.436783
 20
192.028748
 11
143.436783
 21
188.279236
  0
LINE
  8
0
 10
131.436783
 20
188.279236
 11
143.436768
 21
192.028748
  0
LINE
  8
0
 10
131.436798
 20
192.028763
 11
143.436798
 21
188.279251
  0
LINE
  8
0
 10
203.436768
 20
192.028748
 11
203.436768
 21
188.279236
  0
LINE
  8
0
  6
CENTER
 10
128.436783
 20
192.279236
 11
211.436783
 21
192.279236
  0
LINE
  8
0
  6
CENTER
 10
186.436783
 20
195.779236
 11
186.436783
 21
203.779236
  0
LINE
  8
0
  6
CENTER
 10
182.436783
 20
199.779236
 11
190.436783
 21
199.779236
  0
LINE
  8
0
  6
CENTER
 10
182.436783
 20
184.779236
 11
190.436783
 21
184.779236
  0
LINE
  8
0
  6
CENTER
 10
186.436783
 20
188.779236
 11
186.436783
 21
180.779236
  0
LINE
  8
0
 10
55.687141
 20
81.271309
 11
59.428799
 21
77.529655
  0
LINE
  8
0
 10
28.436722
 20
52.779205
 11
28.436722
 21
101.779205
  0
LINE
  8
0
 10
30.936722
 20
104.279205
 11
79.936714
 21
104.279205
  0
LINE
  8
0
 10
82.436722
 20
52.779205
 11
82.436722
 21
101.779205
  0
LINE
  8
0
 10
30.936722
 20
50.279205
 11
79.936714
 21
50.279205
  0
LINE
  8
0
 62
     3
 10
36.302750
 20
93.779221
 11
34.570694
 21
93.779221
  0
LINE
  8
0
 62
     3
 10
36.302750
 20
90.779221
 11
34.570694
 21
90.779221
  0
LINE
  8
0
 62
     3
 10
36.302509
 20
93.779091
 11
37.168537
 21
92.279083
  0
LINE
  8
0
 62
     3
 10
33.704430
 20
92.279091
 11
34.570457
 21
90.779091
  0
LINE
  8
0
 62
     3
 10
37.168823
 20
92.279198
 11
36.302795
 21
90.779198
  0
LINE
  8
0
 62
     3
 10
34.570736
 20
93.779175
 11
33.704708
 21
92.279167
  0
LINE
  8
0
 62
     3
 10
39.570694
 20
55.779205
 11
41.302750
 21
55.779205
  0
LINE
  8
0
 62
     3
 10
39.570694
 20
58.779205
 11
41.302750
 21
58.779205
  0
LINE
  8
0
 62
     3
 10
39.570560
 20
55.779179
 11
38.704533
 21
57.279182
  0
LINE
  8
0
 62
     3
 10
42.168575
 20
57.279140
 11
41.302547
 21
58.779144
  0
LINE
  8
0
 62
     3
 10
38.704655
 20
57.279194
 11
39.570683
 21
58.779198
  0
LINE
  8
0
 62
     3
 10
41.302750
 20
55.779202
 11
42.168777
 21
57.279205
  0
LINE
  8
0
 62
     3
 10
74.570686
 20
60.779205
 11
76.302742
 21
60.779205
  0
LINE
  8
0
 62
     3
 10
74.570686
 20
63.779202
 11
76.302742
 21
63.779202
  0
LINE
  8
0
 62
     3
 10
74.570633
 20
60.779171
 11
73.704605
 21
62.279175
  0
LINE
  8
0
 62
     3
 10
77.168686
 20
62.279148
 11
76.302658
 21
63.779152
  0
LINE
  8
0
 62
     3
 10
73.704674
 20
62.279198
 11
74.570702
 21
63.779202
  0
LINE
  8
0
 62
     3
 10
76.302750
 20
60.779194
 11
77.168777
 21
62.279198
  0
LINE
  8
0
 62
     3
 10
71.936722
 20
96.413177
 11
71.936722
 21
98.145233
  0
LINE
  8
0
 62
     3
 10
68.936722
 20
96.413177
 11
68.936722
 21
98.145233
  0
LINE
  8
0
 62
     3
 10
71.936752
 20
96.413155
 11
70.436745
 21
95.547134
  0
LINE
  8
0
 62
     3
 10
70.436729
 20
99.011230
 11
68.936722
 21
98.145203
  0
LINE
  8
0
 62
     3
 10
70.436714
 20
95.547134
 11
68.936714
 21
96.413162
  0
LINE
  8
0
 62
     3
 10
71.936722
 20
98.145203
 11
70.436714
 21
99.011230
  0
LINE
  8
0
  6
CENTER
 10
55.436722
 20
47.279205
 11
55.436722
 21
107.279205
  0
LINE
  8
0
  6
CENTER
 10
25.436722
 20
77.279205
 11
85.436714
 21
77.279205
  0
LINE
  8
0
  6
CENTER
 10
75.436722
 20
57.279205
 11
75.436722
 21
67.279205
  0
LINE
  8
0
  6
CENTER
 10
70.436714
 20
62.279205
 11
80.436714
 21
62.279205
  0
LINE
  8
0
  6
CENTER
 10
72.936714
 20
55.279205
 11
81.936714
 21
55.279205
  0
LINE
  8
0
  6
CENTER
 10
77.436707
 20
59.779205
 11
77.436707
 21
50.779205
  0
LINE
  8
0
  6
CENTER
 10
40.436707
 20
62.279205
 11
40.436707
 21
52.279205
  0
LINE
  8
0
  6
CENTER
 10
35.436722
 20
57.279205
 11
45.436722
 21
57.279205
  0
LINE
  8
0
  6
CENTER
 10
33.436707
 20
59.779205
 11
33.436707
 21
50.779205
  0
LINE
  8
0
  6
CENTER
 10
37.936722
 20
55.279221
 11
28.936722
 21
55.279221
  0
LINE
  8
0
  6
CENTER
 10
35.436707
 20
97.279205
 11
35.436707
 21
87.279205
  0
LINE
  8
0
  6
CENTER
 10
40.436722
 20
92.279221
 11
30.436722
 21
92.279221
  0
LINE
  8
0
  6
CENTER
 10
33.436722
 20
94.779205
 11
33.436722
 21
103.779205
  0
LINE
  8
0
  6
CENTER
 10
37.936722
 20
99.279221
 11
28.936722
 21
99.279221
  0
LINE
  8
0
  6
CENTER
 10
75.436714
 20
97.279221
 11
65.436714
 21
97.279221
  0
LINE
  8
0
  6
CENTER
 10
70.436722
 20
92.279205
 11
70.436722
 21
102.279205
  0
LINE
  8
0
  6
CENTER
 10
77.436722
 20
94.779205
 11
77.436722
 21
103.779205
  0
LINE
  8
0
  6
CENTER
 10
72.936714
 20
99.279205
 11
81.936714
 21
99.279205
  0
LINE
  8
0
  6
CENTER
 10
312.436768
 20
59.779228
 11
312.436768
 21
50.779228
  0
LINE
  8
0
 10
314.936768
 20
50.279228
 11
265.936798
 21
50.279228
  0
LINE
  8
0
 10
314.936768
 20
104.279228
 11
265.936798
 21
104.279228
  0
LINE
  8
0
 10
317.436768
 20
101.779228
 11
317.436768
 21
52.779228
  0
LINE
  8
0
 10
263.436768
 20
101.779228
 11
263.436768
 21
52.779228
  0
LINE
  8
0
 10
315.936768
 20
59.279228
 11
312.436798
 21
59.279228
  0
LINE
  8
0
 10
315.936768
 20
95.279228
 11
312.436798
 21
95.279228
  0
LINE
  8
0
 10
308.436768
 20
102.779228
 11
308.436768
 21
99.279228
  0
LINE
  8
0
 10
272.436768
 20
102.779228
 11
272.436768
 21
99.279228
  0
LINE
  8
0
 10
268.436798
 20
95.279228
 11
264.936798
 21
95.279228
  0
LINE
  8
0
 10
268.436798
 20
59.279228
 11
264.936798
 21
59.279228
  0
LINE
  8
0
 10
308.436768
 20
55.279228
 11
308.436768
 21
51.779228
  0
LINE
  8
0
 10
272.436768
 20
55.279228
 11
272.436768
 21
51.779228
  0
LINE
  8
0
 10
290.186371
 20
81.271332
 11
286.444702
 21
77.529671
  0
LINE
  8
0
  6
CENTER
 10
290.436768
 20
107.279228
 11
290.436768
 21
47.279228
  0
LINE
  8
0
  6
CENTER
 10
320.436768
 20
77.279228
 11
260.436798
 21
77.279228
  0
LINE
  8
0
  6
CENTER
 10
301.436768
 20
72.779228
 11
301.436768
 21
67.779228
  0
LINE
  8
0
  6
CENTER
 10
298.936798
 20
70.279228
 11
303.936798
 21
70.279228
  0
LINE
  8
0
  6
CENTER
 10
307.936798
 20
55.279213
 11
316.936768
 21
55.279213
  0
LINE
  8
0
  6
CENTER
 10
268.436768
 20
59.779228
 11
268.436768
 21
50.779228
  0
LINE
  8
0
  6
CENTER
 10
272.936798
 20
55.279228
 11
263.936798
 21
55.279228
  0
LINE
  8
0
  6
CENTER
 10
268.436798
 20
94.779228
 11
268.436798
 21
103.779228
  0
LINE
  8
0
  6
CENTER
 10
272.936798
 20
99.279228
 11
263.936798
 21
99.279228
  0
LINE
  8
0
  6
CENTER
 10
279.436768
 20
81.779228
 11
279.436768
 21
86.779228
  0
LINE
  8
0
  6
CENTER
 10
281.936798
 20
84.279228
 11
276.936798
 21
84.279228
  0
LINE
  8
0
  6
CENTER
 10
307.936798
 20
99.279213
 11
316.936768
 21
99.279213
  0
LINE
  8
0
  6
CENTER
 10
312.436798
 20
94.779228
 11
312.436798
 21
103.779228
  0
ARC
  8
0
 10
142.179413
 20
79.404472
 40
2.257355
 50
303.848816
 51
56.151062
  0
ARC
  8
0
 10
204.694138
 20
79.404472
 40
2.257348
 50
123.848938
 51
236.151062
  0
ARC
  8
0
 10
204.694138
 20
190.153992
 40
2.257355
 50
123.848831
 51
236.151169
  0
ARC
  8
0
 10
142.179428
 20
190.153992
 40
2.257355
 50
303.848816
 51
56.151169
  0
CIRCLE
  8
0
 10
186.436783
 20
199.779236
 40
2.099999
  0
CIRCLE
  8
0
 10
186.436783
 20
199.779236
 40
2.500000
  0
CIRCLE
  8
0
 10
186.436783
 20
184.779236
 40
2.099999
  0
CIRCLE
  8
0
 10
186.436783
 20
184.779236
 40
2.500000
  0
CIRCLE
  8
0
 10
35.436722
 20
92.279205
 40
3.750000
  0
CIRCLE
  8
0
 10
55.436722
 20
77.279205
 40
4.000000
  0
ARC
  8
0
 10
55.436722
 20
77.279205
 40
3.499999
 50
76.002594
 51
13.997273
  0
CIRCLE
  8
0
 62
     3
 10
70.436714
 20
97.279198
 40
2.980385
  0
CIRCLE
  8
0
 10
77.436714
 20
99.279198
 40
2.500000
  0
CIRCLE
  8
0
 10
70.436714
 20
97.279198
 40
3.750000
  0
CIRCLE
  8
0
 10
33.436722
 20
99.279205
 40
3.000000
  0
CIRCLE
  8
0
 10
77.436714
 20
99.279198
 40
3.000000
  0
CIRCLE
  8
0
 62
     3
 10
75.436714
 20
62.279205
 40
2.980385
  0
CIRCLE
  8
0
 10
77.436714
 20
55.279205
 40
2.500000
  0
CIRCLE
  8
0
 10
75.436714
 20
62.279205
 40
3.750000
  0
CIRCLE
  8
0
 10
77.436714
 20
55.279205
 40
3.000000
  0
CIRCLE
  8
0
 10
55.436722
 20
77.279205
 40
9.000000
  0
CIRCLE
  8
0
 62
     3
 10
40.436722
 20
57.279205
 40
2.980385
  0
CIRCLE
  8
0
 62
     3
 10
35.436722
 20
92.279205
 40
2.980385
  0
CIRCLE
  8
0
 10
33.436722
 20
99.279205
 40
2.500000
  0
CIRCLE
  8
0
 10
33.436722
 20
55.279205
 40
2.500000
  0
ARC
  8
0
 10
79.936714
 20
52.779205
 40
2.500000
 50
270.000000
 51
0.000000
  0
ARC
  8
0
 10
79.936714
 20
101.779198
 40
2.500000
 50
0.000000
 51
90.000000
  0
ARC
  8
0
 10
30.936722
 20
101.779205
 40
2.500000
 50
90.000000
 51
180.000000
  0
ARC
  8
0
 10
30.936722
 20
52.779205
 40
2.500000
 50
180.000000
 51
269.999969
  0
CIRCLE
  8
0
 10
40.436722
 20
57.279205
 40
3.750000
  0
CIRCLE
  8
0
 10
33.436722
 20
55.279205
 40
3.000000
  0
ARC
  8
0
 10
264.936798
 20
60.779228
 40
1.500000
 50
180.000000
 51
270.000000
  0
ARC
  8
0
 10
273.936798
 20
51.779228
 40
1.500000
 50
180.000000
 51
270.000000
  0
CIRCLE
  8
0
 10
268.436798
 20
55.279228
 40
2.500000
  0
CIRCLE
  8
0
 10
268.436798
 20
99.279228
 40
2.500000
  0
CIRCLE
  8
0
 10
312.436798
 20
99.279228
 40
2.500000
  0
CIRCLE
  8
0
 10
279.436798
 20
84.279228
 40
1.250000
  0
CIRCLE
  8
0
 10
279.436798
 20
84.279228
 40
1.500000
  0
CIRCLE
  8
0
 10
301.436798
 20
70.279228
 40
1.250000
  0
CIRCLE
  8
0
 10
301.436798
 20
70.279228
 40
1.500000
  0
CIRCLE
  8
0
 10
290.436798
 20
77.279228
 40
10.000000
  0
CIRCLE
  8
0
 10
290.436798
 20
77.279228
 40
4.000000
  0
ARC
  8
0
 10
306.936798
 20
102.779228
 40
1.500000
 50
0.000000
 51
90.000000
  0
ARC
  8
0
 10
315.936768
 20
93.779228
 40
1.500000
 50
0.000000
 51
90.000000
  0
ARC
  8
0
 10
315.936768
 20
60.779228
 40
1.500000
 50
270.000000
 51
0.000000
  0
ARC
  8
0
 10
306.936798
 20
51.779228
 40
1.500000
 50
270.000000
 51
0.000000
  0
ARC
  8
0
 10
264.936798
 20
93.779228
 40
1.500000
 50
90.000000
 51
180.000000
  0
ARC
  8
0
 10
273.936798
 20
102.779228
 40
1.500000
 50
90.000000
 51
180.000000
  0
ARC
  8
0
 10
290.436798
 20
77.279228
 40
3.500012
 50
166.002777
 51
103.997169
  0
ARC
  8
0
 10
314.936768
 20
101.779228
 40
2.500000
 50
0.000000
 51
90.000000
  0
ARC
  8
0
 10
314.936768
 20
52.779228
 40
2.500000
 50
270.000000
 51
0.000000
  0
ARC
  8
0
 10
265.936798
 20
52.779228
 40
2.500000
 50
180.000000
 51
270.000000
  0
ARC
  8
0
 10
265.936798
 20
101.779228
 40
2.500000
 50
90.000000
 51
180.000000
  0
ARC
  8
0
 10
268.436798
 20
99.279228
 40
4.000000
 50
270.000000
 51
0.000000
  0
ARC
  8
0
 10
312.436798
 20
99.279228
 40
4.000000
 50
180.000000
 51
270.000000
  0
ARC
  8
0
 10
312.436798
 20
55.279228
 40
4.000000
 50
90.000000
 51
180.000000
  0
ARC
  8
0
 10
268.436798
 20
55.279228
 40
4.000000
 50
0.000000
 51
90.000000
  0
CIRCLE
  8
0
 10
312.436798
 20
55.279228
 40
2.500000
  0
TEXT
  8
0
 10
298.797760
 20
244.589584
 40
4.242641
  1
DATE : FEB ,1992
 50
0.000000
 41
1.052631
 51
0.000000
  7
STANDARD
  0
TEXT
  8
0
 10
2.113382
 20
243.907959
 40
5.000000
  1
ROTARY ACUTUATOR
 50
0.000000
 41
0.937799
 51
0.000000
  7
STANDARD
  0
TEXT
  8
0
 10
22.035715
 20
211.757431
 40
5.000000
  1
MODEL : RAN20-*-4
 50
0.000000
 41
1.052632
 51
0.000000
  7
STANDARD
  0
TEXT
  8
0
 10
302.273193
 20
3.650512
 40
5.000000
  1
KOGANEI,CORP
 50
0.000000
 41
1.052632
 51
0.000000
  7
STANDARD
  0
LINE
  8
0
 10
187.686752
 20
201.944244
 11
206.355347
 21
234.279205
  0
LINE
  8
0
 10
206.355347
 20
234.279205
 11
222.168625
 21
234.279236
  0
LINE
  8
0
 10
187.686752
 20
201.944244
 11
189.808075
 21
204.065567
  0
LINE
  8
0
 10
187.686752
 20
201.944244
 11
188.463211
 21
204.842026
  0
TEXT
  8
0
 10
207.418625
 20
235.279236
 40
3.500000
  1
2-M5
 50
0.000000
 41
1.052632
 51
0.000000
  7
STANDARD
  0
ENDSEC
  0
EOF
