  0
SECTION
  2
HEADER
  0
ENDSEC
  0
SECTION
  2
TABLES
  0
TABLE
  2
LTYPE
 70
     4
  0
LTYPE
  2
CONTINUOUS
 70
    64
  3
Solid line
 72
    65
 73
     0
 40
0.000000
  0
LTYPE
  2
DASHED
 70
    64
  3
__ __ __ __ __ __ __ __ __ __ __ __ __ __ __
 72
    65
 73
     2
 40
3.500000
 49
2.000000
 49
-1.500000
  0
LTYPE
  2
CENTER
 70
    64
  3
____ _ ____ _ ____ _ ____ _ ____ _ ____ _ ____
 72
    65
 73
     4
 40
17.500000
 49
13.000000
 49
-1.500000
 49
1.500000
 49
-1.500000
  0
LTYPE
  2
PHANTOM
 70
    64
  3
_____ _ _ _____ _ _ _____ _ _ _____ _ _ ____  
 72
    65
 73
     6
 40
15.500000
 49
8.000000
 49
-1.500000
 49
1.500000
 49
-1.500000
 49
1.500000
 49
-1.500000
  0
LTYPE
  2
DASHED1
 70
    64
  3
__ __ __ __ __ __ __ __ __ __ __ __ __ __ __
 72
    65
 73
     2
 40
1.500000
 49
1.000000
 49
-0.500000
  0
LTYPE
  2
DASHED2
 70
    64
  3
__ __ __ __ __ __ __ __ __ __ __ __ __ __ __
 72
    65
 73
     2
 40
3.500000
 49
2.500000
 49
-1.000000
  0
LTYPE
  2
DASHED3
 70
    64
  3
__ __ __ __ __ __ __ __ __ __ __ __ __ __ __
 72
    65
 73
     2
 40
6.000000
 49
4.000000
 49
-2.000000
  0
LTYPE
  2
DASHED4
 70
    64
  3
__ __ __ __ __ __ __ __ __ __ __ __ __ __ __
 72
    65
 73
     2
 40
12.000000
 49
10.000000
 49
-2.000000
  0
LTYPE
  2
DASHED5
 70
    64
  3
__ __ __ __ __ __ __ __ __ __ __ __ __ __ __
 72
    65
 73
     2
 40
17.000000
 49
15.000000
 49
-2.000000
  0
LTYPE
  2
DASHED6
 70
    64
  3
__ __ __ __ __ __ __ __ __ __ __ __ __ __ __
 72
    65
 73
     2
 40
29.000000
 49
27.000000
 49
-2.000000
  0
LTYPE
  2
PHANTOM1
 70
    64
  3
_____ _ _ _____ _ _ _____ _ _ _____ _ _ ____  
 72
    65
 73
     6
 40
31.000000
 49
25.000000
 49
-1.500000
 49
1.000000
 49
-1.000000
 49
1.000000
 49
-1.500000
  0
LTYPE
  2
PHANTOM2
 70
    64
  3
_____ _ _ _____ _ _ _____ _ _ _____ _ _ ____  
 72
    65
 73
     6
 40
36.000000
 49
27.000000
 49
-1.500000
 49
2.500000
 49
-1.000000
 49
2.500000
 49
-1.500000
  0
LTYPE
  2
PHANTOM3
 70
    64
  3
_____ _ _ _____ _ _ _____ _ _ _____ _ _ ____  
 72
    65
 73
     6
 40
78.000000
 49
64.000000
 49
-2.000000
 49
4.000000
 49
-2.000000
 49
4.000000
 49
-2.000000
  0
LTYPE
  2
CENTER1
 70
    64
  3
____ _ ____ _ ____ _ ____ _ ____ _ ____ _ ____
 72
    65
 73
     4
 40
19.000000
 49
14.000000
 49
-1.000000
 49
3.000000
 49
-1.000000
  0
LTYPE
  2
CENTER2
 70
    64
  3
____ _ ____ _ ____ _ ____ _ ____ _ ____ _ ____
 72
    65
 73
     4
 40
28.500000
 49
25.000000
 49
-1.000000
 49
1.500000
 49
-1.000000
  0
LTYPE
  2
CENTER3
 70
    64
  3
____ _ ____ _ ____ _ ____ _ ____ _ ____ _ ____
 72
    65
 73
     4
 40
31.500000
 49
27.000000
 49
-1.000000
 49
2.500000
 49
-1.000000
  0
LTYPE
  2
CENTER4
 70
    64
  3
____ _ ____ _ ____ _ ____ _ ____ _ ____ _ ____
 72
    65
 73
     4
 40
50.000000
 49
45.000000
 49
-1.000000
 49
3.000000
 49
-1.000000
  0
LTYPE
  2
CENTER5
 70
    64
  3
____ _ ____ _ ____ _ ____ _ ____ _ ____ _ ____
 72
    65
 73
     4
 40
100.000000
 49
92.000000
 49
-2.000000
 49
4.000000
 49
-2.000000
  0
LTYPE
  2
SBK1
 70
    64
  3
______ _ _ _ ______ _ _ _ ______ _ _ _ _____  
 72
    65
 73
     8
 40
60.500000
 49
45.000000
 49
-2.000000
 49
2.500000
 49
-2.000000
 49
2.500000
 49
-2.000000
 49
2.500000
 49
-2.000000
  0
LTYPE
  2
SBK2
 70
    64
  3
______ _ _ _ ______ _ _ _ ______ _ _ _ _____  
 72
    65
 73
     8
 40
84.000000
 49
64.000000
 49
-2.000000
 49
4.000000
 49
-2.000000
 49
4.000000
 49
-2.000000
 49
4.000000
 49
-2.000000
  0
LTYPE
  2
STCH
 70
    64
  3
__ __ __ __ __ __ __ __ __ __ __ __ __ __ __
 72
    65
 73
     2
 40
3.000000
 49
1.000000
 49
-2.000000
  0
LTYPE
  2
MTCH
 70
    64
  3
_____ _ _ _____ _ _ _____ _ _ _____ _ _ ____  
 72
    65
 73
     6
 40
80.000000
 49
66.000000
 49
-2.000000
 49
4.000000
 49
-2.000000
 49
4.000000
 49
-2.000000
  0
ENDTAB
  0
TABLE
  2
LAYER
 70
     1
  0
LAYER
  2
0
 70
     0
 62
     7
  6
CONTINUOUS
  0
ENDTAB
  0
TABLE
  2
STYLE
 70
     1
  0
STYLE
  2
STANDARD
 70
     0
 40
0.000000
 41
1.000000
 50
0.000000
 71
     0
 42
0.200000
  3
txt
  4
BIGFONT
  0
ENDTAB
  0
TABLE
  2
VIEW
 70
     0
  0
ENDTAB
  0
ENDSEC
  0
SECTION
  2
BLOCKS
  0
ENDSEC
  0
SECTION
  2
ENTITIES
  0
LINE
  8
0
 10
-420.500000
 20
297.000000
 11
420.500000
 21
297.000000
  0
LINE
  8
0
 10
-420.500000
 20
-297.000000
 11
420.500000
 21
-297.000000
  0
LINE
  8
0
 10
420.500000
 20
297.000000
 11
420.500000
 21
-297.000000
  0
LINE
  8
0
 10
-420.500000
 20
297.000000
 11
-420.500000
 21
-297.000000
  0
LINE
  8
0
 10
399.799988
 20
276.250000
 11
399.799988
 21
-276.750000
  0
LINE
  8
0
 10
-399.250000
 20
276.250000
 11
-399.250000
 21
-276.750000
  0
LINE
  8
0
 10
-399.250000
 20
276.250000
 11
399.799988
 21
276.250000
  0
LINE
  8
0
 10
-399.250000
 20
-276.750000
 11
399.799988
 21
-276.750000
  0
LINE
  8
0
 10
-399.250000
 20
261.250000
 11
-299.250000
 21
261.250000
  0
LINE
  8
0
 10
-299.250000
 20
276.250000
 11
-299.250000
 21
261.250000
  0
LINE
  8
0
 10
299.799988
 20
261.250000
 11
399.799988
 21
261.250000
  0
LINE
  8
0
 10
299.799988
 20
276.250000
 11
299.799988
 21
261.250000
  0
LINE
  8
0
 10
-399.250000
 20
-261.750000
 11
-99.250000
 21
-261.750000
  0
LINE
  8
0
 10
299.799988
 20
-261.750000
 11
299.799988
 21
-276.750000
  0
LINE
  8
0
 10
299.799988
 20
-261.750000
 11
399.799988
 21
-261.750000
  0
LINE
  8
0
 10
-99.250000
 20
-261.750000
 11
-99.250000
 21
-276.750000
  0
TEXT
  8
0
 10
-397.856873
 20
264.350006
 40
6.000000
  1
ROTARY ACTUATOER
 50
0.000000
 41
1.052632
 51
0.000000
  7
STANDARD
  0
TEXT
  8
0
 10
304.193115
 20
264.350006
 40
6.000000
  1
DATE: MAY ,1992
 50
0.000000
 41
1.052632
 51
0.000000
  7
STANDARD
  0
TEXT
  8
0
 10
310.193115
 20
-273.649994
 40
6.000000
  1
KOGANEI CORP.
 50
0.000000
 41
1.052632
 51
10.000000
  7
STANDARD
  0
TEXT
  8
0
 10
-291.231873
 20
-273.649994
 40
6.000000
  1
RAK800 FOOT (-1A)
 50
0.000000
 41
1.052632
 51
0.000000
  7
STANDARD
  0
POINT
  8
0
 10
90.000000
 20
140.000000
  0
POINT
  8
0
 10
70.000000
 20
140.000000
  0
LINE
  8
0
 10
70.000000
 20
240.000000
 11
70.000000
 21
40.000000
  0
LINE
  8
0
 10
69.999992
 20
240.000000
 11
19.999992
 21
240.000000
  0
LINE
  8
0
 10
70.000008
 20
40.000000
 11
20.000008
 21
40.000000
  0
LINE
  8
0
 10
20.000000
 20
240.000000
 11
20.000000
 21
40.000000
  0
LINE
  8
0
 10
55.000000
 20
240.000000
 11
55.000000
 21
40.000000
  0
LINE
  8
0
 10
52.000000
 20
202.711517
 11
52.000000
 21
181.211517
  0
LINE
  8
0
 10
40.000000
 20
199.761505
 11
40.000000
 21
184.161514
  0
LINE
  8
0
 10
41.200001
 20
200.961517
 11
41.200001
 21
182.961517
  0
LINE
  8
0
 10
41.200001
 20
79.038437
 11
52.000000
 21
79.038437
  0
LINE
  8
0
 10
41.200001
 20
97.038437
 11
52.000000
 21
97.038437
  0
LINE
  8
0
 10
52.000000
 20
77.288437
 11
55.000000
 21
77.288437
  0
LINE
  8
0
 10
52.000000
 20
98.788437
 11
55.000000
 21
98.788437
  0
LINE
  8
0
 10
52.000000
 20
150.750000
 11
55.000000
 21
150.750000
  0
LINE
  8
0
 10
52.000000
 20
129.250000
 11
55.000000
 21
129.250000
  0
LINE
  8
0
 10
52.000000
 20
202.711517
 11
55.000000
 21
202.711517
  0
LINE
  8
0
 10
52.000000
 20
181.211517
 11
55.000000
 21
181.211517
  0
LINE
  8
0
 10
41.200001
 20
200.961517
 11
52.000000
 21
200.961517
  0
LINE
  8
0
 10
41.200001
 20
182.961517
 11
52.000000
 21
182.961517
  0
LINE
  8
0
 10
41.200001
 20
131.000000
 11
52.000000
 21
131.000000
  0
LINE
  8
0
 10
41.200001
 20
149.000000
 11
52.000000
 21
149.000000
  0
LINE
  8
0
 10
52.000000
 20
98.788437
 11
52.000000
 21
77.288437
  0
LINE
  8
0
 10
52.000000
 20
150.750000
 11
52.000000
 21
129.250000
  0
LINE
  8
0
 10
41.200001
 20
97.038437
 11
41.200001
 21
79.038437
  0
LINE
  8
0
 10
41.200001
 20
149.000000
 11
41.200001
 21
131.000000
  0
LINE
  8
0
 10
40.000000
 20
95.838440
 11
40.000000
 21
80.238434
  0
LINE
  8
0
 10
40.000000
 20
147.800003
 11
40.000000
 21
132.199997
  0
LINE
  8
0
 10
41.199993
 20
79.038429
 11
39.999992
 21
80.238434
  0
LINE
  8
0
 10
40.000000
 20
95.838440
 11
41.200001
 21
97.038437
  0
LINE
  8
0
 10
41.199997
 20
131.000000
 11
40.000000
 21
132.199997
  0
LINE
  8
0
 10
39.999996
 20
147.800003
 11
41.199997
 21
149.000000
  0
LINE
  8
0
 10
41.199997
 20
182.961517
 11
40.000000
 21
184.161514
  0
LINE
  8
0
 10
39.999996
 20
199.761520
 11
41.199997
 21
200.961517
  0
LINE
  8
0
 10
52.000000
 20
86.306381
 11
55.000004
 21
88.038437
  0
LINE
  8
0
 10
52.000000
 20
138.267944
 11
55.000000
 21
140.000000
  0
LINE
  8
0
 10
52.000000
 20
190.229462
 11
55.000000
 21
191.961517
  0
LINE
  8
0
 10
52.000000
 20
87.692032
 11
55.000000
 21
89.424072
  0
LINE
  8
0
 10
52.000000
 20
139.653595
 11
55.000000
 21
141.385635
  0
LINE
  8
0
 10
52.000000
 20
191.615097
 11
55.000000
 21
193.347153
  0
CIRCLE
  8
0
 10
34.999996
 20
210.000000
 40
7.500000
  0
CIRCLE
  8
0
 10
35.000004
 20
70.000000
 40
7.500000
  0
POINT
  8
0
 10
70.000000
 20
-100.000000
  0
POINT
  8
0
 10
90.000000
 20
-100.000000
  0
LINE
  8
0
 10
70.000000
 20
-25.000000
 11
70.000000
 21
-210.000000
  0
LINE
  8
0
 10
55.000000
 20
-25.000000
 11
55.000000
 21
-195.000000
  0
LINE
  8
0
 10
20.000000
 20
-195.000000
 11
20.000000
 21
-210.000000
  0
LINE
  8
0
 10
20.000000
 20
-210.000000
 11
70.000000
 21
-210.000000
  0
LINE
  8
0
 10
55.000000
 20
-25.000000
 11
70.000000
 21
-25.000000
  0
LINE
  8
0
 10
20.000000
 20
-195.000000
 11
55.000000
 21
-195.000000
  0
LINE
  8
0
 10
55.000000
 20
-100.000000
 11
70.000000
 21
-100.000000
  0
LINE
  8
0
 10
52.000000
 20
-29.250000
 11
52.000000
 21
-50.750000
  0
LINE
  8
0
 10
40.000000
 20
-32.199997
 11
40.000000
 21
-47.799999
  0
LINE
  8
0
 10
41.200001
 20
-31.000000
 11
41.200001
 21
-49.000000
  0
LINE
  8
0
 10
41.200001
 20
-169.000000
 11
52.000000
 21
-169.000000
  0
LINE
  8
0
 10
41.200001
 20
-151.000000
 11
52.000000
 21
-151.000000
  0
LINE
  8
0
 10
41.200001
 20
-121.000053
 11
52.000000
 21
-121.000053
  0
LINE
  8
0
 10
41.200001
 20
-139.000061
 11
52.000000
 21
-139.000061
  0
LINE
  8
0
 10
41.200001
 20
-79.000069
 11
52.000000
 21
-79.000069
  0
LINE
  8
0
 10
41.200001
 20
-61.000065
 11
52.000000
 21
-61.000065
  0
LINE
  8
0
 10
41.200001
 20
-49.000000
 11
52.000000
 21
-49.000000
  0
LINE
  8
0
 10
41.200001
 20
-31.000000
 11
52.000000
 21
-31.000000
  0
LINE
  8
0
 10
52.000000
 20
-170.750000
 11
55.000000
 21
-170.750000
  0
LINE
  8
0
 10
52.000000
 20
-149.250000
 11
55.000000
 21
-149.250000
  0
LINE
  8
0
 10
52.000000
 20
-140.750061
 11
55.000000
 21
-140.750061
  0
LINE
  8
0
 10
52.000000
 20
-119.250053
 11
55.000000
 21
-119.250053
  0
LINE
  8
0
 10
52.000000
 20
-59.250065
 11
55.000000
 21
-59.250065
  0
LINE
  8
0
 10
52.000000
 20
-80.750069
 11
55.000000
 21
-80.750069
  0
LINE
  8
0
 10
52.000000
 20
-29.250000
 11
55.000000
 21
-29.250000
  0
LINE
  8
0
 10
52.000000
 20
-50.750000
 11
55.000000
 21
-50.750000
  0
LINE
  8
0
 10
40.000000
 20
-122.200058
 11
40.000000
 21
-137.800049
  0
LINE
  8
0
 10
40.000000
 20
-152.199997
 11
40.000000
 21
-167.800003
  0
LINE
  8
0
 10
40.000000
 20
-62.200066
 11
40.000000
 21
-77.800064
  0
LINE
  8
0
 10
41.200001
 20
-121.000053
 11
41.200001
 21
-139.000061
  0
LINE
  8
0
 10
41.200001
 20
-151.000000
 11
41.200001
 21
-169.000000
  0
LINE
  8
0
 10
41.200001
 20
-61.000065
 11
41.200001
 21
-79.000069
  0
LINE
  8
0
 10
52.000000
 20
-119.250053
 11
52.000000
 21
-140.750061
  0
LINE
  8
0
 10
52.000000
 20
-149.250000
 11
52.000000
 21
-170.750000
  0
LINE
  8
0
 10
52.000000
 20
-59.250065
 11
52.000000
 21
-80.750069
  0
LINE
  8
0
 10
41.199989
 20
-169.000000
 11
39.999992
 21
-167.800018
  0
LINE
  8
0
 10
40.000000
 20
-152.199997
 11
41.200001
 21
-151.000000
  0
LINE
  8
0
 10
41.199997
 20
-139.000061
 11
39.999992
 21
-137.800049
  0
LINE
  8
0
 10
40.000000
 20
-122.200058
 11
41.199997
 21
-121.000053
  0
LINE
  8
0
 10
41.199997
 20
-79.000061
 11
40.000000
 21
-77.800064
  0
LINE
  8
0
 10
39.999992
 20
-62.200062
 11
41.199997
 21
-61.000061
  0
LINE
  8
0
 10
41.200001
 20
-49.000000
 11
40.000000
 21
-47.799995
  0
LINE
  8
0
 10
39.999992
 20
-32.199989
 11
41.199993
 21
-30.999992
  0
LINE
  8
0
 10
52.000000
 20
-161.732056
 11
55.000004
 21
-160.000000
  0
LINE
  8
0
 10
52.000000
 20
-131.732101
 11
55.000000
 21
-130.000061
  0
LINE
  8
0
 10
52.000000
 20
-71.732117
 11
55.000000
 21
-70.000069
  0
LINE
  8
0
 10
52.000000
 20
-41.732059
 11
55.000004
 21
-40.000008
  0
LINE
  8
0
 10
52.000000
 20
-160.346405
 11
55.000000
 21
-158.614365
  0
LINE
  8
0
 10
52.000000
 20
-130.346466
 11
55.000000
 21
-128.614410
  0
LINE
  8
0
 10
52.000000
 20
-70.346474
 11
55.000000
 21
-68.614426
  0
LINE
  8
0
 10
52.000000
 20
-40.346416
 11
55.000000
 21
-38.614365
  0
POINT
  8
0
 10
-180.000000
 20
140.000000
  0
POINT
  8
0
 10
-105.000000
 20
140.000000
  0
LINE
  8
0
 10
-179.999985
 20
40.000000
 11
-290.000000
 21
40.000000
  0
LINE
  8
0
 10
-180.000000
 20
240.000000
 11
-290.000000
 21
240.000000
  0
LINE
  8
0
 10
-290.000000
 20
240.000000
 11
-290.000000
 21
39.999992
  0
LINE
  8
0
 10
-275.000000
 20
240.000000
 11
-275.000000
 21
39.999992
  0
LINE
  8
0
 10
-105.000000
 20
200.000000
 11
-105.000000
 21
80.000000
  0
LINE
  8
0
 10
-104.999992
 20
200.000031
 11
-180.000000
 21
240.000015
  0
LINE
  8
0
 10
-105.000000
 20
80.000015
 11
-180.000000
 21
40.000015
  0
LINE
  8
0
 10
-144.226562
 20
88.038437
 11
-147.113312
 21
93.038437
  0
LINE
  8
0
 10
-147.113312
 20
93.038437
 11
-152.886810
 21
93.038437
  0
LINE
  8
0
 10
-155.773575
 20
88.038437
 11
-152.886826
 21
93.038437
  0
LINE
  8
0
 10
-152.886810
 20
83.038437
 11
-155.773575
 21
88.038437
  0
LINE
  8
0
 10
-147.113312
 20
83.038437
 11
-152.886810
 21
83.038437
  0
LINE
  8
0
 10
-144.226562
 20
88.038437
 11
-147.113312
 21
83.038437
  0
LINE
  8
0
 10
-114.226494
 20
140.000000
 11
-117.113251
 21
145.000000
  0
LINE
  8
0
 10
-117.113251
 20
145.000000
 11
-122.886749
 21
145.000000
  0
LINE
  8
0
 10
-125.773499
 20
140.000000
 11
-122.886749
 21
145.000000
  0
LINE
  8
0
 10
-122.886749
 20
135.000000
 11
-125.773499
 21
140.000000
  0
LINE
  8
0
 10
-117.113251
 20
135.000000
 11
-122.886749
 21
135.000000
  0
LINE
  8
0
 10
-114.226494
 20
140.000000
 11
-117.113251
 21
135.000000
  0
LINE
  8
0
 10
-144.226486
 20
191.961502
 11
-147.113235
 21
196.961502
  0
LINE
  8
0
 10
-147.113220
 20
196.961517
 11
-152.886734
 21
196.961517
  0
LINE
  8
0
 10
-155.773483
 20
191.961517
 11
-152.886734
 21
196.961517
  0
LINE
  8
0
 10
-152.886734
 20
186.961517
 11
-155.773483
 21
191.961517
  0
LINE
  8
0
 10
-147.113220
 20
186.961517
 11
-152.886734
 21
186.961517
  0
LINE
  8
0
 10
-144.226471
 20
191.961517
 11
-147.113220
 21
186.961517
  0
LINE
  8
0
 10
-204.226471
 20
191.961548
 11
-207.113220
 21
196.961548
  0
LINE
  8
0
 10
-207.113220
 20
196.961548
 11
-212.886719
 21
196.961548
  0
LINE
  8
0
 10
-215.773468
 20
191.961548
 11
-212.886719
 21
196.961548
  0
LINE
  8
0
 10
-212.886719
 20
186.961548
 11
-215.773468
 21
191.961548
  0
LINE
  8
0
 10
-207.113220
 20
186.961548
 11
-212.886719
 21
186.961548
  0
LINE
  8
0
 10
-204.226471
 20
191.961548
 11
-207.113220
 21
186.961548
  0
LINE
  8
0
 10
-234.226501
 20
140.000000
 11
-237.113251
 21
145.000000
  0
LINE
  8
0
 10
-237.113251
 20
145.000000
 11
-242.886749
 21
145.000000
  0
LINE
  8
0
 10
-245.773499
 20
140.000000
 11
-242.886749
 21
145.000000
  0
LINE
  8
0
 10
-242.886749
 20
135.000000
 11
-245.773499
 21
140.000000
  0
LINE
  8
0
 10
-237.113251
 20
135.000000
 11
-242.886749
 21
135.000000
  0
LINE
  8
0
 10
-234.226501
 20
140.000000
 11
-237.113251
 21
135.000000
  0
LINE
  8
0
 10
-204.226547
 20
88.038513
 11
-207.113297
 21
93.038513
  0
LINE
  8
0
 10
-207.113312
 20
93.038506
 11
-212.886810
 21
93.038506
  0
LINE
  8
0
 10
-215.773560
 20
88.038506
 11
-212.886810
 21
93.038513
  0
LINE
  8
0
 10
-212.886810
 20
83.038513
 11
-215.773560
 21
88.038513
  0
LINE
  8
0
 10
-207.113312
 20
83.038506
 11
-212.886810
 21
83.038506
  0
LINE
  8
0
 10
-204.226547
 20
88.038513
 11
-207.113312
 21
83.038506
  0
LINE
  8
0
 10
-215.886292
 20
79.043243
 11
-215.009659
 21
80.561615
  0
LINE
  8
0
 10
-214.847061
 20
78.443245
 11
-213.970428
 21
79.961617
  0
LINE
  8
0
 10
-146.029694
 20
79.961548
 11
-145.153061
 21
78.443176
  0
LINE
  8
0
 10
-144.990463
 20
80.561546
 11
-144.113831
 21
79.043175
  0
LINE
  8
0
 10
-109.266754
 20
139.399994
 11
-111.020020
 21
139.399994
  0
LINE
  8
0
 10
-109.266754
 20
140.600006
 11
-111.020020
 21
140.600006
  0
LINE
  8
0
 10
-144.990372
 20
199.438400
 11
-144.113739
 21
200.956772
  0
LINE
  8
0
 10
-146.029602
 20
200.038406
 11
-145.152969
 21
201.556778
  0
LINE
  8
0
 10
-215.886200
 20
200.956802
 11
-215.009567
 21
199.438431
  0
LINE
  8
0
 10
-214.846970
 20
201.556808
 11
-213.970337
 21
200.038437
  0
LINE
  8
0
 10
-248.979980
 20
139.399994
 11
-250.733246
 21
139.399994
  0
LINE
  8
0
 10
-248.979980
 20
140.600006
 11
-250.733246
 21
140.600006
  0
CIRCLE
  8
0
 10
-180.000000
 20
140.000000
 40
37.500000
  0
CIRCLE
  8
0
 10
-150.000061
 20
88.038437
 40
9.000000
  0
CIRCLE
  8
0
 10
-120.000000
 20
140.000000
 40
9.000000
  0
CIRCLE
  8
0
 10
-149.999969
 20
191.961517
 40
9.000000
  0
CIRCLE
  8
0
 10
-209.999969
 20
191.961548
 40
9.000000
  0
CIRCLE
  8
0
 10
-240.000000
 20
140.000000
 40
9.000000
  0
CIRCLE
  8
0
 10
-210.000061
 20
88.038506
 40
9.000000
  0
CIRCLE
  8
0
 10
-150.000061
 20
88.038437
 40
7.800000
  0
CIRCLE
  8
0
 10
-120.000000
 20
140.000000
 40
7.800000
  0
CIRCLE
  8
0
 10
-149.999969
 20
191.961517
 40
7.800000
  0
CIRCLE
  8
0
 10
-209.999969
 20
191.961548
 40
7.800000
  0
CIRCLE
  8
0
 10
-240.000000
 20
140.000000
 40
7.800000
  0
CIRCLE
  8
0
 10
-210.000061
 20
88.038506
 40
7.800000
  0
ARC
  8
0
 10
-210.000061
 20
88.038506
 40
10.749997
 50
243.199600
 51
236.800461
  0
ARC
  8
0
 10
-150.000061
 20
88.038437
 40
10.749998
 50
303.199524
 51
296.800415
  0
ARC
  8
0
 10
-120.000000
 20
140.000000
 40
10.750004
 50
3.199598
 51
356.800415
  0
ARC
  8
0
 10
-149.999969
 20
191.961517
 40
10.749984
 50
63.199558
 51
56.800442
  0
ARC
  8
0
 10
-209.999969
 20
191.961548
 40
10.749991
 50
123.199554
 51
116.800407
  0
ARC
  8
0
 10
-240.000000
 20
140.000000
 40
10.750004
 50
183.199600
 51
176.800400
  0
ENDSEC
  0
EOF
