  0
SECTION
  2
HEADER
  0
ENDSEC
  0
SECTION
  2
TABLES
  0
TABLE
  2
LTYPE
 70
     4
  0
LTYPE
  2
CONTINUOUS
 70
    64
  3
Solid line
 72
    65
 73
     0
 40
0.000000
  0
LTYPE
  2
DASHED
 70
    64
  3
__ __ __ __ __ __ __ __ __ __ __ __ __ __ __
 72
    65
 73
     2
 40
3.500000
 49
2.000000
 49
-1.500000
  0
LTYPE
  2
CENTER
 70
    64
  3
____ _ ____ _ ____ _ ____ _ ____ _ ____ _ ____
 72
    65
 73
     4
 40
17.500000
 49
13.000000
 49
-1.500000
 49
1.500000
 49
-1.500000
  0
LTYPE
  2
PHANTOM
 70
    64
  3
_____ _ _ _____ _ _ _____ _ _ _____ _ _ ____  
 72
    65
 73
     6
 40
15.500000
 49
8.000000
 49
-1.500000
 49
1.500000
 49
-1.500000
 49
1.500000
 49
-1.500000
  0
LTYPE
  2
DASHED1
 70
    64
  3
__ __ __ __ __ __ __ __ __ __ __ __ __ __ __
 72
    65
 73
     2
 40
1.500000
 49
1.000000
 49
-0.500000
  0
LTYPE
  2
DASHED2
 70
    64
  3
__ __ __ __ __ __ __ __ __ __ __ __ __ __ __
 72
    65
 73
     2
 40
3.500000
 49
2.500000
 49
-1.000000
  0
LTYPE
  2
DASHED3
 70
    64
  3
__ __ __ __ __ __ __ __ __ __ __ __ __ __ __
 72
    65
 73
     2
 40
6.000000
 49
4.000000
 49
-2.000000
  0
LTYPE
  2
DASHED4
 70
    64
  3
__ __ __ __ __ __ __ __ __ __ __ __ __ __ __
 72
    65
 73
     2
 40
12.000000
 49
10.000000
 49
-2.000000
  0
LTYPE
  2
DASHED5
 70
    64
  3
__ __ __ __ __ __ __ __ __ __ __ __ __ __ __
 72
    65
 73
     2
 40
17.000000
 49
15.000000
 49
-2.000000
  0
LTYPE
  2
DASHED6
 70
    64
  3
__ __ __ __ __ __ __ __ __ __ __ __ __ __ __
 72
    65
 73
     2
 40
29.000000
 49
27.000000
 49
-2.000000
  0
LTYPE
  2
PHANTOM1
 70
    64
  3
_____ _ _ _____ _ _ _____ _ _ _____ _ _ ____  
 72
    65
 73
     6
 40
31.000000
 49
25.000000
 49
-1.500000
 49
1.000000
 49
-1.000000
 49
1.000000
 49
-1.500000
  0
LTYPE
  2
PHANTOM2
 70
    64
  3
_____ _ _ _____ _ _ _____ _ _ _____ _ _ ____  
 72
    65
 73
     6
 40
36.000000
 49
27.000000
 49
-1.500000
 49
2.500000
 49
-1.000000
 49
2.500000
 49
-1.500000
  0
LTYPE
  2
PHANTOM3
 70
    64
  3
_____ _ _ _____ _ _ _____ _ _ _____ _ _ ____  
 72
    65
 73
     6
 40
78.000000
 49
64.000000
 49
-2.000000
 49
4.000000
 49
-2.000000
 49
4.000000
 49
-2.000000
  0
LTYPE
  2
CENTER1
 70
    64
  3
____ _ ____ _ ____ _ ____ _ ____ _ ____ _ ____
 72
    65
 73
     4
 40
19.000000
 49
14.000000
 49
-1.000000
 49
3.000000
 49
-1.000000
  0
LTYPE
  2
CENTER2
 70
    64
  3
____ _ ____ _ ____ _ ____ _ ____ _ ____ _ ____
 72
    65
 73
     4
 40
28.500000
 49
25.000000
 49
-1.000000
 49
1.500000
 49
-1.000000
  0
LTYPE
  2
CENTER3
 70
    64
  3
____ _ ____ _ ____ _ ____ _ ____ _ ____ _ ____
 72
    65
 73
     4
 40
31.500000
 49
27.000000
 49
-1.000000
 49
2.500000
 49
-1.000000
  0
LTYPE
  2
CENTER4
 70
    64
  3
____ _ ____ _ ____ _ ____ _ ____ _ ____ _ ____
 72
    65
 73
     4
 40
50.000000
 49
45.000000
 49
-1.000000
 49
3.000000
 49
-1.000000
  0
LTYPE
  2
CENTER5
 70
    64
  3
____ _ ____ _ ____ _ ____ _ ____ _ ____ _ ____
 72
    65
 73
     4
 40
100.000000
 49
92.000000
 49
-2.000000
 49
4.000000
 49
-2.000000
  0
LTYPE
  2
SBK1
 70
    64
  3
______ _ _ _ ______ _ _ _ ______ _ _ _ _____  
 72
    65
 73
     8
 40
60.500000
 49
45.000000
 49
-2.000000
 49
2.500000
 49
-2.000000
 49
2.500000
 49
-2.000000
 49
2.500000
 49
-2.000000
  0
LTYPE
  2
SBK2
 70
    64
  3
______ _ _ _ ______ _ _ _ ______ _ _ _ _____  
 72
    65
 73
     8
 40
84.000000
 49
64.000000
 49
-2.000000
 49
4.000000
 49
-2.000000
 49
4.000000
 49
-2.000000
 49
4.000000
 49
-2.000000
  0
LTYPE
  2
STCH
 70
    64
  3
__ __ __ __ __ __ __ __ __ __ __ __ __ __ __
 72
    65
 73
     2
 40
3.000000
 49
1.000000
 49
-2.000000
  0
LTYPE
  2
MTCH
 70
    64
  3
_____ _ _ _____ _ _ _____ _ _ _____ _ _ ____  
 72
    65
 73
     6
 40
80.000000
 49
66.000000
 49
-2.000000
 49
4.000000
 49
-2.000000
 49
4.000000
 49
-2.000000
  0
ENDTAB
  0
TABLE
  2
LAYER
 70
     1
  0
LAYER
  2
0
 70
     0
 62
     7
  6
CONTINUOUS
  0
ENDTAB
  0
TABLE
  2
STYLE
 70
     1
  0
STYLE
  2
STANDARD
 70
     0
 40
0.000000
 41
1.000000
 50
0.000000
 71
     0
 42
0.200000
  3
txt
  4
BIGFONT
  0
ENDTAB
  0
TABLE
  2
VIEW
 70
     0
  0
ENDTAB
  0
ENDSEC
  0
SECTION
  2
BLOCKS
  0
ENDSEC
  0
SECTION
  2
ENTITIES
  0
LINE
  8
0
 10
-420.500000
 20
297.000000
 11
420.500000
 21
297.000000
  0
LINE
  8
0
 10
-420.500000
 20
-297.000000
 11
420.500000
 21
-297.000000
  0
LINE
  8
0
 10
420.500000
 20
297.000000
 11
420.500000
 21
-297.000000
  0
LINE
  8
0
 10
-420.500000
 20
297.000000
 11
-420.500000
 21
-297.000000
  0
LINE
  8
0
 10
399.799988
 20
276.250000
 11
399.799988
 21
-276.750000
  0
LINE
  8
0
 10
-399.250000
 20
276.250000
 11
-399.250000
 21
-276.750000
  0
LINE
  8
0
 10
-399.250000
 20
276.250000
 11
399.799988
 21
276.250000
  0
LINE
  8
0
 10
-399.250000
 20
-276.750000
 11
399.799988
 21
-276.750000
  0
LINE
  8
0
 10
299.799988
 20
-261.750000
 11
399.799988
 21
-261.750000
  0
LINE
  8
0
 10
299.799988
 20
-261.750000
 11
299.799988
 21
-276.750000
  0
LINE
  8
0
 10
299.799988
 20
261.250000
 11
399.799988
 21
261.250000
  0
LINE
  8
0
 10
299.799988
 20
276.250000
 11
299.799988
 21
261.250000
  0
LINE
  8
0
 10
-399.250000
 20
261.250000
 11
-299.250000
 21
261.250000
  0
LINE
  8
0
 10
-299.250000
 20
276.250000
 11
-299.250000
 21
261.250000
  0
TEXT
  8
0
 10
310.193115
 20
-273.649994
 40
6.000000
  1
KOGANEI CORP.
 50
0.000000
 41
1.052632
 51
10.000000
  7
STANDARD
  0
TEXT
  8
0
 10
304.193115
 20
264.350006
 40
6.000000
  1
DATE: MAY ,1992
 50
0.000000
 41
1.052632
 51
0.000000
  7
STANDARD
  0
TEXT
  8
0
 10
-397.856873
 20
264.350006
 40
6.000000
  1
ROTARY ACTUATOER
 50
0.000000
 41
1.052632
 51
0.000000
  7
STANDARD
  0
TEXT
  8
0
 10
-354.333191
 20
-203.612473
 40
8.000000
  1
MODEL : RAK800
 50
0.000000
 41
1.052632
 51
0.000000
  7
STANDARD
  0
POINT
  8
0
 10
-90.000000
 20
140.000000
  0
POINT
  8
0
 10
125.500000
 20
140.000000
  0
LINE
  8
0
 10
-5.500000
 20
238.000000
 11
-5.500000
 21
42.000000
  0
LINE
  8
0
 10
-158.699997
 20
160.000000
 11
-94.500000
 21
160.000000
  0
LINE
  8
0
 10
-158.699997
 20
120.000000
 11
-94.500000
 21
120.000000
  0
LINE
  8
0
 10
-94.000000
 20
175.000000
 11
-90.399994
 21
175.000000
  0
LINE
  8
0
 10
-94.000000
 20
105.000000
 11
-90.399994
 21
105.000000
  0
LINE
  8
0
 10
-54.500000
 20
238.000000
 11
45.500000
 21
238.000000
  0
LINE
  8
0
 10
-54.500000
 20
42.000000
 11
45.500000
 21
42.000000
  0
LINE
  8
0
 10
-57.500000
 20
178.781494
 11
48.500000
 21
178.781494
  0
LINE
  8
0
 10
-57.500000
 20
101.218498
 11
48.500000
 21
101.218498
  0
LINE
  8
0
 10
-90.000000
 20
152.000000
 11
-75.500000
 21
152.000000
  0
LINE
  8
0
 10
-90.000000
 20
128.000000
 11
-75.500000
 21
128.000000
  0
LINE
  8
0
 10
-57.500000
 20
235.500000
 11
-57.500000
 21
44.500000
  0
LINE
  8
0
 10
-90.000000
 20
200.961502
 11
-90.000000
 21
79.038498
  0
LINE
  8
0
 10
-94.500000
 20
174.500000
 11
-94.500000
 21
105.500000
  0
LINE
  8
0
 10
-159.500000
 20
159.199997
 11
-159.500000
 21
120.800003
  0
LINE
  8
0
 10
48.500000
 20
235.000000
 11
48.500000
 21
45.000000
  0
LINE
  8
0
 10
81.000000
 20
200.961502
 11
81.000000
 21
79.038498
  0
LINE
  8
0
 10
85.500000
 20
174.500000
 11
85.500000
 21
105.500000
  0
LINE
  8
0
 10
125.500000
 20
159.149994
 11
125.500000
 21
120.849998
  0
LINE
  8
0
 10
-11.500000
 20
238.000000
 11
-11.500000
 21
178.781494
  0
LINE
  8
0
 10
-68.500000
 20
216.000000
 11
-68.500000
 21
192.249985
  0
LINE
  8
0
 10
2.500000
 20
238.000000
 11
2.500000
 21
178.781494
  0
LINE
  8
0
 10
59.500000
 20
216.000000
 11
59.500000
 21
64.000000
  0
LINE
  8
0
 10
66.500000
 20
205.000000
 11
66.500000
 21
203.961502
  0
LINE
  8
0
 10
-23.335686
 20
217.500000
 11
-11.500008
 21
238.000000
  0
LINE
  8
0
 10
2.499992
 20
41.999992
 11
14.335678
 21
62.500000
  0
LINE
  8
0
 10
-23.335686
 20
62.499992
 11
-11.500008
 21
41.999992
  0
LINE
  8
0
 10
2.499992
 20
238.000000
 11
14.335678
 21
217.500000
  0
LINE
  8
0
 10
-68.500000
 20
64.000000
 11
-57.899994
 21
64.000000
  0
LINE
  8
0
 10
-87.000000
 20
76.038498
 11
-72.159225
 21
76.038498
  0
LINE
  8
0
 10
81.399994
 20
105.000000
 11
85.000000
 21
105.000000
  0
LINE
  8
0
 10
85.500000
 20
120.000000
 11
89.449997
 21
120.000000
  0
LINE
  8
0
 10
66.500000
 20
128.000000
 11
81.000000
 21
128.000000
  0
LINE
  8
0
 10
66.500000
 20
152.000000
 11
81.000000
 21
152.000000
  0
LINE
  8
0
 10
85.500000
 20
160.000000
 11
89.449997
 21
160.000000
  0
LINE
  8
0
 10
81.399994
 20
175.000000
 11
85.000000
 21
175.000000
  0
LINE
  8
0
 10
-87.000000
 20
203.961502
 11
-72.159119
 21
203.961502
  0
LINE
  8
0
 10
-68.500000
 20
216.000000
 11
-57.899994
 21
216.000000
  0
LINE
  8
0
 10
48.899994
 20
64.000000
 11
59.500000
 21
64.000000
  0
LINE
  8
0
 10
63.159225
 20
76.038498
 11
78.000000
 21
76.038498
  0
LINE
  8
0
 10
63.159119
 20
203.961502
 11
78.000000
 21
203.961502
  0
LINE
  8
0
 10
48.899994
 20
216.000000
 11
59.500000
 21
216.000000
  0
LINE
  8
0
 10
-94.499992
 20
174.499985
 11
-93.999992
 21
174.999985
  0
LINE
  8
0
 10
-94.000031
 20
104.999977
 11
-94.500031
 21
105.499977
  0
LINE
  8
0
 10
85.000046
 20
104.999985
 11
85.500046
 21
105.499985
  0
LINE
  8
0
 10
85.499969
 20
174.499985
 11
84.999969
 21
174.999985
  0
LINE
  8
0
 10
89.500000
 20
159.949997
 11
89.500000
 21
120.050003
  0
LINE
  8
0
 10
-158.700012
 20
159.999985
 11
-159.500000
 21
159.199997
  0
LINE
  8
0
 10
-158.700043
 20
119.999969
 11
-159.500031
 21
120.799973
  0
LINE
  8
0
 10
89.500000
 20
120.050003
 11
124.699997
 21
120.050003
  0
LINE
  8
0
 10
89.500000
 20
159.949997
 11
124.699997
 21
159.949997
  0
LINE
  8
0
 10
124.700058
 20
159.950027
 11
125.500046
 21
159.150040
  0
LINE
  8
0
 10
124.700119
 20
120.049866
 11
125.500122
 21
120.849869
  0
LINE
  8
0
 10
-158.699997
 20
120.000000
 11
-158.699997
 21
160.000000
  0
LINE
  8
0
 10
124.700012
 20
159.949997
 11
124.700012
 21
120.049995
  0
LINE
  8
0
 10
89.449997
 20
160.000000
 11
89.500000
 21
159.949997
  0
LINE
  8
0
 10
89.449997
 20
119.999992
 11
89.500000
 21
120.050003
  0
LINE
  8
0
 10
-68.500000
 20
216.000000
 11
-75.500000
 21
205.000000
  0
LINE
  8
0
 10
-75.500000
 20
75.000000
 11
-68.500000
 21
64.000000
  0
LINE
  8
0
 10
59.499985
 20
63.999969
 11
66.499985
 21
74.999969
  0
LINE
  8
0
 10
66.499985
 20
205.000031
 11
59.499985
 21
216.000031
  0
LINE
  8
0
  6
DASHED
 10
-109.500000
 20
129.393402
 11
-109.500000
 21
125.857849
  0
LINE
  8
0
 10
90.500000
 20
137.112518
 11
90.500000
 21
120.260071
  0
LINE
  8
0
 10
90.500000
 20
159.739929
 11
124.700012
 21
159.739929
  0
LINE
  8
0
 10
90.500000
 20
142.887482
 11
124.700012
 21
142.887482
  0
LINE
  8
0
 10
90.500000
 20
137.112518
 11
124.700012
 21
137.112518
  0
LINE
  8
0
 10
90.500000
 20
120.260071
 11
124.700012
 21
120.260071
  0
LINE
  8
0
 10
124.699951
 20
120.260117
 11
125.499939
 21
121.015442
  0
LINE
  8
0
 10
124.700012
 20
137.112534
 11
125.499985
 21
137.488571
  0
LINE
  8
0
 10
90.500015
 20
159.740005
 11
124.700027
 21
142.887543
  0
LINE
  8
0
 10
124.700012
 20
159.739914
 11
90.499985
 21
142.887466
  0
LINE
  8
0
 10
90.500000
 20
137.112534
 11
124.700012
 21
120.260086
  0
LINE
  8
0
 10
124.700012
 20
137.112518
 11
90.500000
 21
120.260071
  0
LINE
  8
0
 10
90.500000
 20
159.739929
 11
90.500000
 21
142.887482
  0
LINE
  8
0
 10
-143.500000
 20
130.751892
 11
-115.500000
 21
130.751892
  0
LINE
  8
0
 10
-143.500000
 20
122.266632
 11
-115.500000
 21
122.266632
  0
LINE
  8
0
  6
DASHED
 10
-149.500000
 20
129.393402
 11
-149.500000
 21
125.857849
  0
LINE
  8
0
  6
DASHED
 10
-143.500000
 20
133.636047
 11
-115.500000
 21
133.636047
  0
LINE
  8
0
 10
-143.500000
 20
125.150757
 11
-115.500000
 21
125.150757
  0
LINE
  8
0
  6
CENTER
 10
-169.500000
 20
140.000000
 11
135.500000
 21
140.000000
  0
LINE
  8
0
 10
124.699997
 20
142.887436
 11
125.499985
 21
142.511398
  0
LINE
  8
0
 10
125.500015
 20
158.984619
 11
124.700027
 21
159.739929
  0
LINE
  8
0
 10
-11.500000
 20
101.218498
 11
-11.500000
 21
42.000000
  0
LINE
  8
0
 10
2.500000
 20
101.218498
 11
2.500000
 21
42.000000
  0
LINE
  8
0
 10
-75.500000
 20
205.000000
 11
-75.500000
 21
203.961502
  0
LINE
  8
0
 10
-75.500000
 20
189.777451
 11
-75.500000
 21
152.000000
  0
LINE
  8
0
 10
-75.500000
 20
128.000000
 11
-75.500000
 21
90.222549
  0
LINE
  8
0
 10
-75.500000
 20
76.038498
 11
-75.500000
 21
75.000000
  0
LINE
  8
0
 10
66.500000
 20
76.038498
 11
66.500000
 21
75.000000
  0
LINE
  8
0
 10
66.500000
 20
128.000000
 11
66.500000
 21
90.222549
  0
LINE
  8
0
 10
66.500000
 20
189.777451
 11
66.500000
 21
152.000000
  0
LINE
  8
0
 10
-23.335686
 20
217.500000
 11
-23.335686
 21
178.781494
  0
LINE
  8
0
 10
14.335670
 20
217.500000
 11
14.335670
 21
178.781494
  0
LINE
  8
0
 10
-23.335686
 20
101.218498
 11
-23.335686
 21
62.500000
  0
LINE
  8
0
 10
14.335670
 20
101.218498
 11
14.335670
 21
62.500000
  0
LINE
  8
0
 10
-68.800003
 20
235.500000
 11
-57.500000
 21
235.500000
  0
LINE
  8
0
 10
-69.500000
 20
235.173584
 11
-69.500000
 21
217.826416
  0
LINE
  8
0
 10
-68.800003
 20
235.500000
 11
-68.800003
 21
217.500000
  0
LINE
  8
0
 10
-68.800003
 20
217.500000
 11
-57.500000
 21
217.500000
  0
LINE
  8
0
 10
-69.499992
 20
217.826431
 11
-68.799988
 21
217.500015
  0
LINE
  8
0
 10
-69.500008
 20
235.173599
 11
-68.800003
 21
235.500015
  0
LINE
  8
0
 10
-68.800003
 20
192.249985
 11
-57.500000
 21
192.249985
  0
LINE
  8
0
 10
-69.500000
 20
191.923569
 11
-69.500000
 21
174.576401
  0
LINE
  8
0
 10
-68.800003
 20
192.249985
 11
-68.800003
 21
174.249985
  0
LINE
  8
0
 10
-68.800003
 20
174.249985
 11
-57.500000
 21
174.249985
  0
LINE
  8
0
 10
-69.500000
 20
174.576401
 11
-68.799995
 21
174.249985
  0
LINE
  8
0
 10
-69.500008
 20
191.923584
 11
-68.800011
 21
192.250000
  0
LINE
  8
0
 10
-68.800003
 20
105.750000
 11
-57.500000
 21
105.750000
  0
LINE
  8
0
 10
-69.500000
 20
105.423584
 11
-69.500000
 21
88.076416
  0
LINE
  8
0
 10
-68.800003
 20
105.750000
 11
-68.800003
 21
87.750000
  0
LINE
  8
0
 10
-68.800003
 20
87.750000
 11
-57.500000
 21
87.750000
  0
LINE
  8
0
 10
-69.500000
 20
88.076416
 11
-68.799995
 21
87.749992
  0
LINE
  8
0
 10
-68.800003
 20
103.750000
 11
-61.479706
 21
103.750000
  0
LINE
  8
0
 10
-68.800003
 20
101.750000
 11
-62.634399
 21
101.750000
  0
LINE
  8
0
 10
-68.800003
 20
99.750000
 11
-63.789093
 21
99.750000
  0
LINE
  8
0
 10
-68.800003
 20
97.750000
 11
-64.943802
 21
97.750000
  0
LINE
  8
0
 10
-68.800003
 20
95.750000
 11
-66.098511
 21
95.750000
  0
LINE
  8
0
 10
-68.800003
 20
93.750000
 11
-67.253204
 21
93.750000
  0
LINE
  8
0
 10
-68.800003
 20
91.750000
 11
-68.407898
 21
91.750000
  0
LINE
  8
0
 10
-69.500008
 20
105.423569
 11
-68.800003
 21
105.749985
  0
LINE
  8
0
 10
-68.800003
 20
62.500000
 11
-57.500000
 21
62.500000
  0
LINE
  8
0
 10
-69.500000
 20
62.173584
 11
-69.500000
 21
44.826416
  0
LINE
  8
0
 10
-68.800003
 20
62.500000
 11
-68.800003
 21
44.500000
  0
LINE
  8
0
 10
-68.800003
 20
44.500000
 11
-57.500000
 21
44.500000
  0
LINE
  8
0
 10
-69.500000
 20
44.826393
 11
-68.800003
 21
44.499985
  0
LINE
  8
0
 10
-68.800003
 20
60.500000
 11
-61.479706
 21
60.500000
  0
LINE
  8
0
 10
-68.800003
 20
58.500000
 11
-62.634399
 21
58.500000
  0
LINE
  8
0
 10
-68.800003
 20
56.500000
 11
-63.789093
 21
56.500000
  0
LINE
  8
0
 10
-68.800003
 20
54.500000
 11
-64.943802
 21
54.500000
  0
LINE
  8
0
 10
-68.800003
 20
52.500000
 11
-66.098511
 21
52.500000
  0
LINE
  8
0
 10
-68.800003
 20
50.500000
 11
-67.253204
 21
50.500000
  0
LINE
  8
0
 10
-68.800003
 20
48.500000
 11
-68.407898
 21
48.500000
  0
LINE
  8
0
 10
-69.499992
 20
62.173569
 11
-68.800003
 21
62.499977
  0
LINE
  8
0
 10
-68.500000
 20
87.750000
 11
-68.500000
 21
64.000000
  0
LINE
  8
0
 10
-68.500000
 20
174.249985
 11
-68.500000
 21
105.750000
  0
LINE
  8
0
 10
-68.800003
 20
233.500000
 11
-61.479702
 21
233.500000
  0
LINE
  8
0
 10
-68.800003
 20
231.500000
 11
-62.634399
 21
231.500000
  0
LINE
  8
0
 10
-68.800003
 20
229.500000
 11
-63.789101
 21
229.500000
  0
LINE
  8
0
 10
-68.800003
 20
227.500000
 11
-64.943802
 21
227.500000
  0
LINE
  8
0
 10
-68.800003
 20
225.500000
 11
-66.098503
 21
225.500000
  0
LINE
  8
0
 10
-68.800003
 20
223.500000
 11
-67.253204
 21
223.500000
  0
LINE
  8
0
 10
-68.800003
 20
221.500000
 11
-68.407906
 21
221.500000
  0
LINE
  8
0
 10
-68.800003
 20
190.249985
 11
-61.479702
 21
190.249985
  0
LINE
  8
0
 10
-68.800003
 20
188.249985
 11
-62.634399
 21
188.249985
  0
LINE
  8
0
 10
-68.800003
 20
186.249985
 11
-63.789101
 21
186.249985
  0
LINE
  8
0
 10
-68.800003
 20
184.249985
 11
-64.943802
 21
184.249985
  0
LINE
  8
0
 10
-68.800003
 20
182.249985
 11
-66.098503
 21
182.249985
  0
LINE
  8
0
 10
-68.800003
 20
180.249985
 11
-67.253204
 21
180.249985
  0
LINE
  8
0
 10
-68.800003
 20
178.249985
 11
-68.407906
 21
178.249985
  0
ARC
  8
0
 10
-54.500000
 20
235.000000
 40
3.000000
 50
90.000000
 51
180.000000
  0
ARC
  8
0
 10
-54.500000
 20
45.000000
 40
3.000000
 50
180.000000
 51
270.000000
  0
ARC
  8
0
 10
45.500000
 20
45.000000
 40
3.000000
 50
270.000000
 51
0.000000
  0
ARC
  8
0
 10
45.500000
 20
235.000000
 40
3.000000
 50
0.000000
 51
90.000000
  0
ARC
  8
0
 10
-54.500000
 20
235.000000
 40
3.000000
 50
90.000000
 51
180.000000
  0
ARC
  8
0
 10
-57.899994
 20
216.399994
 40
0.399994
 50
270.000000
 51
0.000000
  0
ARC
  8
0
 10
-57.899994
 20
63.599998
 40
0.400002
 50
0.000000
 51
90.000000
  0
ARC
  8
0
 10
48.899994
 20
63.599998
 40
0.400002
 50
90.000000
 51
180.000000
  0
ARC
  8
0
 10
48.899994
 20
216.399994
 40
0.399994
 50
180.000000
 51
270.000000
  0
ARC
  8
0
 10
-87.000000
 20
79.038498
 40
3.000000
 50
180.000000
 51
270.000000
  0
ARC
  8
0
 10
78.000000
 20
79.038498
 40
3.000000
 50
270.000000
 51
0.000000
  0
ARC
  8
0
 10
78.000000
 20
200.961502
 40
3.000000
 50
0.000000
 51
90.000000
  0
ARC
  8
0
 10
-87.000000
 20
200.961502
 40
3.000000
 50
90.000000
 51
180.000000
  0
ARC
  8
0
 10
-90.399994
 20
175.399994
 40
0.399994
 50
270.000000
 51
0.000000
  0
ARC
  8
0
 10
-90.399994
 20
104.599998
 40
0.400002
 50
0.000000
 51
90.000000
  0
ARC
  8
0
 10
81.399994
 20
104.599998
 40
0.400002
 50
90.000000
 51
180.000000
  0
ARC
  8
0
 10
81.399994
 20
175.399994
 40
0.399994
 50
180.000000
 51
270.000000
  0
CIRCLE
  8
0
 10
-36.500000
 20
162.000000
 40
10.480000
  0
CIRCLE
  8
0
 10
27.500000
 20
118.000000
 40
10.480000
  0
CIRCLE
  8
0
 10
-36.500000
 20
162.000000
 40
9.315000
  0
CIRCLE
  8
0
 10
27.500000
 20
118.000000
 40
9.315000
  0
ARC
  8
0
 10
63.159119
 20
202.961700
 40
1.000000
 50
90.000000
 51
124.847488
  0
ARC
  8
0
 10
-72.159119
 20
202.961700
 40
1.000008
 50
55.152157
 51
90.000000
  0
ARC
  8
0
 10
-72.159225
 20
77.038223
 40
1.000000
 50
270.000000
 51
304.839966
  0
ARC
  8
0
 10
63.159225
 20
77.038223
 40
1.000005
 50
235.160034
 51
270.000000
  0
POLYLINE
  8
0
 66
     1
  0
VERTEX
  8
0
 10
-143.500000
 20
130.751892
  0
VERTEX
  8
0
 10
-144.247955
 20
130.704834
  0
VERTEX
  8
0
 10
-144.990952
 20
130.589539
  0
VERTEX
  8
0
 10
-145.587845
 20
130.446014
  0
VERTEX
  8
0
 10
-145.981232
 20
130.315414
  0
VERTEX
  8
0
 10
-146.404709
 20
130.140137
  0
VERTEX
  8
0
 10
-146.925674
 20
129.879623
  0
VERTEX
  8
0
 10
-147.468597
 20
129.528381
  0
VERTEX
  8
0
 10
-148.147095
 20
128.948547
  0
VERTEX
  8
0
 10
-148.696106
 20
128.304871
  0
VERTEX
  8
0
 10
-149.050491
 20
127.708717
  0
VERTEX
  8
0
 10
-149.309433
 20
127.081360
  0
VERTEX
  8
0
 10
-149.458069
 20
126.456894
  0
VERTEX
  8
0
 10
-149.500000
 20
125.857849
  0
VERTEX
  8
0
 10
-149.448914
 20
125.409561
  0
VERTEX
  8
0
 10
-149.309433
 20
124.960052
  0
VERTEX
  8
0
 10
-149.064529
 20
124.503571
  0
VERTEX
  8
0
 10
-148.696106
 20
124.062256
  0
VERTEX
  8
0
 10
-148.097458
 20
123.553902
  0
VERTEX
  8
0
 10
-147.468597
 20
123.164429
  0
VERTEX
  8
0
 10
-146.927490
 20
122.911774
  0
VERTEX
  8
0
 10
-146.404709
 20
122.715515
  0
VERTEX
  8
0
 10
-145.984634
 20
122.589745
  0
VERTEX
  8
0
 10
-145.587845
 20
122.491089
  0
VERTEX
  8
0
 10
-145.343384
 20
122.438385
  0
VERTEX
  8
0
 10
-144.987961
 20
122.378845
  0
VERTEX
  8
0
 10
-144.246033
 20
122.294060
  0
VERTEX
  8
0
 10
-143.500000
 20
122.266632
  0
SEQEND
  0
POLYLINE
  8
0
 66
     1
  0
VERTEX
  8
0
 10
-115.500000
 20
130.751892
  0
VERTEX
  8
0
 10
-114.752052
 20
130.704834
  0
VERTEX
  8
0
 10
-114.009048
 20
130.589539
  0
VERTEX
  8
0
 10
-113.412155
 20
130.446014
  0
VERTEX
  8
0
 10
-113.018768
 20
130.315414
  0
VERTEX
  8
0
 10
-112.595291
 20
130.140137
  0
VERTEX
  8
0
 10
-112.074326
 20
129.879623
  0
VERTEX
  8
0
 10
-111.531403
 20
129.528381
  0
VERTEX
  8
0
 10
-110.852905
 20
128.948547
  0
VERTEX
  8
0
 10
-110.303894
 20
128.304871
  0
VERTEX
  8
0
 10
-109.949501
 20
127.708717
  0
VERTEX
  8
0
 10
-109.690567
 20
127.081360
  0
VERTEX
  8
0
 10
-109.541931
 20
126.456894
  0
VERTEX
  8
0
 10
-109.500000
 20
125.857849
  0
VERTEX
  8
0
 10
-109.551094
 20
125.409561
  0
VERTEX
  8
0
 10
-109.690567
 20
124.960052
  0
VERTEX
  8
0
 10
-109.935463
 20
124.503571
  0
VERTEX
  8
0
 10
-110.303894
 20
124.062256
  0
VERTEX
  8
0
 10
-110.902550
 20
123.553902
  0
VERTEX
  8
0
 10
-111.531403
 20
123.164429
  0
VERTEX
  8
0
 10
-112.072517
 20
122.911774
  0
VERTEX
  8
0
 10
-112.595291
 20
122.715515
  0
VERTEX
  8
0
 10
-113.015373
 20
122.589745
  0
VERTEX
  8
0
 10
-113.412155
 20
122.491089
  0
VERTEX
  8
0
 10
-113.656624
 20
122.438385
  0
VERTEX
  8
0
 10
-114.012039
 20
122.378845
  0
VERTEX
  8
0
 10
-114.753967
 20
122.294060
  0
VERTEX
  8
0
 10
-115.500000
 20
122.266632
  0
SEQEND
  0
ARC
  8
0
  6
DASHED
 10
-143.500000
 20
125.908180
 40
7.727715
 50
90.000000
 51
126.496727
  0
ARC
  8
0
  6
DASHED
 10
-145.687134
 20
129.103683
 40
3.860653
 50
128.610474
 51
164.581421
  0
ARC
  8
0
  6
DASHED
 10
-146.477402
 20
129.393402
 40
3.022597
 50
165.892975
 51
194.107025
  0
ARC
  8
0
  6
DASHED
 10
-145.687134
 20
129.683121
 40
3.860658
 50
195.418579
 51
210.016922
  0
ARC
  8
0
 10
-115.500000
 20
132.878632
 40
7.727730
 50
270.000000
 51
306.496643
  0
ARC
  8
0
 10
-113.312874
 20
129.683121
 40
3.860663
 50
308.610504
 51
329.998749
  0
ARC
  8
0
 10
-145.687134
 20
129.683121
 40
3.860666
 50
210.016922
 51
231.389603
  0
ARC
  8
0
 10
-143.500000
 20
132.878632
 40
7.727730
 50
233.503342
 51
270.000000
  0
ARC
  8
0
  6
DASHED
 10
-113.312874
 20
129.683121
 40
3.860664
 50
329.998749
 51
344.581451
  0
ARC
  8
0
  6
DASHED
 10
-112.522591
 20
129.393402
 40
3.022590
 50
345.892944
 51
14.107061
  0
ARC
  8
0
  6
DASHED
 10
-113.312874
 20
129.103683
 40
3.860666
 50
15.418548
 51
51.389439
  0
ARC
  8
0
  6
DASHED
 10
-115.500000
 20
125.908180
 40
7.727718
 50
53.503277
 51
90.000000
  0
POLYLINE
  8
0
 66
     1
  0
VERTEX
  8
0
 10
-71.587730
 20
203.782379
  0
VERTEX
  8
0
 10
-71.362320
 20
203.602402
  0
VERTEX
  8
0
 10
-71.170807
 20
203.334198
  0
VERTEX
  8
0
 10
-71.043617
 20
202.880753
  0
VERTEX
  8
0
 10
-71.045456
 20
202.335464
  0
VERTEX
  8
0
 10
-71.081680
 20
201.703796
  0
VERTEX
  8
0
 10
-71.170807
 20
200.945923
  0
VERTEX
  8
0
 10
-71.321213
 20
200.110184
  0
VERTEX
  8
0
 10
-71.522339
 20
199.276947
  0
VERTEX
  8
0
 10
-71.764542
 20
198.427353
  0
VERTEX
  8
0
 10
-72.038643
 20
197.550842
  0
VERTEX
  8
0
 10
-72.333748
 20
196.684326
  0
VERTEX
  8
0
 10
-72.668182
 20
195.778534
  0
VERTEX
  8
0
 10
-72.965538
 20
195.023712
  0
VERTEX
  8
0
 10
-73.277275
 20
194.276047
  0
VERTEX
  8
0
 10
-73.604874
 20
193.530563
  0
VERTEX
  8
0
 10
-73.949829
 20
192.782318
  0
VERTEX
  8
0
 10
-74.317139
 20
192.020523
  0
VERTEX
  8
0
 10
-74.697853
 20
191.265579
  0
VERTEX
  8
0
 10
-75.092094
 20
190.517792
  0
VERTEX
  8
0
 10
-75.500000
 20
189.777451
  0
SEQEND
  0
POLYLINE
  8
0
 66
     1
  0
VERTEX
  8
0
 10
62.587730
 20
203.782379
  0
VERTEX
  8
0
 10
62.362324
 20
203.602402
  0
VERTEX
  8
0
 10
62.170807
 20
203.334198
  0
VERTEX
  8
0
 10
62.043617
 20
202.880753
  0
VERTEX
  8
0
 10
62.045456
 20
202.335464
  0
VERTEX
  8
0
 10
62.081684
 20
201.703796
  0
VERTEX
  8
0
 10
62.170807
 20
200.945923
  0
VERTEX
  8
0
 10
62.321217
 20
200.110184
  0
VERTEX
  8
0
 10
62.522339
 20
199.276947
  0
VERTEX
  8
0
 10
62.764542
 20
198.427353
  0
VERTEX
  8
0
 10
63.038643
 20
197.550842
  0
VERTEX
  8
0
 10
63.333752
 20
196.684326
  0
VERTEX
  8
0
 10
63.668182
 20
195.778534
  0
VERTEX
  8
0
 10
63.965542
 20
195.023712
  0
VERTEX
  8
0
 10
64.277275
 20
194.276047
  0
VERTEX
  8
0
 10
64.604874
 20
193.530563
  0
VERTEX
  8
0
 10
64.949829
 20
192.782318
  0
VERTEX
  8
0
 10
65.317139
 20
192.020523
  0
VERTEX
  8
0
 10
65.697853
 20
191.265579
  0
VERTEX
  8
0
 10
66.092094
 20
190.517792
  0
VERTEX
  8
0
 10
66.500000
 20
189.777451
  0
SEQEND
  0
POLYLINE
  8
0
 66
     1
  0
VERTEX
  8
0
 10
-75.512817
 20
152.000366
  0
VERTEX
  8
0
 10
-75.081985
 20
151.383911
  0
VERTEX
  8
0
 10
-74.632195
 20
150.780853
  0
VERTEX
  8
0
 10
-74.227264
 20
150.269165
  0
VERTEX
  8
0
 10
-73.830261
 20
149.790787
  0
VERTEX
  8
0
 10
-73.433716
 20
149.275116
  0
VERTEX
  8
0
 10
-73.038879
 20
148.656189
  0
VERTEX
  8
0
 10
-72.685364
 20
147.978546
  0
VERTEX
  8
0
 10
-72.343796
 20
147.218552
  0
VERTEX
  8
0
 10
-72.029907
 20
146.379440
  0
VERTEX
  8
0
 10
-71.806313
 20
145.671036
  0
VERTEX
  8
0
 10
-71.615517
 20
144.952728
  0
VERTEX
  8
0
 10
-71.453369
 20
144.218475
  0
VERTEX
  8
0
 10
-71.315170
 20
143.444855
  0
VERTEX
  8
0
 10
-71.205864
 20
142.666779
  0
VERTEX
  8
0
 10
-71.128174
 20
141.927856
  0
VERTEX
  8
0
 10
-71.066025
 20
140.964813
  0
VERTEX
  8
0
 10
-71.045456
 20
140.000000
  0
VERTEX
  8
0
 10
-71.063950
 20
139.059097
  0
VERTEX
  8
0
 10
-71.128174
 20
138.072144
  0
VERTEX
  8
0
 10
-71.208878
 20
137.302078
  0
VERTEX
  8
0
 10
-71.317528
 20
136.535385
  0
VERTEX
  8
0
 10
-71.453369
 20
135.781525
  0
VERTEX
  8
0
 10
-71.620476
 20
135.035004
  0
VERTEX
  8
0
 10
-71.817924
 20
134.296066
  0
VERTEX
  8
0
 10
-72.029907
 20
133.620560
  0
VERTEX
  8
0
 10
-72.339859
 20
132.798645
  0
VERTEX
  8
0
 10
-72.685364
 20
132.021454
  0
VERTEX
  8
0
 10
-73.040573
 20
131.344864
  0
VERTEX
  8
0
 10
-73.433716
 20
130.724884
  0
VERTEX
  8
0
 10
-73.788139
 20
130.264923
  0
VERTEX
  8
0
 10
-74.227264
 20
129.730835
  0
VERTEX
  8
0
 10
-74.666588
 20
129.165009
  0
VERTEX
  8
0
 10
-75.088127
 20
128.585968
  0
VERTEX
  8
0
 10
-75.500000
 20
128.000000
  0
SEQEND
  0
POLYLINE
  8
0
 66
     1
  0
VERTEX
  8
0
 10
-75.500000
 20
90.222549
  0
VERTEX
  8
0
 10
-75.090874
 20
89.479607
  0
VERTEX
  8
0
 10
-74.694588
 20
88.727501
  0
VERTEX
  8
0
 10
-74.313469
 20
87.971703
  0
VERTEX
  8
0
 10
-73.949829
 20
87.217690
  0
VERTEX
  8
0
 10
-73.604698
 20
86.467171
  0
VERTEX
  8
0
 10
-73.270279
 20
85.704056
  0
VERTEX
  8
0
 10
-72.955223
 20
84.948715
  0
VERTEX
  8
0
 10
-72.668182
 20
84.221474
  0
VERTEX
  8
0
 10
-72.343651
 20
83.339943
  0
VERTEX
  8
0
 10
-72.040199
 20
82.450005
  0
VERTEX
  8
0
 10
-71.764542
 20
81.572647
  0
VERTEX
  8
0
 10
-71.520622
 20
80.694923
  0
VERTEX
  8
0
 10
-71.310997
 20
79.810989
  0
VERTEX
  8
0
 10
-71.170807
 20
79.054085
  0
VERTEX
  8
0
 10
-71.090996
 20
78.343964
  0
VERTEX
  8
0
 10
-71.045456
 20
77.664536
  0
VERTEX
  8
0
 10
-71.056023
 20
77.122910
  0
VERTEX
  8
0
 10
-71.170807
 20
76.665794
  0
VERTEX
  8
0
 10
-71.352196
 20
76.418327
  0
VERTEX
  8
0
 10
-71.587158
 20
76.218010
  0
SEQEND
  0
POLYLINE
  8
0
 66
     1
  0
VERTEX
  8
0
 10
66.500000
 20
90.222549
  0
VERTEX
  8
0
 10
66.090874
 20
89.479607
  0
VERTEX
  8
0
 10
65.694588
 20
88.727501
  0
VERTEX
  8
0
 10
65.313469
 20
87.971703
  0
VERTEX
  8
0
 10
64.949829
 20
87.217690
  0
VERTEX
  8
0
 10
64.604698
 20
86.467171
  0
VERTEX
  8
0
 10
64.270279
 20
85.704056
  0
VERTEX
  8
0
 10
63.955223
 20
84.948715
  0
VERTEX
  8
0
 10
63.668182
 20
84.221474
  0
VERTEX
  8
0
 10
63.343651
 20
83.339943
  0
VERTEX
  8
0
 10
63.040203
 20
82.450005
  0
VERTEX
  8
0
 10
62.764542
 20
81.572647
  0
VERTEX
  8
0
 10
62.520622
 20
80.694923
  0
VERTEX
  8
0
 10
62.311001
 20
79.810989
  0
VERTEX
  8
0
 10
62.170807
 20
79.054085
  0
VERTEX
  8
0
 10
62.090996
 20
78.343964
  0
VERTEX
  8
0
 10
62.045456
 20
77.664536
  0
VERTEX
  8
0
 10
62.056023
 20
77.122910
  0
VERTEX
  8
0
 10
62.170807
 20
76.665794
  0
VERTEX
  8
0
 10
62.352196
 20
76.418327
  0
VERTEX
  8
0
 10
62.587154
 20
76.218010
  0
SEQEND
  0
POLYLINE
  8
0
 66
     1
  0
VERTEX
  8
0
 10
66.500000
 20
152.000000
  0
VERTEX
  8
0
 10
66.067688
 20
151.388779
  0
VERTEX
  8
0
 10
65.625710
 20
150.784485
  0
VERTEX
  8
0
 10
65.227264
 20
150.269165
  0
VERTEX
  8
0
 10
64.830795
 20
149.789124
  0
VERTEX
  8
0
 10
64.433716
 20
149.275116
  0
VERTEX
  8
0
 10
64.038696
 20
148.656754
  0
VERTEX
  8
0
 10
63.685364
 20
147.978546
  0
VERTEX
  8
0
 10
63.343857
 20
147.218353
  0
VERTEX
  8
0
 10
63.029907
 20
146.379440
  0
VERTEX
  8
0
 10
62.806290
 20
145.671112
  0
VERTEX
  8
0
 10
62.615498
 20
144.952774
  0
VERTEX
  8
0
 10
62.453369
 20
144.218475
  0
VERTEX
  8
0
 10
62.315178
 20
143.444839
  0
VERTEX
  8
0
 10
62.205864
 20
142.666779
  0
VERTEX
  8
0
 10
62.128174
 20
141.927856
  0
VERTEX
  8
0
 10
62.066021
 20
140.964828
  0
VERTEX
  8
0
 10
62.045456
 20
140.000000
  0
VERTEX
  8
0
 10
62.063953
 20
139.059097
  0
VERTEX
  8
0
 10
62.128174
 20
138.072144
  0
VERTEX
  8
0
 10
62.208878
 20
137.302078
  0
VERTEX
  8
0
 10
62.317528
 20
136.535385
  0
VERTEX
  8
0
 10
62.453369
 20
135.781525
  0
VERTEX
  8
0
 10
62.620472
 20
135.035004
  0
VERTEX
  8
0
 10
62.817921
 20
134.296066
  0
VERTEX
  8
0
 10
63.029907
 20
133.620560
  0
VERTEX
  8
0
 10
63.339855
 20
132.798645
  0
VERTEX
  8
0
 10
63.685364
 20
132.021454
  0
VERTEX
  8
0
 10
64.040573
 20
131.344864
  0
VERTEX
  8
0
 10
64.433716
 20
130.724884
  0
VERTEX
  8
0
 10
64.788139
 20
130.264923
  0
VERTEX
  8
0
 10
65.227264
 20
129.730835
  0
VERTEX
  8
0
 10
65.666588
 20
129.165009
  0
VERTEX
  8
0
 10
66.088127
 20
128.585968
  0
VERTEX
  8
0
 10
66.500000
 20
128.000000
  0
SEQEND
  0
POINT
  8
0
 10
-90.000000
 20
-100.000000
  0
POINT
  8
0
 10
125.500000
 20
-100.000000
  0
LINE
  8
0
 10
-5.500000
 20
-10.000000
 11
-5.500000
 21
-198.000000
  0
LINE
  8
0
 10
-158.699997
 20
-80.000000
 11
-94.500000
 21
-80.000000
  0
LINE
  8
0
 10
-158.699997
 20
-120.000000
 11
-94.500000
 21
-120.000000
  0
LINE
  8
0
 10
-94.000000
 20
-65.000000
 11
-90.399994
 21
-65.000000
  0
LINE
  8
0
 10
-94.000000
 20
-135.000000
 11
-90.399994
 21
-135.000000
  0
LINE
  8
0
 10
-87.000000
 20
-28.000000
 11
-71.045456
 21
-28.000000
  0
LINE
  8
0
 10
-87.000000
 20
-172.000000
 11
-71.045456
 21
-172.000000
  0
LINE
  8
0
 10
-90.000000
 20
-58.000000
 11
-75.500000
 21
-58.000000
  0
LINE
  8
0
 10
-90.000000
 20
-142.000000
 11
-75.500000
 21
-142.000000
  0
LINE
  8
0
 10
-54.500000
 20
-185.411194
 11
-18.768150
 21
-185.411194
  0
LINE
  8
0
 10
-11.500000
 20
-198.000000
 11
2.500000
 21
-198.000000
  0
LINE
  8
0
 10
-54.500000
 20
-10.000000
 11
45.500000
 21
-10.000000
  0
LINE
  8
0
 10
-57.500000
 20
-13.000000
 11
-57.500000
 21
-183.911224
  0
LINE
  8
0
 10
-90.000000
 20
-31.000000
 11
-90.000000
 21
-169.000000
  0
LINE
  8
0
 10
-94.500000
 20
-65.500000
 11
-94.500000
 21
-134.500000
  0
LINE
  8
0
 10
-159.500000
 20
-80.800003
 11
-159.500000
 21
-119.199997
  0
LINE
  8
0
 10
48.500000
 20
-13.000000
 11
48.500000
 21
-182.411194
  0
LINE
  8
0
 10
81.000000
 20
-31.000000
 11
81.000000
 21
-169.000000
  0
LINE
  8
0
 10
85.500000
 20
-65.500000
 11
85.500000
 21
-134.500000
  0
LINE
  8
0
 10
125.500000
 20
-80.849998
 11
125.500000
 21
-119.150002
  0
LINE
  8
0
 10
-11.500000
 20
-19.888962
 11
-11.500000
 21
-198.000000
  0
LINE
  8
0
 10
-68.500000
 20
-34.088806
 11
-68.500000
 21
-91.000000
  0
LINE
  8
0
 10
2.500000
 20
-19.888962
 11
2.500000
 21
-198.000000
  0
LINE
  8
0
 10
59.500000
 20
-24.000000
 11
59.500000
 21
-176.000000
  0
LINE
  8
0
 10
-18.768150
 20
-185.411209
 11
-11.500008
 21
-198.000000
  0
LINE
  8
0
 10
2.499992
 20
-198.000000
 11
9.768143
 21
-185.411194
  0
LINE
  8
0
 10
9.768143
 20
-185.411194
 11
45.500000
 21
-185.411194
  0
LINE
  8
0
 10
48.899994
 20
-176.000000
 11
59.500000
 21
-176.000000
  0
LINE
  8
0
 10
62.045456
 20
-172.000000
 11
78.000000
 21
-172.000000
  0
LINE
  8
0
 10
66.500000
 20
-142.000000
 11
81.000000
 21
-142.000000
  0
LINE
  8
0
 10
81.399994
 20
-135.000000
 11
85.000000
 21
-135.000000
  0
LINE
  8
0
 10
85.500000
 20
-120.000000
 11
89.449997
 21
-120.000000
  0
LINE
  8
0
 10
85.500000
 20
-80.000000
 11
89.449997
 21
-80.000000
  0
LINE
  8
0
 10
81.399994
 20
-65.000000
 11
85.000000
 21
-65.000000
  0
LINE
  8
0
 10
66.500000
 20
-58.000000
 11
81.000000
 21
-58.000000
  0
LINE
  8
0
 10
62.045456
 20
-28.000000
 11
78.000000
 21
-28.000000
  0
LINE
  8
0
 10
48.899994
 20
-24.000000
 11
59.500000
 21
-24.000000
  0
LINE
  8
0
 10
-94.000031
 20
-64.999977
 11
-94.500031
 21
-65.499977
  0
LINE
  8
0
 10
-94.000031
 20
-135.000031
 11
-94.500031
 21
-134.500031
  0
LINE
  8
0
 10
85.000046
 20
-135.000015
 11
85.500046
 21
-134.500015
  0
LINE
  8
0
 10
84.999969
 20
-65.000015
 11
85.499969
 21
-65.500015
  0
LINE
  8
0
 10
89.500000
 20
-80.050003
 11
89.500000
 21
-119.949997
  0
LINE
  8
0
 10
89.500000
 20
-119.949997
 11
124.699997
 21
-119.949997
  0
LINE
  8
0
 10
89.500000
 20
-80.050003
 11
124.699997
 21
-80.050003
  0
LINE
  8
0
 10
-159.500031
 20
-80.799973
 11
-158.700043
 21
-79.999969
  0
LINE
  8
0
 10
-158.700043
 20
-120.000031
 11
-159.500031
 21
-119.200027
  0
LINE
  8
0
 10
124.700089
 20
-119.950111
 11
125.500092
 21
-119.150108
  0
LINE
  8
0
 10
124.700058
 20
-80.049973
 11
125.500046
 21
-80.849960
  0
LINE
  8
0
 10
-158.700012
 20
-80.000000
 11
-158.700012
 21
-120.000000
  0
LINE
  8
0
 10
124.700012
 20
-80.050003
 11
124.700012
 21
-119.950005
  0
LINE
  8
0
 10
89.499939
 20
-80.050064
 11
89.449936
 21
-80.000069
  0
LINE
  8
0
 10
89.449997
 20
-120.000008
 11
89.500000
 21
-119.949997
  0
LINE
  8
0
 10
-69.500000
 20
-25.571434
 11
-71.045456
 21
-28.000000
  0
LINE
  8
0
 10
-69.500000
 20
-174.428558
 11
-71.045456
 21
-172.000000
  0
LINE
  8
0
 10
59.499985
 20
-176.000015
 11
62.045441
 21
-172.000031
  0
LINE
  8
0
 10
59.499985
 20
-23.999985
 11
62.045441
 21
-27.999977
  0
LINE
  8
0
 10
90.500000
 20
-102.887482
 11
90.500000
 21
-119.739929
  0
LINE
  8
0
 10
90.500000
 20
-80.260071
 11
124.700012
 21
-80.260071
  0
LINE
  8
0
 10
90.500000
 20
-97.112518
 11
124.700012
 21
-97.112518
  0
LINE
  8
0
 10
90.500000
 20
-102.887482
 11
124.700012
 21
-102.887482
  0
LINE
  8
0
 10
90.500000
 20
-119.739929
 11
124.700012
 21
-119.739929
  0
LINE
  8
0
 10
124.699890
 20
-119.739769
 11
125.499878
 21
-118.984451
  0
LINE
  8
0
 10
124.700027
 20
-102.887466
 11
125.499985
 21
-102.511429
  0
LINE
  8
0
 10
90.500000
 20
-80.259987
 11
124.700012
 21
-97.112434
  0
LINE
  8
0
 10
124.700058
 20
-80.260071
 11
90.500046
 21
-97.112526
  0
LINE
  8
0
 10
90.500031
 20
-102.887466
 11
124.700043
 21
-119.739914
  0
LINE
  8
0
 10
124.700027
 20
-102.887466
 11
90.500015
 21
-119.739914
  0
LINE
  8
0
 10
90.500000
 20
-80.260071
 11
90.500000
 21
-97.112518
  0
LINE
  8
0
  6
CENTER
 10
-169.500000
 20
-100.000000
 11
135.500000
 21
-100.000000
  0
LINE
  8
0
 10
124.699951
 20
-97.112633
 11
125.499939
 21
-97.488670
  0
LINE
  8
0
 10
125.500015
 20
-81.015419
 11
124.700027
 21
-80.260109
  0
LINE
  8
0
  6
DASHED
 10
-109.500000
 20
-89.393372
 11
-109.500000
 21
-85.857819
  0
LINE
  8
0
 10
-143.500000
 20
-90.751862
 11
-115.500000
 21
-90.751862
  0
LINE
  8
0
 10
-143.500000
 20
-82.266602
 11
-115.500000
 21
-82.266602
  0
LINE
  8
0
  6
DASHED
 10
-149.500000
 20
-89.393372
 11
-149.500000
 21
-85.857819
  0
LINE
  8
0
  6
DASHED
 10
-143.500000
 20
-93.636017
 11
-115.500000
 21
-93.636017
  0
LINE
  8
0
 10
-143.500000
 20
-85.150726
 11
-115.500000
 21
-85.150726
  0
LINE
  8
0
 10
-57.500000
 20
-86.294151
 11
-23.335686
 21
-86.294151
  0
LINE
  8
0
 10
-57.500000
 20
-113.705849
 11
-23.335686
 21
-113.705849
  0
LINE
  8
0
 10
14.335678
 20
-113.705849
 11
48.500000
 21
-113.705849
  0
LINE
  8
0
 10
-57.500000
 20
-18.888962
 11
-12.500000
 21
-18.888962
  0
LINE
  8
0
 10
3.500000
 20
-18.888962
 11
48.500000
 21
-18.888962
  0
LINE
  8
0
 10
14.335678
 20
-86.294151
 11
48.500000
 21
-86.294151
  0
LINE
  8
0
 10
-23.335686
 20
-38.923050
 11
-23.335686
 21
-86.294151
  0
LINE
  8
0
 10
14.335678
 20
-38.923054
 11
14.335678
 21
-86.294151
  0
LINE
  8
0
 10
-75.500000
 20
-35.991669
 11
-75.500000
 21
-58.000000
  0
LINE
  8
0
 10
66.500000
 20
-35.991669
 11
66.500000
 21
-58.000000
  0
LINE
  8
0
 10
-11.720627
 20
-19.262405
 11
-23.335686
 21
-38.923054
  0
LINE
  8
0
 10
2.720627
 20
-19.262398
 11
14.335686
 21
-38.923054
  0
LINE
  8
0
 10
14.335678
 20
-113.705849
 11
14.335678
 21
-163.794205
  0
LINE
  8
0
 10
-23.335686
 20
-113.705849
 11
-23.335686
 21
-163.794205
  0
LINE
  8
0
 10
66.500000
 20
-77.791336
 11
66.500000
 21
-122.208664
  0
LINE
  8
0
 10
66.500000
 20
-142.000000
 11
66.500000
 21
-164.008331
  0
LINE
  8
0
 10
-75.500000
 20
-142.000000
 11
-75.500000
 21
-164.008331
  0
LINE
  8
0
 10
-75.500000
 20
-77.791336
 11
-75.500000
 21
-122.208664
  0
LINE
  8
0
 10
-68.800003
 20
-16.088806
 11
-57.500000
 21
-16.088806
  0
LINE
  8
0
 10
-69.500000
 20
-16.415222
 11
-69.500000
 21
-33.762390
  0
LINE
  8
0
 10
-68.800003
 20
-16.088806
 11
-68.800003
 21
-34.088806
  0
LINE
  8
0
 10
-68.800003
 20
-34.088806
 11
-57.500000
 21
-34.088806
  0
LINE
  8
0
 10
-69.499992
 20
-33.762383
 11
-68.799988
 21
-34.088799
  0
LINE
  8
0
 10
-68.800003
 20
-18.088806
 11
-61.479706
 21
-18.088806
  0
LINE
  8
0
 10
-68.800003
 20
-20.088806
 11
-62.634399
 21
-20.088806
  0
LINE
  8
0
 10
-68.800003
 20
-22.088806
 11
-63.789093
 21
-22.088806
  0
LINE
  8
0
 10
-68.800003
 20
-24.088806
 11
-64.943802
 21
-24.088806
  0
LINE
  8
0
 10
-68.800003
 20
-26.088806
 11
-66.098511
 21
-26.088806
  0
LINE
  8
0
 10
-68.800003
 20
-28.088806
 11
-67.253204
 21
-28.088806
  0
LINE
  8
0
 10
-68.800003
 20
-30.088806
 11
-68.407898
 21
-30.088806
  0
LINE
  8
0
 10
-69.499985
 20
-16.415199
 11
-68.800003
 21
-16.088791
  0
LINE
  8
0
 10
-68.800003
 20
-91.000000
 11
-57.500000
 21
-91.000000
  0
LINE
  8
0
 10
-69.500000
 20
-91.326416
 11
-69.500000
 21
-108.673584
  0
LINE
  8
0
 10
-68.800003
 20
-91.000000
 11
-68.800003
 21
-109.000000
  0
LINE
  8
0
 10
-68.800003
 20
-109.000000
 11
-57.500000
 21
-109.000000
  0
LINE
  8
0
 10
-69.500008
 20
-108.673584
 11
-68.800003
 21
-109.000000
  0
LINE
  8
0
 10
-68.800003
 20
-93.000000
 11
-61.479706
 21
-93.000000
  0
LINE
  8
0
 10
-68.800003
 20
-95.000000
 11
-62.634399
 21
-95.000000
  0
LINE
  8
0
 10
-68.800003
 20
-97.000000
 11
-63.789093
 21
-97.000000
  0
LINE
  8
0
 10
-68.800003
 20
-99.000000
 11
-64.943802
 21
-99.000000
  0
LINE
  8
0
 10
-68.800003
 20
-101.000000
 11
-66.098511
 21
-101.000000
  0
LINE
  8
0
 10
-68.800003
 20
-105.000000
 11
-68.407898
 21
-105.000000
  0
LINE
  8
0
 10
-69.500008
 20
-91.326408
 11
-68.800003
 21
-90.999992
  0
LINE
  8
0
 10
-68.800003
 20
-165.911224
 11
-57.500000
 21
-165.911224
  0
LINE
  8
0
 10
-69.500000
 20
-166.237640
 11
-69.500000
 21
-183.584808
  0
LINE
  8
0
 10
-68.800003
 20
-165.911224
 11
-68.800003
 21
-183.911224
  0
LINE
  8
0
 10
-68.800003
 20
-183.911224
 11
-57.500000
 21
-183.911224
  0
LINE
  8
0
 10
-69.500000
 20
-183.584808
 11
-68.799995
 21
-183.911224
  0
LINE
  8
0
 10
-68.800003
 20
-167.911224
 11
-61.479706
 21
-167.911224
  0
LINE
  8
0
 10
-68.800003
 20
-169.911224
 11
-62.634399
 21
-169.911224
  0
LINE
  8
0
 10
-68.800003
 20
-171.911224
 11
-63.789093
 21
-171.911224
  0
LINE
  8
0
 10
-68.800003
 20
-173.911224
 11
-64.943802
 21
-173.911224
  0
LINE
  8
0
 10
-68.800003
 20
-175.911224
 11
-66.098511
 21
-175.911224
  0
LINE
  8
0
 10
-68.800003
 20
-177.911224
 11
-67.253204
 21
-177.911224
  0
LINE
  8
0
 10
-68.800003
 20
-179.911224
 11
-68.407898
 21
-179.911224
  0
LINE
  8
0
 10
-69.500000
 20
-166.237640
 11
-68.800011
 21
-165.911224
  0
LINE
  8
0
 10
-68.500000
 20
-109.000000
 11
-68.500000
 21
-165.911224
  0
LINE
  8
0
 10
-68.800003
 20
-103.000000
 11
-67.253212
 21
-103.000000
  0
ARC
  8
0
 10
-54.500000
 20
-13.000000
 40
3.000000
 50
90.000000
 51
180.000000
  0
ARC
  8
0
 10
-54.500000
 20
-182.411194
 40
3.000000
 50
180.000000
 51
270.000000
  0
ARC
  8
0
 10
45.500000
 20
-182.411194
 40
3.000000
 50
270.000000
 51
0.000000
  0
ARC
  8
0
 10
45.500000
 20
-13.000000
 40
3.000000
 50
0.000000
 51
90.000000
  0
ARC
  8
0
 10
48.899994
 20
-176.399994
 40
0.399994
 50
90.000000
 51
180.000000
  0
ARC
  8
0
 10
48.899994
 20
-23.599998
 40
0.399994
 50
180.000000
 51
270.000000
  0
ARC
  8
0
 10
-87.000000
 20
-31.000000
 40
3.000000
 50
90.000000
 51
180.000000
  0
ARC
  8
0
 10
-87.000000
 20
-169.000000
 40
3.000000
 50
180.000000
 51
270.000000
  0
ARC
  8
0
 10
78.000000
 20
-169.000000
 40
3.000000
 50
270.000000
 51
0.000000
  0
ARC
  8
0
 10
78.000000
 20
-31.000000
 40
3.000000
 50
0.000000
 51
90.000000
  0
ARC
  8
0
 10
-90.399994
 20
-135.399994
 40
0.400002
 50
0.000000
 51
90.000000
  0
ARC
  8
0
 10
81.399994
 20
-135.399994
 40
0.399994
 50
90.000000
 51
180.000000
  0
ARC
  8
0
 10
81.399994
 20
-64.599998
 40
0.399994
 50
180.000000
 51
270.000000
  0
ARC
  8
0
 10
-90.399994
 20
-64.599998
 40
0.400002
 50
270.000000
 51
0.000000
  0
ARC
  8
0
 10
-12.500000
 20
-19.888962
 40
1.000000
 50
0.000000
 51
90.000000
  0
ARC
  8
0
 10
3.500000
 20
-19.888962
 40
1.000000
 50
90.000000
 51
180.000000
  0
ARC
  8
0
  6
DASHED
 10
-115.500000
 20
-85.908150
 40
7.727722
 50
270.000000
 51
306.496704
  0
ARC
  8
0
  6
DASHED
 10
-113.312874
 20
-89.103645
 40
3.860669
 50
308.610413
 51
344.581451
  0
ARC
  8
0
  6
DASHED
 10
-112.522591
 20
-89.393372
 40
3.022588
 50
345.893066
 51
14.106921
  0
ARC
  8
0
  6
DASHED
 10
-113.312874
 20
-89.683098
 40
3.860666
 50
15.418548
 51
30.001244
  0
ARC
  8
0
  6
DASHED
 10
-145.687134
 20
-89.683098
 40
3.860670
 50
149.982986
 51
164.581421
  0
ARC
  8
0
  6
DASHED
 10
-146.477402
 20
-89.393372
 40
3.022595
 50
165.893112
 51
194.106888
  0
ARC
  8
0
  6
DASHED
 10
-145.687134
 20
-89.103645
 40
3.860658
 50
195.418579
 51
231.389664
  0
ARC
  8
0
  6
DASHED
 10
-143.500000
 20
-85.908150
 40
7.727725
 50
233.503311
 51
270.000000
  0
ARC
  8
0
 10
-143.500000
 20
-92.878593
 40
7.727722
 50
90.000000
 51
126.496689
  0
ARC
  8
0
 10
-145.687134
 20
-89.683098
 40
3.860665
 50
128.610336
 51
149.982986
  0
ARC
  8
0
 10
-113.312874
 20
-89.683098
 40
3.860664
 50
30.001244
 51
51.389580
  0
ARC
  8
0
 10
-115.500000
 20
-92.878593
 40
7.727725
 50
53.503311
 51
90.000000
  0
POLYLINE
  8
0
 66
     1
  0
VERTEX
  8
0
 10
-143.500000
 20
-90.751862
  0
VERTEX
  8
0
 10
-144.247955
 20
-90.704803
  0
VERTEX
  8
0
 10
-144.990952
 20
-90.589500
  0
VERTEX
  8
0
 10
-145.587845
 20
-90.445984
  0
VERTEX
  8
0
 10
-145.981232
 20
-90.315392
  0
VERTEX
  8
0
 10
-146.404709
 20
-90.140106
  0
VERTEX
  8
0
 10
-146.925674
 20
-89.879593
  0
VERTEX
  8
0
 10
-147.468597
 20
-89.528351
  0
VERTEX
  8
0
 10
-148.147095
 20
-88.948509
  0
VERTEX
  8
0
 10
-148.696106
 20
-88.304840
  0
VERTEX
  8
0
 10
-149.050491
 20
-87.708687
  0
VERTEX
  8
0
 10
-149.309433
 20
-87.081329
  0
VERTEX
  8
0
 10
-149.458069
 20
-86.456863
  0
VERTEX
  8
0
 10
-149.500000
 20
-85.857819
  0
VERTEX
  8
0
 10
-149.448914
 20
-85.409531
  0
VERTEX
  8
0
 10
-149.309433
 20
-84.960022
  0
VERTEX
  8
0
 10
-149.064529
 20
-84.503540
  0
VERTEX
  8
0
 10
-148.696106
 20
-84.062225
  0
VERTEX
  8
0
 10
-148.097458
 20
-83.553871
  0
VERTEX
  8
0
 10
-147.468597
 20
-83.164398
  0
VERTEX
  8
0
 10
-146.927490
 20
-82.911743
  0
VERTEX
  8
0
 10
-146.404709
 20
-82.715485
  0
VERTEX
  8
0
 10
-145.984634
 20
-82.589714
  0
VERTEX
  8
0
 10
-145.587845
 20
-82.491058
  0
VERTEX
  8
0
 10
-145.343384
 20
-82.438354
  0
VERTEX
  8
0
 10
-144.987961
 20
-82.378815
  0
VERTEX
  8
0
 10
-144.246033
 20
-82.294029
  0
VERTEX
  8
0
 10
-143.500000
 20
-82.266602
  0
SEQEND
  0
POLYLINE
  8
0
 66
     1
  0
VERTEX
  8
0
 10
-115.500000
 20
-90.751862
  0
VERTEX
  8
0
 10
-114.752052
 20
-90.704803
  0
VERTEX
  8
0
 10
-114.009048
 20
-90.589500
  0
VERTEX
  8
0
 10
-113.412155
 20
-90.445984
  0
VERTEX
  8
0
 10
-113.018768
 20
-90.315392
  0
VERTEX
  8
0
 10
-112.595291
 20
-90.140106
  0
VERTEX
  8
0
 10
-112.074326
 20
-89.879593
  0
VERTEX
  8
0
 10
-111.531403
 20
-89.528351
  0
VERTEX
  8
0
 10
-110.852905
 20
-88.948509
  0
VERTEX
  8
0
 10
-110.303894
 20
-88.304840
  0
VERTEX
  8
0
 10
-109.949501
 20
-87.708687
  0
VERTEX
  8
0
 10
-109.690567
 20
-87.081329
  0
VERTEX
  8
0
 10
-109.541931
 20
-86.456863
  0
VERTEX
  8
0
 10
-109.500000
 20
-85.857819
  0
VERTEX
  8
0
 10
-109.551094
 20
-85.409531
  0
VERTEX
  8
0
 10
-109.690567
 20
-84.960022
  0
VERTEX
  8
0
 10
-109.935463
 20
-84.503540
  0
VERTEX
  8
0
 10
-110.303894
 20
-84.062225
  0
VERTEX
  8
0
 10
-110.902550
 20
-83.553871
  0
VERTEX
  8
0
 10
-111.531403
 20
-83.164398
  0
VERTEX
  8
0
 10
-112.072517
 20
-82.911743
  0
VERTEX
  8
0
 10
-112.595291
 20
-82.715485
  0
VERTEX
  8
0
 10
-113.015373
 20
-82.589714
  0
VERTEX
  8
0
 10
-113.412155
 20
-82.491058
  0
VERTEX
  8
0
 10
-113.656624
 20
-82.438354
  0
VERTEX
  8
0
 10
-114.012039
 20
-82.378815
  0
VERTEX
  8
0
 10
-114.753967
 20
-82.294029
  0
VERTEX
  8
0
 10
-115.500000
 20
-82.266602
  0
SEQEND
  0
POLYLINE
  8
0
 66
     1
  0
VERTEX
  8
0
 10
66.500000
 20
-58.000000
  0
VERTEX
  8
0
 10
65.665077
 20
-58.213509
  0
VERTEX
  8
0
 10
64.861397
 20
-58.536228
  0
VERTEX
  8
0
 10
64.118103
 20
-58.947151
  0
VERTEX
  8
0
 10
63.478710
 20
-59.407547
  0
VERTEX
  8
0
 10
62.923370
 20
-59.949982
  0
VERTEX
  8
0
 10
62.496643
 20
-60.590031
  0
VERTEX
  8
0
 10
62.233746
 20
-61.314442
  0
VERTEX
  8
0
 10
62.115932
 20
-62.098221
  0
VERTEX
  8
0
 10
62.076630
 20
-62.999588
  0
VERTEX
  8
0
 10
62.065903
 20
-63.828243
  0
VERTEX
  8
0
 10
62.076107
 20
-64.640625
  0
VERTEX
  8
0
 10
62.113461
 20
-65.453934
  0
VERTEX
  8
0
 10
62.184174
 20
-66.285355
  0
VERTEX
  8
0
 10
62.295547
 20
-67.157852
  0
VERTEX
  8
0
 10
62.443573
 20
-68.023308
  0
VERTEX
  8
0
 10
62.628471
 20
-68.895981
  0
VERTEX
  8
0
 10
62.850464
 20
-69.790161
  0
VERTEX
  8
0
 10
63.128784
 20
-70.763107
  0
VERTEX
  8
0
 10
63.445930
 20
-71.740921
  0
VERTEX
  8
0
 10
63.782253
 20
-72.674316
  0
VERTEX
  8
0
 10
64.118103
 20
-73.514023
  0
VERTEX
  8
0
 10
64.513161
 20
-74.393257
  0
VERTEX
  8
0
 10
64.941582
 20
-75.257011
  0
VERTEX
  8
0
 10
65.365356
 20
-76.033104
  0
VERTEX
  8
0
 10
65.724373
 20
-76.631538
  0
VERTEX
  8
0
 10
66.102943
 20
-77.217720
  0
VERTEX
  8
0
 10
66.500000
 20
-77.791336
  0
SEQEND
  0
POLYLINE
  8
0
 66
     1
  0
VERTEX
  8
0
 10
-71.045456
 20
-28.000000
  0
VERTEX
  8
0
 10
-71.347809
 20
-28.568438
  0
VERTEX
  8
0
 10
-71.662720
 20
-29.156258
  0
VERTEX
  8
0
 10
-71.994972
 20
-29.772427
  0
VERTEX
  8
0
 10
-72.374817
 20
-30.470566
  0
VERTEX
  8
0
 10
-72.740189
 20
-31.136707
  0
VERTEX
  8
0
 10
-73.107849
 20
-31.801584
  0
VERTEX
  8
0
 10
-73.464905
 20
-32.442017
  0
VERTEX
  8
0
 10
-73.792709
 20
-33.025204
  0
VERTEX
  8
0
 10
-74.122452
 20
-33.607304
  0
VERTEX
  8
0
 10
-74.457642
 20
-34.194427
  0
VERTEX
  8
0
 10
-74.803032
 20
-34.794704
  0
VERTEX
  8
0
 10
-75.150490
 20
-35.393787
  0
VERTEX
  8
0
 10
-75.500000
 20
-35.991669
  0
SEQEND
  0
POLYLINE
  8
0
 66
     1
  0
VERTEX
  8
0
 10
-23.335686
 20
-163.794205
  0
VERTEX
  8
0
 10
-22.572191
 20
-164.471710
  0
VERTEX
  8
0
 10
-21.809874
 20
-165.201401
  0
VERTEX
  8
0
 10
-21.056231
 20
-165.971619
  0
VERTEX
  8
0
 10
-20.318756
 20
-166.770706
  0
VERTEX
  8
0
 10
-19.604948
 20
-167.587021
  0
VERTEX
  8
0
 10
-18.922302
 20
-168.408875
  0
VERTEX
  8
0
 10
-18.278316
 20
-169.224655
  0
VERTEX
  8
0
 10
-17.680487
 20
-170.022675
  0
VERTEX
  8
0
 10
-17.136309
 20
-170.791275
  0
VERTEX
  8
0
 10
-16.653278
 20
-171.518814
  0
VERTEX
  8
0
 10
-16.238892
 20
-172.193634
  0
VERTEX
  8
0
 10
-15.798197
 20
-172.974640
  0
VERTEX
  8
0
 10
-15.374249
 20
-173.780304
  0
VERTEX
  8
0
 10
-14.973073
 20
-174.594131
  0
VERTEX
  8
0
 10
-14.600698
 20
-175.399704
  0
VERTEX
  8
0
 10
-14.263145
 20
-176.180573
  0
VERTEX
  8
0
 10
-13.966446
 20
-176.920258
  0
VERTEX
  8
0
 10
-13.678016
 20
-177.699722
  0
VERTEX
  8
0
 10
-13.396970
 20
-178.505112
  0
VERTEX
  8
0
 10
-13.123770
 20
-179.315979
  0
VERTEX
  8
0
 10
-12.858875
 20
-180.111832
  0
VERTEX
  8
0
 10
-12.602745
 20
-180.872253
  0
VERTEX
  8
0
 10
-12.228943
 20
-181.789673
  0
VERTEX
  8
0
 10
-11.971376
 20
-182.677368
  0
VERTEX
  8
0
 10
-12.081398
 20
-183.793304
  0
VERTEX
  8
0
 10
-12.500321
 20
-184.480164
  0
VERTEX
  8
0
 10
-13.245867
 20
-184.977875
  0
VERTEX
  8
0
 10
-14.229939
 20
-185.307724
  0
VERTEX
  8
0
 10
-15.364446
 20
-185.490982
  0
VERTEX
  8
0
 10
-16.561291
 20
-185.548935
  0
VERTEX
  8
0
 10
-17.732384
 20
-185.502838
  0
VERTEX
  8
0
 10
-18.789627
 20
-185.373993
  0
SEQEND
  0
POLYLINE
  8
0
 66
     1
  0
VERTEX
  8
0
 10
66.500000
 20
-142.000000
  0
VERTEX
  8
0
 10
65.665077
 20
-141.786499
  0
VERTEX
  8
0
 10
64.861397
 20
-141.463776
  0
VERTEX
  8
0
 10
64.118103
 20
-141.052856
  0
VERTEX
  8
0
 10
63.478710
 20
-140.592453
  0
VERTEX
  8
0
 10
62.923370
 20
-140.050018
  0
VERTEX
  8
0
 10
62.496643
 20
-139.409973
  0
VERTEX
  8
0
 10
62.233746
 20
-138.685562
  0
VERTEX
  8
0
 10
62.115932
 20
-137.901779
  0
VERTEX
  8
0
 10
62.076630
 20
-137.000412
  0
VERTEX
  8
0
 10
62.065903
 20
-136.171753
  0
VERTEX
  8
0
 10
62.076107
 20
-135.359375
  0
VERTEX
  8
0
 10
62.113461
 20
-134.546066
  0
VERTEX
  8
0
 10
62.184174
 20
-133.714645
  0
VERTEX
  8
0
 10
62.295547
 20
-132.842148
  0
VERTEX
  8
0
 10
62.443573
 20
-131.976700
  0
VERTEX
  8
0
 10
62.628471
 20
-131.104019
  0
VERTEX
  8
0
 10
62.850464
 20
-130.209839
  0
VERTEX
  8
0
 10
63.128784
 20
-129.236893
  0
VERTEX
  8
0
 10
63.445930
 20
-128.259079
  0
VERTEX
  8
0
 10
63.782253
 20
-127.325684
  0
VERTEX
  8
0
 10
64.118103
 20
-126.485977
  0
VERTEX
  8
0
 10
64.513161
 20
-125.606743
  0
VERTEX
  8
0
 10
64.941582
 20
-124.742989
  0
VERTEX
  8
0
 10
65.365356
 20
-123.966896
  0
VERTEX
  8
0
 10
65.724373
 20
-123.368462
  0
VERTEX
  8
0
 10
66.102943
 20
-122.782280
  0
VERTEX
  8
0
 10
66.500000
 20
-122.208664
  0
SEQEND
  0
POLYLINE
  8
0
 66
     1
  0
VERTEX
  8
0
 10
-71.045456
 20
-172.000000
  0
VERTEX
  8
0
 10
-71.347809
 20
-171.431564
  0
VERTEX
  8
0
 10
-71.662720
 20
-170.843750
  0
VERTEX
  8
0
 10
-71.994972
 20
-170.227570
  0
VERTEX
  8
0
 10
-72.374817
 20
-169.529434
  0
VERTEX
  8
0
 10
-72.740189
 20
-168.863297
  0
VERTEX
  8
0
 10
-73.107849
 20
-168.198410
  0
VERTEX
  8
0
 10
-73.464905
 20
-167.557983
  0
VERTEX
  8
0
 10
-73.792709
 20
-166.974792
  0
VERTEX
  8
0
 10
-74.122452
 20
-166.392700
  0
VERTEX
  8
0
 10
-74.457642
 20
-165.805573
  0
VERTEX
  8
0
 10
-74.803032
 20
-165.205292
  0
VERTEX
  8
0
 10
-75.150490
 20
-164.606216
  0
VERTEX
  8
0
 10
-75.500000
 20
-164.008331
  0
SEQEND
  0
POLYLINE
  8
0
 66
     1
  0
VERTEX
  8
0
 10
14.335686
 20
-163.794205
  0
VERTEX
  8
0
 10
13.572191
 20
-164.471710
  0
VERTEX
  8
0
 10
12.809874
 20
-165.201401
  0
VERTEX
  8
0
 10
12.056230
 20
-165.971619
  0
VERTEX
  8
0
 10
11.318756
 20
-166.770706
  0
VERTEX
  8
0
 10
10.604948
 20
-167.587021
  0
VERTEX
  8
0
 10
9.922303
 20
-168.408875
  0
VERTEX
  8
0
 10
9.278317
 20
-169.224655
  0
VERTEX
  8
0
 10
8.680487
 20
-170.022675
  0
VERTEX
  8
0
 10
8.136308
 20
-170.791275
  0
VERTEX
  8
0
 10
7.653277
 20
-171.518814
  0
VERTEX
  8
0
 10
7.238892
 20
-172.193634
  0
VERTEX
  8
0
 10
6.798197
 20
-172.974640
  0
VERTEX
  8
0
 10
6.374249
 20
-173.780304
  0
VERTEX
  8
0
 10
5.973073
 20
-174.594131
  0
VERTEX
  8
0
 10
5.600697
 20
-175.399704
  0
VERTEX
  8
0
 10
5.263146
 20
-176.180573
  0
VERTEX
  8
0
 10
4.966446
 20
-176.920258
  0
VERTEX
  8
0
 10
4.678015
 20
-177.699722
  0
VERTEX
  8
0
 10
4.396970
 20
-178.505112
  0
VERTEX
  8
0
 10
4.123770
 20
-179.315979
  0
VERTEX
  8
0
 10
3.858875
 20
-180.111832
  0
VERTEX
  8
0
 10
3.602745
 20
-180.872253
  0
VERTEX
  8
0
 10
3.228942
 20
-181.789673
  0
VERTEX
  8
0
 10
2.971377
 20
-182.677368
  0
VERTEX
  8
0
 10
3.081398
 20
-183.793304
  0
VERTEX
  8
0
 10
3.500322
 20
-184.480164
  0
VERTEX
  8
0
 10
4.245867
 20
-184.977875
  0
VERTEX
  8
0
 10
5.229939
 20
-185.307724
  0
VERTEX
  8
0
 10
6.364445
 20
-185.490982
  0
VERTEX
  8
0
 10
7.561291
 20
-185.548935
  0
VERTEX
  8
0
 10
8.732384
 20
-185.502838
  0
VERTEX
  8
0
 10
9.789627
 20
-185.373993
  0
SEQEND
  0
POLYLINE
  8
0
 66
     1
  0
VERTEX
  8
0
 10
-75.500000
 20
-58.000000
  0
VERTEX
  8
0
 10
-74.665077
 20
-58.213509
  0
VERTEX
  8
0
 10
-73.861397
 20
-58.536228
  0
VERTEX
  8
0
 10
-73.118103
 20
-58.947151
  0
VERTEX
  8
0
 10
-72.478706
 20
-59.407547
  0
VERTEX
  8
0
 10
-71.923370
 20
-59.949982
  0
VERTEX
  8
0
 10
-71.496643
 20
-60.590031
  0
VERTEX
  8
0
 10
-71.233742
 20
-61.314442
  0
VERTEX
  8
0
 10
-71.115929
 20
-62.098221
  0
VERTEX
  8
0
 10
-71.076630
 20
-62.999588
  0
VERTEX
  8
0
 10
-71.065903
 20
-63.828243
  0
VERTEX
  8
0
 10
-71.076103
 20
-64.640625
  0
VERTEX
  8
0
 10
-71.113457
 20
-65.453934
  0
VERTEX
  8
0
 10
-71.184174
 20
-66.285355
  0
VERTEX
  8
0
 10
-71.295547
 20
-67.157852
  0
VERTEX
  8
0
 10
-71.443573
 20
-68.023308
  0
VERTEX
  8
0
 10
-71.628471
 20
-68.895981
  0
VERTEX
  8
0
 10
-71.850464
 20
-69.790161
  0
VERTEX
  8
0
 10
-72.128784
 20
-70.763107
  0
VERTEX
  8
0
 10
-72.445930
 20
-71.740921
  0
VERTEX
  8
0
 10
-72.782257
 20
-72.674316
  0
VERTEX
  8
0
 10
-73.118103
 20
-73.514023
  0
VERTEX
  8
0
 10
-73.513161
 20
-74.393257
  0
VERTEX
  8
0
 10
-73.941582
 20
-75.257011
  0
VERTEX
  8
0
 10
-74.365356
 20
-76.033104
  0
VERTEX
  8
0
 10
-74.724373
 20
-76.631538
  0
VERTEX
  8
0
 10
-75.102943
 20
-77.217720
  0
VERTEX
  8
0
 10
-75.500000
 20
-77.791336
  0
SEQEND
  0
POLYLINE
  8
0
 66
     1
  0
VERTEX
  8
0
 10
62.045456
 20
-28.000000
  0
VERTEX
  8
0
 10
62.347809
 20
-28.568438
  0
VERTEX
  8
0
 10
62.662720
 20
-29.156258
  0
VERTEX
  8
0
 10
62.994972
 20
-29.772427
  0
VERTEX
  8
0
 10
63.374817
 20
-30.470566
  0
VERTEX
  8
0
 10
63.740185
 20
-31.136707
  0
VERTEX
  8
0
 10
64.107849
 20
-31.801584
  0
VERTEX
  8
0
 10
64.464905
 20
-32.442017
  0
VERTEX
  8
0
 10
64.792709
 20
-33.025204
  0
VERTEX
  8
0
 10
65.122452
 20
-33.607304
  0
VERTEX
  8
0
 10
65.457642
 20
-34.194427
  0
VERTEX
  8
0
 10
65.803032
 20
-34.794704
  0
VERTEX
  8
0
 10
66.150490
 20
-35.393787
  0
VERTEX
  8
0
 10
66.500000
 20
-35.991669
  0
SEQEND
  0
POLYLINE
  8
0
 66
     1
  0
VERTEX
  8
0
 10
-75.500000
 20
-142.000000
  0
VERTEX
  8
0
 10
-74.665077
 20
-141.786499
  0
VERTEX
  8
0
 10
-73.861397
 20
-141.463776
  0
VERTEX
  8
0
 10
-73.118103
 20
-141.052856
  0
VERTEX
  8
0
 10
-72.478706
 20
-140.592453
  0
VERTEX
  8
0
 10
-71.923370
 20
-140.050018
  0
VERTEX
  8
0
 10
-71.496643
 20
-139.409973
  0
VERTEX
  8
0
 10
-71.233742
 20
-138.685562
  0
VERTEX
  8
0
 10
-71.115929
 20
-137.901779
  0
VERTEX
  8
0
 10
-71.076630
 20
-137.000412
  0
VERTEX
  8
0
 10
-71.065903
 20
-136.171753
  0
VERTEX
  8
0
 10
-71.076103
 20
-135.359375
  0
VERTEX
  8
0
 10
-71.113457
 20
-134.546066
  0
VERTEX
  8
0
 10
-71.184174
 20
-133.714645
  0
VERTEX
  8
0
 10
-71.295547
 20
-132.842148
  0
VERTEX
  8
0
 10
-71.443573
 20
-131.976700
  0
VERTEX
  8
0
 10
-71.628471
 20
-131.104019
  0
VERTEX
  8
0
 10
-71.850464
 20
-130.209839
  0
VERTEX
  8
0
 10
-72.128784
 20
-129.236893
  0
VERTEX
  8
0
 10
-72.445930
 20
-128.259079
  0
VERTEX
  8
0
 10
-72.782257
 20
-127.325684
  0
VERTEX
  8
0
 10
-73.118103
 20
-126.485977
  0
VERTEX
  8
0
 10
-73.513161
 20
-125.606743
  0
VERTEX
  8
0
 10
-73.941582
 20
-124.742989
  0
VERTEX
  8
0
 10
-74.365356
 20
-123.966896
  0
VERTEX
  8
0
 10
-74.724373
 20
-123.368462
  0
VERTEX
  8
0
 10
-75.102943
 20
-122.782280
  0
VERTEX
  8
0
 10
-75.500000
 20
-122.208664
  0
SEQEND
  0
POLYLINE
  8
0
 66
     1
  0
VERTEX
  8
0
 10
62.045456
 20
-172.000000
  0
VERTEX
  8
0
 10
62.347809
 20
-171.431564
  0
VERTEX
  8
0
 10
62.662720
 20
-170.843750
  0
VERTEX
  8
0
 10
62.994972
 20
-170.227570
  0
VERTEX
  8
0
 10
63.374817
 20
-169.529434
  0
VERTEX
  8
0
 10
63.740185
 20
-168.863297
  0
VERTEX
  8
0
 10
64.107849
 20
-168.198410
  0
VERTEX
  8
0
 10
64.464905
 20
-167.557983
  0
VERTEX
  8
0
 10
64.792709
 20
-166.974792
  0
VERTEX
  8
0
 10
65.122452
 20
-166.392700
  0
VERTEX
  8
0
 10
65.457642
 20
-165.805573
  0
VERTEX
  8
0
 10
65.803032
 20
-165.205292
  0
VERTEX
  8
0
 10
66.150490
 20
-164.606216
  0
VERTEX
  8
0
 10
66.500000
 20
-164.008331
  0
SEQEND
  0
POLYLINE
  8
0
 66
     1
  0
VERTEX
  8
0
 10
14.335678
 20
-86.294151
  0
VERTEX
  8
0
 10
13.579887
 20
-86.770416
  0
VERTEX
  8
0
 10
12.785172
 20
-87.249130
  0
VERTEX
  8
0
 10
11.980162
 20
-87.710571
  0
VERTEX
  8
0
 10
11.193481
 20
-88.135033
  0
VERTEX
  8
0
 10
10.453761
 20
-88.502792
  0
VERTEX
  8
0
 10
9.789627
 20
-88.794151
  0
VERTEX
  8
0
 10
8.917310
 20
-89.125214
  0
VERTEX
  8
0
 10
8.049808
 20
-89.464104
  0
VERTEX
  8
0
 10
7.238892
 20
-89.857780
  0
VERTEX
  8
0
 10
6.548681
 20
-90.309570
  0
VERTEX
  8
0
 10
5.923671
 20
-90.853279
  0
VERTEX
  8
0
 10
5.339409
 20
-91.522659
  0
VERTEX
  8
0
 10
4.902808
 20
-92.164696
  0
VERTEX
  8
0
 10
4.531320
 20
-92.851486
  0
VERTEX
  8
0
 10
4.218910
 20
-93.561165
  0
VERTEX
  8
0
 10
3.959541
 20
-94.271881
  0
VERTEX
  8
0
 10
3.687959
 20
-95.171432
  0
VERTEX
  8
0
 10
3.469695
 20
-96.082558
  0
VERTEX
  8
0
 10
3.299629
 20
-97.021103
  0
VERTEX
  8
0
 10
3.174563
 20
-98.009010
  0
VERTEX
  8
0
 10
3.101257
 20
-99.002983
  0
VERTEX
  8
0
 10
3.077347
 20
-100.000000
  0
VERTEX
  8
0
 10
3.102159
 20
-101.002861
  0
VERTEX
  8
0
 10
3.176367
 20
-102.002693
  0
VERTEX
  8
0
 10
3.299629
 20
-102.978897
  0
VERTEX
  8
0
 10
3.464958
 20
-103.896950
  0
VERTEX
  8
0
 10
3.681192
 20
-104.805138
  0
VERTEX
  8
0
 10
3.959541
 20
-105.728119
  0
VERTEX
  8
0
 10
4.232378
 20
-106.465790
  0
VERTEX
  8
0
 10
4.557339
 20
-107.190735
  0
VERTEX
  8
0
 10
4.928368
 20
-107.871674
  0
VERTEX
  8
0
 10
5.339409
 20
-108.477341
  0
VERTEX
  8
0
 10
5.891053
 20
-109.109901
  0
VERTEX
  8
0
 10
6.520904
 20
-109.665474
  0
VERTEX
  8
0
 10
7.238892
 20
-110.142220
  0
VERTEX
  8
0
 10
7.981514
 20
-110.511208
  0
VERTEX
  8
0
 10
8.757787
 20
-110.812317
  0
VERTEX
  8
0
 10
9.789627
 20
-111.205849
  0
VERTEX
  8
0
 10
10.584361
 20
-111.549416
  0
VERTEX
  8
0
 10
11.360650
 20
-111.931801
  0
VERTEX
  8
0
 10
12.121210
 20
-112.345818
  0
VERTEX
  8
0
 10
12.868757
 20
-112.784286
  0
VERTEX
  8
0
 10
13.606008
 20
-113.240028
  0
VERTEX
  8
0
 10
14.335678
 20
-113.705849
  0
SEQEND
  0
POLYLINE
  8
0
 66
     1
  0
VERTEX
  8
0
 10
-23.335678
 20
-86.294151
  0
VERTEX
  8
0
 10
-22.579887
 20
-86.770416
  0
VERTEX
  8
0
 10
-21.785173
 20
-87.249130
  0
VERTEX
  8
0
 10
-20.980162
 20
-87.710571
  0
VERTEX
  8
0
 10
-20.193481
 20
-88.135033
  0
VERTEX
  8
0
 10
-19.453760
 20
-88.502792
  0
VERTEX
  8
0
 10
-18.789627
 20
-88.794151
  0
VERTEX
  8
0
 10
-17.917309
 20
-89.125214
  0
VERTEX
  8
0
 10
-17.049807
 20
-89.464104
  0
VERTEX
  8
0
 10
-16.238892
 20
-89.857780
  0
VERTEX
  8
0
 10
-15.548681
 20
-90.309570
  0
VERTEX
  8
0
 10
-14.923671
 20
-90.853279
  0
VERTEX
  8
0
 10
-14.339409
 20
-91.522659
  0
VERTEX
  8
0
 10
-13.902808
 20
-92.164696
  0
VERTEX
  8
0
 10
-13.531320
 20
-92.851486
  0
VERTEX
  8
0
 10
-13.218909
 20
-93.561165
  0
VERTEX
  8
0
 10
-12.959541
 20
-94.271881
  0
VERTEX
  8
0
 10
-12.687959
 20
-95.171432
  0
VERTEX
  8
0
 10
-12.469695
 20
-96.082558
  0
VERTEX
  8
0
 10
-12.299629
 20
-97.021103
  0
VERTEX
  8
0
 10
-12.174562
 20
-98.009010
  0
VERTEX
  8
0
 10
-12.101256
 20
-99.002983
  0
VERTEX
  8
0
 10
-12.077347
 20
-100.000000
  0
VERTEX
  8
0
 10
-12.102159
 20
-101.002861
  0
VERTEX
  8
0
 10
-12.176367
 20
-102.002693
  0
VERTEX
  8
0
 10
-12.299629
 20
-102.978897
  0
VERTEX
  8
0
 10
-12.464958
 20
-103.896950
  0
VERTEX
  8
0
 10
-12.681191
 20
-104.805138
  0
VERTEX
  8
0
 10
-12.959541
 20
-105.728119
  0
VERTEX
  8
0
 10
-13.232378
 20
-106.465790
  0
VERTEX
  8
0
 10
-13.557339
 20
-107.190735
  0
VERTEX
  8
0
 10
-13.928368
 20
-107.871674
  0
VERTEX
  8
0
 10
-14.339409
 20
-108.477341
  0
VERTEX
  8
0
 10
-14.891053
 20
-109.109901
  0
VERTEX
  8
0
 10
-15.520905
 20
-109.665474
  0
VERTEX
  8
0
 10
-16.238892
 20
-110.142220
  0
VERTEX
  8
0
 10
-16.981514
 20
-110.511208
  0
VERTEX
  8
0
 10
-17.757786
 20
-110.812317
  0
VERTEX
  8
0
 10
-18.789627
 20
-111.205849
  0
VERTEX
  8
0
 10
-19.584362
 20
-111.549416
  0
VERTEX
  8
0
 10
-20.360651
 20
-111.931801
  0
VERTEX
  8
0
 10
-21.121210
 20
-112.345818
  0
VERTEX
  8
0
 10
-21.868757
 20
-112.784286
  0
VERTEX
  8
0
 10
-22.606009
 20
-113.240028
  0
VERTEX
  8
0
 10
-23.335678
 20
-113.705849
  0
SEQEND
  0
POINT
  8
0
 10
-290.000000
 20
140.000000
  0
POINT
  8
0
 10
-200.000000
 20
140.000000
  0
LINE
  8
0
 10
-279.857788
 20
50.782402
 11
-278.623779
 21
55.387756
  0
LINE
  8
0
 10
-300.142242
 20
50.782394
 11
-301.376221
 21
55.387749
  0
LINE
  8
0
 10
-279.857788
 20
229.217590
 11
-278.623779
 21
224.612244
  0
LINE
  8
0
 10
-300.142212
 20
229.217590
 11
-301.376190
 21
224.612244
  0
LINE
  8
0
 10
-357.588196
 20
192.158234
 11
-362.193604
 21
193.392242
  0
LINE
  8
0
 10
-368.964478
 20
172.454071
 11
-372.335815
 21
175.825394
  0
LINE
  8
0
 10
-368.964478
 20
107.546036
 11
-372.335846
 21
104.174652
  0
LINE
  8
0
 10
-357.588318
 20
87.841812
 11
-362.193634
 21
86.607819
  0
LINE
  8
0
 10
-272.625854
 20
88.794098
 11
-271.591187
 21
84.932610
  0
LINE
  8
0
 10
-254.341537
 20
99.350464
 11
-251.514786
 21
96.523712
  0
LINE
  8
0
 10
-236.967285
 20
129.443573
 11
-233.105835
 21
128.408890
  0
LINE
  8
0
 10
-236.967270
 20
150.556442
 11
-233.105835
 21
151.591110
  0
LINE
  8
0
 10
-251.514694
 20
183.476227
 11
-254.341492
 21
180.649445
  0
LINE
  8
0
 10
-271.591095
 20
195.067337
 11
-272.625763
 21
191.205902
  0
LINE
  8
0
 10
-308.408844
 20
195.067368
 11
-307.374176
 21
191.205902
  0
LINE
  8
0
 10
-328.485260
 20
183.476257
 11
-325.658478
 21
180.649506
  0
LINE
  8
0
 10
-346.894165
 20
151.591171
 11
-343.032684
 21
150.556488
  0
LINE
  8
0
 10
-346.894165
 20
128.408951
 11
-343.032745
 21
129.443604
  0
LINE
  8
0
 10
-325.658539
 20
99.350586
 11
-328.485352
 21
96.523788
  0
LINE
  8
0
 10
-307.374268
 20
88.794098
 11
-308.408936
 21
84.932678
  0
LINE
  8
0
 10
-277.455475
 20
92.500000
 11
-302.544647
 21
92.500000
  0
LINE
  8
0
 10
-277.455383
 20
187.500000
 11
-302.544556
 21
187.500000
  0
LINE
  8
0
 10
-324.863892
 20
174.613968
 11
-337.408478
 21
152.886108
  0
LINE
  8
0
 10
-242.591507
 20
127.113937
 11
-255.136139
 21
105.386002
  0
LINE
  8
0
 10
-255.136078
 20
174.613907
 11
-242.591492
 21
152.886078
  0
LINE
  8
0
 10
-337.408539
 20
127.113976
 11
-324.863953
 21
105.386124
  0
LINE
  8
0
 10
-367.500000
 20
168.918533
 11
-367.500000
 21
111.081573
  0
LINE
  8
0
 10
-353.794189
 20
87.342316
 11
-303.705841
 21
58.423790
  0
LINE
  8
0
 10
-276.294159
 20
221.576202
 11
-231.423065
 21
195.669876
  0
LINE
  8
0
 10
-303.705811
 20
221.576233
 11
-353.794098
 21
192.657745
  0
LINE
  8
0
 10
-231.423065
 20
84.330124
 11
-276.294159
 21
58.423775
  0
LINE
  8
0
 10
-208.888947
 20
85.000000
 11
-228.923050
 21
85.000000
  0
LINE
  8
0
 10
-208.888977
 20
195.000000
 11
-228.923065
 21
195.000000
  0
LINE
  8
0
 10
-200.000000
 20
178.781448
 11
-200.000000
 21
101.218567
  0
LINE
  8
0
  6
CENTER
 10
-290.000000
 20
248.000000
 11
-290.000000
 21
32.000000
  0
LINE
  8
0
  6
CENTER
 10
-182.000000
 20
140.000000
 11
-398.000000
 21
140.000000
  0
LINE
  8
0
 10
-290.000000
 20
59.273506
 11
-295.000000
 21
56.386757
  0
LINE
  8
0
 10
-295.000000
 20
56.386749
 11
-295.000000
 21
50.613251
  0
LINE
  8
0
 10
-290.000000
 20
47.726501
 11
-295.000000
 21
50.613251
  0
LINE
  8
0
 10
-285.000000
 20
50.613251
 11
-290.000000
 21
47.726501
  0
LINE
  8
0
 10
-285.000000
 20
56.386749
 11
-285.000000
 21
50.613251
  0
LINE
  8
0
 10
-290.000000
 20
59.273506
 11
-285.000000
 21
56.386757
  0
LINE
  8
0
 10
-215.088806
 20
102.523499
 11
-220.088806
 21
99.636749
  0
LINE
  8
0
 10
-220.088806
 20
99.636749
 11
-220.088806
 21
93.863251
  0
LINE
  8
0
 10
-215.088806
 20
90.976501
 11
-220.088806
 21
93.863251
  0
LINE
  8
0
 10
-210.088806
 20
93.863251
 11
-215.088806
 21
90.976494
  0
LINE
  8
0
 10
-210.088806
 20
99.636749
 11
-210.088806
 21
93.863251
  0
LINE
  8
0
 10
-215.088806
 20
102.523499
 11
-210.088806
 21
99.636749
  0
LINE
  8
0
 10
-215.088806
 20
189.023499
 11
-220.088806
 21
186.136749
  0
LINE
  8
0
 10
-220.088806
 20
186.136749
 11
-220.088806
 21
180.363251
  0
LINE
  8
0
 10
-215.088806
 20
177.476486
 11
-220.088806
 21
180.363251
  0
LINE
  8
0
 10
-210.088806
 20
180.363235
 11
-215.088806
 21
177.476486
  0
LINE
  8
0
 10
-210.088806
 20
186.136749
 11
-210.088806
 21
180.363251
  0
LINE
  8
0
 10
-215.088806
 20
189.023499
 11
-210.088806
 21
186.136749
  0
LINE
  8
0
 10
-290.000000
 20
232.273499
 11
-295.000000
 21
229.386749
  0
LINE
  8
0
 10
-295.000000
 20
229.386749
 11
-295.000000
 21
223.613251
  0
LINE
  8
0
 10
-290.000000
 20
220.726501
 11
-295.000000
 21
223.613251
  0
LINE
  8
0
 10
-285.000000
 20
223.613251
 11
-290.000000
 21
220.726501
  0
LINE
  8
0
 10
-285.000000
 20
229.386749
 11
-285.000000
 21
223.613251
  0
LINE
  8
0
 10
-290.000000
 20
232.273499
 11
-285.000000
 21
229.386749
  0
LINE
  8
0
 10
-364.911194
 20
189.023529
 11
-369.911194
 21
186.136780
  0
LINE
  8
0
 10
-369.911194
 20
186.136780
 11
-369.911194
 21
180.363266
  0
LINE
  8
0
 10
-364.911194
 20
177.476517
 11
-369.911194
 21
180.363266
  0
LINE
  8
0
 10
-359.911194
 20
180.363266
 11
-364.911194
 21
177.476517
  0
LINE
  8
0
 10
-359.911194
 20
186.136780
 11
-359.911194
 21
180.363266
  0
LINE
  8
0
 10
-364.911194
 20
189.023529
 11
-359.911194
 21
186.136780
  0
LINE
  8
0
 10
-364.911224
 20
102.523537
 11
-369.911224
 21
99.636787
  0
LINE
  8
0
 10
-369.911224
 20
99.636787
 11
-369.911224
 21
93.863281
  0
LINE
  8
0
 10
-364.911224
 20
90.976532
 11
-369.911224
 21
93.863281
  0
LINE
  8
0
 10
-359.911224
 20
93.863281
 11
-364.911224
 21
90.976532
  0
LINE
  8
0
 10
-359.911224
 20
99.636787
 11
-359.911224
 21
93.863281
  0
LINE
  8
0
 10
-364.911224
 20
102.523537
 11
-359.911224
 21
99.636787
  0
CIRCLE
  8
0
 10
-290.000000
 20
140.000000
 40
20.000000
  0
CIRCLE
  8
0
 10
-290.000000
 20
140.000000
 40
19.200001
  0
CIRCLE
  8
0
 10
-290.000000
 20
140.000000
 40
35.000000
  0
ARC
  8
0
 10
-290.000000
 20
140.000000
 40
64.999992
 50
250.021118
 51
289.978760
  0
CIRCLE
  8
0
 10
-290.000000
 20
140.000000
 40
76.000000
  0
CIRCLE
  8
0
 10
-290.000000
 20
140.000000
 40
45.000000
  0
CIRCLE
  8
0
 10
-260.000061
 20
88.038437
 40
6.000000
  0
CIRCLE
  8
0
 10
-230.000000
 20
140.000000
 40
6.000000
  0
CIRCLE
  8
0
 10
-259.999969
 20
191.961517
 40
6.000000
  0
CIRCLE
  8
0
 10
-319.999969
 20
191.961548
 40
6.000000
  0
CIRCLE
  8
0
 10
-350.000000
 20
140.000046
 40
6.000000
  0
CIRCLE
  8
0
 10
-320.000061
 20
88.038506
 40
6.000000
  0
CIRCLE
  8
0
 10
-260.000061
 20
88.038437
 40
5.125000
  0
CIRCLE
  8
0
 10
-230.000000
 20
140.000000
 40
5.125000
  0
CIRCLE
  8
0
 10
-259.999969
 20
191.961517
 40
5.125000
  0
CIRCLE
  8
0
 10
-319.999969
 20
191.961548
 40
5.125000
  0
CIRCLE
  8
0
 10
-350.000000
 20
140.000046
 40
5.125000
  0
CIRCLE
  8
0
 10
-320.000061
 20
88.038506
 40
5.125000
  0
ARC
  8
0
 10
-260.000061
 20
88.038437
 40
12.000017
 50
195.000015
 51
45.000053
  0
ARC
  8
0
 10
-230.000000
 20
140.000000
 40
12.000002
 50
254.999969
 51
104.999962
  0
ARC
  8
0
 10
-259.999969
 20
191.961517
 40
12.000002
 50
314.999939
 51
164.999985
  0
ARC
  8
0
 10
-319.999969
 20
191.961548
 40
12.000017
 50
15.000010
 51
225.000000
  0
ARC
  8
0
 10
-350.000000
 20
140.000046
 40
12.000002
 50
74.999969
 51
285.000031
  0
ARC
  8
0
 10
-320.000061
 20
88.038506
 40
11.999986
 50
134.999924
 51
345.000031
  0
ARC
  8
0
 10
-290.000000
 20
53.500000
 40
10.499990
 50
195.000000
 51
345.000031
  0
ARC
  8
0
 10
-290.000000
 20
226.500000
 40
10.499992
 50
15.000043
 51
164.999954
  0
ARC
  8
0
 10
-364.911194
 20
183.250031
 40
10.499989
 50
75.000038
 51
225.000000
  0
ARC
  8
0
 10
-364.911224
 20
96.750038
 40
10.500006
 50
134.999969
 51
284.999939
  0
ARC
  8
0
 10
-250.806000
 20
102.886002
 40
4.999997
 50
149.999985
 51
225.000000
  0
ARC
  8
0
 10
-238.261383
 20
124.613937
 40
5.000007
 50
74.999992
 51
149.999893
  0
ARC
  8
0
 10
-238.261368
 20
155.386078
 40
4.999997
 50
210.000015
 51
284.999847
  0
ARC
  8
0
 10
-250.805954
 20
177.113907
 40
5.000005
 50
135.000000
 51
210.000015
  0
ARC
  8
0
 10
-277.455383
 20
192.500000
 40
5.000000
 50
270.000000
 51
344.999939
  0
ARC
  8
0
 10
-302.544556
 20
192.500000
 40
4.999992
 50
195.000061
 51
270.000000
  0
ARC
  8
0
 10
-329.194031
 20
177.113968
 40
5.000010
 50
330.000061
 51
44.999878
  0
ARC
  8
0
 10
-341.738586
 20
155.386108
 40
4.999992
 50
254.999939
 51
329.999908
  0
ARC
  8
0
 10
-341.738647
 20
124.613976
 40
4.999988
 50
30.000181
 51
105.000031
  0
ARC
  8
0
 10
-329.194061
 20
102.886124
 40
4.999995
 50
314.999878
 51
30.000105
  0
ARC
  8
0
 10
-302.544647
 20
87.500000
 40
5.000000
 50
90.000000
 51
164.999939
  0
ARC
  8
0
 10
-277.455475
 20
87.500000
 40
4.999992
 50
15.000055
 51
90.000000
  0
ARC
  8
0
 10
-290.000000
 20
140.000000
 40
65.000000
 50
310.021088
 51
349.978851
  0
ARC
  8
0
 10
-290.000000
 20
140.000000
 40
65.000000
 50
10.021177
 51
49.978832
  0
ARC
  8
0
 10
-290.000000
 20
140.000000
 40
65.000008
 50
70.021141
 51
109.978775
  0
ARC
  8
0
 10
-290.000000
 20
140.000000
 40
65.000000
 50
130.021057
 51
169.978760
  0
ARC
  8
0
 10
-290.000000
 20
140.000000
 40
64.999992
 50
190.021118
 51
229.978790
  0
ARC
  8
0
 10
-273.794128
 20
54.093658
 40
5.000004
 50
119.999977
 51
165.000031
  0
ARC
  8
0
 10
-273.794128
 20
225.906342
 40
5.000022
 50
194.999969
 51
240.000076
  0
ARC
  8
0
 10
-306.205841
 20
225.906342
 40
4.999984
 50
300.000092
 51
344.999939
  0
ARC
  8
0
 10
-356.294128
 20
196.987869
 40
4.999999
 50
255.000320
 51
300.000336
  0
ARC
  8
0
 10
-372.500000
 20
168.918533
 40
5.000000
 50
0.000000
 51
45.000122
  0
ARC
  8
0
 10
-372.500000
 20
111.081573
 40
4.999995
 50
314.999878
 51
0.000000
  0
ARC
  8
0
 10
-356.294189
 20
83.012177
 40
5.000004
 50
60.000027
 51
105.000008
  0
ARC
  8
0
 10
-306.205841
 20
54.093658
 40
4.999992
 50
15.000055
 51
59.999981
  0
ARC
  8
0
 10
-228.923050
 20
80.000000
 40
5.000000
 50
90.000000
 51
119.999977
  0
ARC
  8
0
 10
-228.923065
 20
200.000000
 40
4.999997
 50
239.999985
 51
270.000000
  0
ARC
  8
0
 10
-290.000000
 20
140.000000
 40
98.000000
 50
23.311470
 51
336.688538
  0
CIRCLE
  8
0
 10
-290.000000
 20
53.500000
 40
9.000000
  0
CIRCLE
  8
0
 10
-215.088806
 20
96.750000
 40
9.000000
  0
CIRCLE
  8
0
 10
-215.088806
 20
183.250000
 40
9.000000
  0
CIRCLE
  8
0
 10
-290.000000
 20
226.500000
 40
9.000000
  0
CIRCLE
  8
0
 10
-364.911194
 20
183.250031
 40
9.000000
  0
CIRCLE
  8
0
 10
-364.911224
 20
96.750038
 40
9.000000
  0
CIRCLE
  8
0
 10
-290.000000
 20
53.500000
 40
7.800000
  0
CIRCLE
  8
0
 10
-215.088806
 20
96.750000
 40
7.800000
  0
CIRCLE
  8
0
 10
-215.088806
 20
183.250000
 40
7.800000
  0
CIRCLE
  8
0
 10
-290.000000
 20
226.500000
 40
7.800000
  0
CIRCLE
  8
0
 10
-364.911194
 20
183.250031
 40
7.800000
  0
CIRCLE
  8
0
 10
-364.911224
 20
96.750038
 40
7.800000
  0
POINT
  8
0
 10
348.000000
 20
140.000000
  0
POINT
  8
0
 10
250.000000
 20
140.000000
  0
LINE
  8
0
 10
239.857773
 20
229.217606
 11
238.623764
 21
224.612244
  0
LINE
  8
0
 10
260.142212
 20
229.217590
 11
261.376221
 21
224.612244
  0
LINE
  8
0
 10
239.857773
 20
50.782402
 11
238.623779
 21
55.387764
  0
LINE
  8
0
 10
260.142212
 20
50.782410
 11
261.376190
 21
55.387749
  0
LINE
  8
0
 10
317.588196
 20
87.841751
 11
322.193573
 21
86.607742
  0
LINE
  8
0
 10
328.964478
 20
107.545921
 11
332.335785
 21
104.174591
  0
LINE
  8
0
 10
328.964478
 20
172.453949
 11
332.335846
 21
175.825333
  0
LINE
  8
0
 10
317.588318
 20
192.158188
 11
322.193634
 21
193.392181
  0
LINE
  8
0
 10
232.625870
 20
191.205902
 11
231.591187
 21
195.067398
  0
LINE
  8
0
 10
214.341537
 20
180.649536
 11
211.514801
 21
183.476288
  0
LINE
  8
0
 10
196.967285
 20
150.556442
 11
193.105835
 21
151.591110
  0
LINE
  8
0
 10
196.967270
 20
129.443573
 11
193.105835
 21
128.408890
  0
LINE
  8
0
 10
211.514679
 20
96.523773
 11
214.341476
 21
99.350555
  0
LINE
  8
0
 10
231.591080
 20
84.932663
 11
232.625748
 21
88.794098
  0
LINE
  8
0
 10
268.408844
 20
84.932625
 11
267.374176
 21
88.794090
  0
LINE
  8
0
 10
288.485229
 20
96.523727
 11
285.658478
 21
99.350494
  0
LINE
  8
0
 10
306.894165
 20
128.408829
 11
303.032684
 21
129.443512
  0
LINE
  8
0
 10
306.894165
 20
151.591049
 11
303.032745
 21
150.556381
  0
LINE
  8
0
 10
285.658539
 20
180.649414
 11
288.485352
 21
183.476212
  0
LINE
  8
0
 10
267.374298
 20
191.205902
 11
268.408936
 21
195.067322
  0
LINE
  8
0
 10
237.455490
 20
187.500000
 11
262.544647
 21
187.500000
  0
LINE
  8
0
 10
237.455383
 20
92.500000
 11
262.544556
 21
92.500000
  0
LINE
  8
0
 10
284.863892
 20
105.386017
 11
297.408478
 21
127.113876
  0
LINE
  8
0
 10
202.591492
 20
152.886078
 11
215.136124
 21
174.614014
  0
LINE
  8
0
 10
215.136063
 20
105.386093
 11
202.591492
 21
127.113930
  0
LINE
  8
0
 10
297.408539
 20
152.886017
 11
284.863953
 21
174.613876
  0
LINE
  8
0
 10
327.500000
 20
111.081451
 11
327.500000
 21
168.918411
  0
LINE
  8
0
 10
313.794189
 20
192.657700
 11
263.705841
 21
221.576233
  0
LINE
  8
0
 10
236.294159
 20
58.423775
 11
191.423065
 21
84.330124
  0
LINE
  8
0
 10
263.705841
 20
58.423752
 11
313.794098
 21
87.342232
  0
LINE
  8
0
 10
191.423050
 20
195.669891
 11
236.294144
 21
221.576233
  0
LINE
  8
0
 10
168.888977
 20
195.000000
 11
188.923065
 21
195.000000
  0
LINE
  8
0
 10
168.888947
 20
85.000000
 11
188.923050
 21
85.000000
  0
LINE
  8
0
 10
160.000000
 20
101.218567
 11
160.000000
 21
178.781448
  0
LINE
  8
0
  6
CENTER
 10
250.000000
 20
32.000000
 11
250.000000
 21
248.000000
  0
LINE
  8
0
  6
CENTER
 10
142.000000
 20
140.000000
 11
358.000000
 21
140.000000
  0
LINE
  8
0
 10
252.887482
 20
120.260071
 11
269.739929
 21
137.112518
  0
LINE
  8
0
 10
230.260071
 20
142.887482
 11
247.112518
 21
159.739929
  0
LINE
  8
0
 10
269.739929
 20
142.887482
 11
252.887482
 21
159.739929
  0
LINE
  8
0
 10
247.112518
 20
120.260071
 11
230.260071
 21
137.112518
  0
LINE
  8
0
 10
247.488556
 20
121.015396
 11
231.015396
 21
137.488556
  0
LINE
  8
0
 10
252.511444
 20
121.015396
 11
268.984619
 21
137.488556
  0
LINE
  8
0
 10
231.015396
 20
142.511444
 11
247.488556
 21
158.984604
  0
LINE
  8
0
 10
268.984619
 20
142.511444
 11
252.511444
 21
158.984604
  0
LINE
  8
0
 10
252.511444
 20
158.984604
 11
252.887482
 21
159.739929
  0
LINE
  8
0
 10
247.488556
 20
158.984604
 11
247.112518
 21
159.739929
  0
LINE
  8
0
 10
230.260071
 20
142.887482
 11
231.015396
 21
142.511444
  0
LINE
  8
0
 10
230.260071
 20
137.112518
 11
231.015396
 21
137.488556
  0
LINE
  8
0
 10
247.112518
 20
120.260071
 11
247.488556
 21
121.015396
  0
LINE
  8
0
 10
252.887482
 20
120.260063
 11
252.511444
 21
121.015396
  0
LINE
  8
0
 10
268.984619
 20
137.488556
 11
269.739929
 21
137.112518
  0
LINE
  8
0
 10
269.739929
 20
142.887482
 11
268.984619
 21
142.511429
  0
CIRCLE
  8
0
 10
250.000000
 20
140.000000
 40
20.000000
  0
CIRCLE
  8
0
 10
250.000000
 20
140.000000
 40
35.000000
  0
ARC
  8
0
 10
250.000000
 20
140.000000
 40
65.000000
 50
70.021080
 51
109.978760
  0
CIRCLE
  8
0
 10
250.000000
 20
140.000000
 40
76.000000
  0
CIRCLE
  8
0
 10
250.000000
 20
140.000000
 40
45.000000
  0
CIRCLE
  8
0
 10
220.000076
 20
191.961578
 40
6.000000
  0
CIRCLE
  8
0
 10
190.000000
 20
140.000000
 40
6.000000
  0
CIRCLE
  8
0
 10
219.999969
 20
88.038498
 40
6.000000
  0
CIRCLE
  8
0
 10
279.999969
 20
88.038452
 40
6.000000
  0
CIRCLE
  8
0
 10
310.000000
 20
139.999939
 40
6.000000
  0
CIRCLE
  8
0
 10
280.000061
 20
191.961487
 40
6.000000
  0
CIRCLE
  8
0
 10
220.000076
 20
191.961578
 40
5.125000
  0
CIRCLE
  8
0
 10
190.000000
 20
140.000000
 40
5.125000
  0
CIRCLE
  8
0
 10
219.999969
 20
88.038498
 40
5.125000
  0
CIRCLE
  8
0
 10
279.999969
 20
88.038452
 40
5.125000
  0
CIRCLE
  8
0
 10
310.000000
 20
139.999939
 40
5.125000
  0
CIRCLE
  8
0
 10
280.000061
 20
191.961487
 40
5.125000
  0
ARC
  8
0
 10
220.000076
 20
191.961578
 40
11.999998
 50
14.999959
 51
225.000046
  0
ARC
  8
0
 10
190.000000
 20
140.000000
 40
12.000002
 50
74.999969
 51
284.999969
  0
ARC
  8
0
 10
219.999969
 20
88.038498
 40
12.000002
 50
135.000046
 51
344.999939
  0
ARC
  8
0
 10
279.999969
 20
88.038452
 40
12.000017
 50
195.000015
 51
45.000053
  0
ARC
  8
0
 10
310.000000
 20
139.999939
 40
12.000002
 50
254.999969
 51
105.000031
  0
ARC
  8
0
 10
280.000061
 20
191.961487
 40
12.000013
 50
315.000000
 51
164.999954
  0
ARC
  8
0
 10
250.000000
 20
226.500000
 40
10.500018
 50
14.999919
 51
165.000031
  0
ARC
  8
0
 10
249.999985
 20
53.500000
 40
10.500008
 50
195.000015
 51
344.999969
  0
ARC
  8
0
 10
324.911194
 20
96.749969
 40
10.500003
 50
255.000061
 51
45.000000
  0
ARC
  8
0
 10
324.911224
 20
183.249954
 40
10.500001
 50
315.000000
 51
104.999939
  0
ARC
  8
0
 10
210.806000
 20
177.114014
 40
5.000018
 50
329.999908
 51
44.999878
  0
ARC
  8
0
 10
198.261383
 20
155.386078
 40
5.000007
 50
254.999985
 51
329.999756
  0
ARC
  8
0
 10
198.261368
 20
124.613937
 40
4.999997
 50
30.000017
 51
104.999840
  0
ARC
  8
0
 10
210.805939
 20
102.886093
 40
5.000000
 50
315.000061
 51
29.999931
  0
ARC
  8
0
 10
237.455383
 20
87.500000
 40
5.000000
 50
90.000000
 51
164.999985
  0
ARC
  8
0
 10
262.544556
 20
87.500000
 40
4.999992
 50
15.000055
 51
90.000000
  0
ARC
  8
0
 10
289.194000
 20
102.886024
 40
4.999984
 50
149.999893
 51
225.000061
  0
ARC
  8
0
 10
301.738586
 20
124.613884
 40
5.000000
 50
74.999969
 51
149.999893
  0
ARC
  8
0
 10
301.738647
 20
155.386017
 40
4.999984
 50
210.000107
 51
285.000000
  0
ARC
  8
0
 10
289.194092
 20
177.113861
 40
5.000016
 50
135.000122
 51
209.999924
  0
ARC
  8
0
 10
262.544647
 20
192.500000
 40
5.000000
 50
270.000000
 51
345.000031
  0
ARC
  8
0
 10
237.455490
 20
192.500000
 40
4.999992
 50
195.000061
 51
270.000000
  0
ARC
  8
0
 10
250.000000
 20
140.000000
 40
65.000000
 50
130.021088
 51
169.978851
  0
ARC
  8
0
 10
250.000000
 20
140.000000
 40
65.000000
 50
190.021179
 51
229.978836
  0
ARC
  8
0
 10
250.000000
 20
140.000000
 40
65.000000
 50
250.021164
 51
289.978760
  0
ARC
  8
0
 10
250.000000
 20
140.000000
 40
65.000008
 50
310.021088
 51
349.978760
  0
ARC
  8
0
 10
250.000000
 20
140.000000
 40
64.999992
 50
10.021111
 51
49.978764
  0
ARC
  8
0
 10
233.794159
 20
225.906342
 40
4.999997
 50
300.000031
 51
344.999939
  0
ARC
  8
0
 10
233.794128
 20
54.093666
 40
5.000007
 50
15.000010
 51
59.999981
  0
ARC
  8
0
 10
266.205841
 20
54.093651
 40
4.999997
 50
120.000015
 51
165.000031
  0
ARC
  8
0
 10
316.294098
 20
83.012131
 40
4.999992
 50
74.999947
 51
120.000015
  0
ARC
  8
0
 10
332.500000
 20
111.081451
 40
5.000000
 50
179.999908
 51
225.000061
  0
ARC
  8
0
 10
332.500000
 20
168.918411
 40
4.999995
 50
134.999878
 51
179.999832
  0
ARC
  8
0
 10
316.294220
 20
196.987808
 40
4.999997
 50
239.999985
 51
285.000061
  0
ARC
  8
0
 10
266.205872
 20
225.906342
 40
5.000022
 50
194.999969
 51
240.000076
  0
ARC
  8
0
 10
188.923065
 20
200.000000
 40
5.000000
 50
269.999817
 51
299.999878
  0
ARC
  8
0
 10
188.923050
 20
80.000000
 40
5.000004
 50
60.000027
 51
90.000000
  0
ARC
  8
0
 10
250.000000
 20
140.000000
 40
97.999985
 50
203.311478
 51
156.688522
  0
CIRCLE
  8
0
 10
250.000000
 20
140.000000
 40
19.950001
  0
ARC
  8
0
 10
250.000000
 20
140.000000
 40
19.150002
 50
172.464188
 51
187.535812
  0
ARC
  8
0
 10
250.000000
 20
140.000000
 40
19.150000
 50
262.464233
 51
277.535858
  0
ARC
  8
0
 10
250.000000
 20
140.000000
 40
19.149986
 50
352.464172
 51
7.535763
  0
ARC
  8
0
 10
250.000000
 20
140.000000
 40
19.150002
 50
82.464188
 51
97.535812
  0
ENDSEC
  0
EOF
