  0
SECTION
  2
HEADER
  0
ENDSEC
  0
SECTION
  2
TABLES
  0
TABLE
  2
LTYPE
 70
     4
  0
LTYPE
  2
CONTINUOUS
 70
    64
  3
Solid line
 72
    65
 73
     0
 40
0.000000
  0
LTYPE
  2
DASHED
 70
    64
  3
__ __ __ __ __ __ __ __ __ __ __ __ __ __ __
 72
    65
 73
     2
 40
3.500000
 49
2.000000
 49
-1.500000
  0
LTYPE
  2
CENTER
 70
    64
  3
____ _ ____ _ ____ _ ____ _ ____ _ ____ _ ____
 72
    65
 73
     4
 40
17.500000
 49
13.000000
 49
-1.500000
 49
1.500000
 49
-1.500000
  0
LTYPE
  2
PHANTOM
 70
    64
  3
_____ _ _ _____ _ _ _____ _ _ _____ _ _ ____  
 72
    65
 73
     6
 40
15.500000
 49
8.000000
 49
-1.500000
 49
1.500000
 49
-1.500000
 49
1.500000
 49
-1.500000
  0
LTYPE
  2
DASHED1
 70
    64
  3
__ __ __ __ __ __ __ __ __ __ __ __ __ __ __
 72
    65
 73
     2
 40
1.500000
 49
1.000000
 49
-0.500000
  0
LTYPE
  2
DASHED2
 70
    64
  3
__ __ __ __ __ __ __ __ __ __ __ __ __ __ __
 72
    65
 73
     2
 40
3.500000
 49
2.500000
 49
-1.000000
  0
LTYPE
  2
DASHED3
 70
    64
  3
__ __ __ __ __ __ __ __ __ __ __ __ __ __ __
 72
    65
 73
     2
 40
6.000000
 49
4.000000
 49
-2.000000
  0
LTYPE
  2
DASHED4
 70
    64
  3
__ __ __ __ __ __ __ __ __ __ __ __ __ __ __
 72
    65
 73
     2
 40
12.000000
 49
10.000000
 49
-2.000000
  0
LTYPE
  2
DASHED5
 70
    64
  3
__ __ __ __ __ __ __ __ __ __ __ __ __ __ __
 72
    65
 73
     2
 40
17.000000
 49
15.000000
 49
-2.000000
  0
LTYPE
  2
DASHED6
 70
    64
  3
__ __ __ __ __ __ __ __ __ __ __ __ __ __ __
 72
    65
 73
     2
 40
29.000000
 49
27.000000
 49
-2.000000
  0
LTYPE
  2
PHANTOM1
 70
    64
  3
_____ _ _ _____ _ _ _____ _ _ _____ _ _ ____  
 72
    65
 73
     6
 40
31.000000
 49
25.000000
 49
-1.500000
 49
1.000000
 49
-1.000000
 49
1.000000
 49
-1.500000
  0
LTYPE
  2
PHANTOM2
 70
    64
  3
_____ _ _ _____ _ _ _____ _ _ _____ _ _ ____  
 72
    65
 73
     6
 40
36.000000
 49
27.000000
 49
-1.500000
 49
2.500000
 49
-1.000000
 49
2.500000
 49
-1.500000
  0
LTYPE
  2
PHANTOM3
 70
    64
  3
_____ _ _ _____ _ _ _____ _ _ _____ _ _ ____  
 72
    65
 73
     6
 40
78.000000
 49
64.000000
 49
-2.000000
 49
4.000000
 49
-2.000000
 49
4.000000
 49
-2.000000
  0
LTYPE
  2
CENTER1
 70
    64
  3
____ _ ____ _ ____ _ ____ _ ____ _ ____ _ ____
 72
    65
 73
     4
 40
19.000000
 49
14.000000
 49
-1.000000
 49
3.000000
 49
-1.000000
  0
LTYPE
  2
CENTER2
 70
    64
  3
____ _ ____ _ ____ _ ____ _ ____ _ ____ _ ____
 72
    65
 73
     4
 40
28.500000
 49
25.000000
 49
-1.000000
 49
1.500000
 49
-1.000000
  0
LTYPE
  2
CENTER3
 70
    64
  3
____ _ ____ _ ____ _ ____ _ ____ _ ____ _ ____
 72
    65
 73
     4
 40
31.500000
 49
27.000000
 49
-1.000000
 49
2.500000
 49
-1.000000
  0
LTYPE
  2
CENTER4
 70
    64
  3
____ _ ____ _ ____ _ ____ _ ____ _ ____ _ ____
 72
    65
 73
     4
 40
50.000000
 49
45.000000
 49
-1.000000
 49
3.000000
 49
-1.000000
  0
LTYPE
  2
CENTER5
 70
    64
  3
____ _ ____ _ ____ _ ____ _ ____ _ ____ _ ____
 72
    65
 73
     4
 40
100.000000
 49
92.000000
 49
-2.000000
 49
4.000000
 49
-2.000000
  0
LTYPE
  2
SBK1
 70
    64
  3
______ _ _ _ ______ _ _ _ ______ _ _ _ _____  
 72
    65
 73
     8
 40
60.500000
 49
45.000000
 49
-2.000000
 49
2.500000
 49
-2.000000
 49
2.500000
 49
-2.000000
 49
2.500000
 49
-2.000000
  0
LTYPE
  2
SBK2
 70
    64
  3
______ _ _ _ ______ _ _ _ ______ _ _ _ _____  
 72
    65
 73
     8
 40
84.000000
 49
64.000000
 49
-2.000000
 49
4.000000
 49
-2.000000
 49
4.000000
 49
-2.000000
 49
4.000000
 49
-2.000000
  0
LTYPE
  2
STCH
 70
    64
  3
__ __ __ __ __ __ __ __ __ __ __ __ __ __ __
 72
    65
 73
     2
 40
3.000000
 49
1.000000
 49
-2.000000
  0
LTYPE
  2
MTCH
 70
    64
  3
_____ _ _ _____ _ _ _____ _ _ _____ _ _ ____  
 72
    65
 73
     6
 40
80.000000
 49
66.000000
 49
-2.000000
 49
4.000000
 49
-2.000000
 49
4.000000
 49
-2.000000
  0
ENDTAB
  0
TABLE
  2
LAYER
 70
     1
  0
LAYER
  2
0
 70
     0
 62
     7
  6
CONTINUOUS
  0
ENDTAB
  0
TABLE
  2
STYLE
 70
     1
  0
STYLE
  2
STANDARD
 70
     0
 40
0.000000
 41
1.000000
 50
0.000000
 71
     0
 42
0.200000
  3
txt
  4
BIGFONT
  0
ENDTAB
  0
TABLE
  2
VIEW
 70
     0
  0
ENDTAB
  0
ENDSEC
  0
SECTION
  2
BLOCKS
  0
ENDSEC
  0
SECTION
  2
ENTITIES
  0
LINE
  8
0
 10
594.500000
 20
420.500000
 11
594.500000
 21
-420.500000
  0
LINE
  8
0
 10
-594.500000
 20
420.500000
 11
-594.500000
 21
-420.500000
  0
LINE
  8
0
 10
-594.500000
 20
420.500000
 11
594.500000
 21
420.500000
  0
LINE
  8
0
 10
-594.500000
 20
-420.500000
 11
594.500000
 21
-420.500000
  0
LINE
  8
0
 10
574.500000
 20
400.500000
 11
574.500000
 21
-400.500000
  0
LINE
  8
0
 10
-564.500000
 20
400.500000
 11
574.500000
 21
400.500000
  0
LINE
  8
0
 10
-564.500000
 20
-400.500000
 11
574.500000
 21
-400.500000
  0
LINE
  8
0
 10
-564.500000
 20
400.500000
 11
-564.500000
 21
-400.500000
  0
LINE
  8
0
 10
-564.500000
 20
-380.500000
 11
174.875015
 21
-380.500000
  0
LINE
  8
0
 10
35.000004
 20
69.750000
 11
-294.500061
 21
69.750000
  0
LINE
  8
0
 10
35.000004
 20
69.750000
 11
35.000004
 21
400.500000
  0
LINE
  8
0
 10
35.000000
 20
69.749992
 11
174.875015
 21
-70.125000
  0
LINE
  8
0
 10
-294.500061
 20
69.750008
 11
-434.375092
 21
-70.125000
  0
LINE
  8
0
 10
-564.500000
 20
-70.125000
 11
-434.375061
 21
-70.125000
  0
LINE
  8
0
 10
174.875015
 20
-70.125000
 11
174.875015
 21
-400.500000
  0
LINE
  8
0
 10
174.875015
 20
-70.125000
 11
574.500000
 21
-70.125000
  0
LINE
  8
0
 10
154.875015
 20
-50.125000
 11
574.500000
 21
-50.125000
  0
LINE
  8
0
 10
35.000004
 20
89.750000
 11
-294.500061
 21
89.750000
  0
LINE
  8
0
 10
-294.500061
 20
89.750000
 11
-294.500061
 21
69.750000
  0
LINE
  8
0
 10
-564.500000
 20
375.500000
 11
-364.500000
 21
375.500000
  0
LINE
  8
0
 10
-364.500000
 20
400.500000
 11
-364.500000
 21
375.500000
  0
LINE
  8
0
 10
374.500000
 20
375.500000
 11
574.500000
 21
375.500000
  0
LINE
  8
0
 10
374.500000
 20
400.500000
 11
374.500000
 21
375.500000
  0
LINE
  8
0
 10
374.500000
 20
-375.500000
 11
574.500000
 21
-375.500000
  0
LINE
  8
0
 10
374.500000
 20
-375.500000
 11
374.500000
 21
-400.500000
  0
TEXT
  8
0
 10
-555.963745
 20
378.200012
 40
12.000000
  1
ROTARY ACTUATER
 50
0.000000
 41
1.052631
 51
0.000000
  7
STANDARD
  0
TEXT
  8
0
 10
383.036224
 20
378.200012
 40
12.000000
  1
DATE: MAY ,1992
 50
0.000000
 41
1.052632
 51
0.000000
  7
STANDARD
  0
TEXT
  8
0
 10
253.509384
 20
-68.125000
 40
10.000000
  1
SWING ANGLE : 270 DEGREE
 50
0.000000
 41
1.052631
 51
0.000000
  7
STANDARD
  0
TEXT
  8
0
 10
268.813690
 20
-193.918396
 40
10.000000
  1
MODEL : RAK800-UK
 50
0.000000
 41
1.052632
 51
0.000000
  7
STANDARD
  0
TEXT
  8
0
 10
-245.928146
 20
71.750000
 40
10.000000
  1
SWING ANGLE : 90 DEGREE
 50
0.000000
 41
1.052632
 51
0.000000
  7
STANDARD
  0
TEXT
  8
0
 10
-315.990601
 20
-398.500000
 40
10.000000
  1
SWING ANGLE : 180 DEGREE
 50
0.000000
 41
1.052631
 51
0.000000
  7
STANDARD
  0
TEXT
  8
0
 10
381.580109
 20
-400.299988
 40
12.000000
  1
ＫＯＧＡＮＥＩ，ＣＯＲＰ．
 50
0.000000
 41
0.902367
 51
15.000000
  7
STANDARD
  0
POINT
  8
0
 10
-470.000000
 20
270.000000
  0
POINT
  8
0
 10
-397.000000
 20
270.000000
  0
LINE
  8
0
 10
-464.000000
 20
249.420761
 11
-414.000000
 21
249.420761
  0
LINE
  8
0
 10
-464.000000
 20
290.579224
 11
-414.000000
 21
290.579224
  0
LINE
  8
0
 10
-464.000000
 20
206.360382
 11
-414.000000
 21
206.360382
  0
LINE
  8
0
 10
-470.000000
 20
204.999985
 11
-464.000000
 21
204.999985
  0
LINE
  8
0
 10
-464.000000
 20
333.639587
 11
-414.000000
 21
333.639587
  0
LINE
  8
0
 10
-470.000000
 20
335.000000
 11
-464.000000
 21
335.000000
  0
LINE
  8
0
 10
-470.000000
 20
335.000000
 11
-470.000000
 21
204.999985
  0
LINE
  8
0
 10
-414.000000
 20
333.639587
 11
-414.000000
 21
206.360367
  0
LINE
  8
0
 10
-464.000000
 20
335.000000
 11
-464.000000
 21
204.999985
  0
LINE
  8
0
 10
-412.000000
 20
296.499969
 11
-412.000000
 21
282.168732
  0
LINE
  8
0
 10
-397.000000
 20
286.049988
 11
-397.000000
 21
253.949982
  0
LINE
  8
0
 10
-411.500000
 20
286.250000
 11
-397.200012
 21
286.250000
  0
LINE
  8
0
 10
-414.000000
 20
296.500000
 11
-412.000000
 21
296.500000
  0
LINE
  8
0
 10
-414.000000
 20
243.500046
 11
-412.000000
 21
243.500046
  0
LINE
  8
0
 10
-411.500000
 20
253.750000
 11
-397.200012
 21
253.750000
  0
LINE
  8
0
 10
-397.200012
 20
286.249969
 11
-397.000000
 21
286.049957
  0
LINE
  8
0
 10
-397.199982
 20
253.749939
 11
-396.999969
 21
253.949936
  0
LINE
  8
0
 10
-409.000000
 20
279.720642
 11
-409.000000
 21
272.074036
  0
LINE
  8
0
 10
-402.000000
 20
279.271057
 11
-402.000000
 21
274.871033
  0
LINE
  8
0
 10
-414.000000
 20
257.187042
 11
-409.450012
 21
257.187042
  0
LINE
  8
0
 10
-414.000000
 20
260.580627
 11
-409.450012
 21
260.580627
  0
LINE
  8
0
 10
-414.000000
 20
266.322510
 11
-409.450012
 21
266.322510
  0
LINE
  8
0
 10
-414.000000
 20
268.670807
 11
-409.450012
 21
268.670807
  0
LINE
  8
0
 10
-414.000000
 20
271.973358
 11
-409.450012
 21
271.973358
  0
LINE
  8
0
 10
-414.000000
 20
272.174866
 11
-409.450012
 21
272.174866
  0
LINE
  8
0
 10
-414.000000
 20
282.168762
 11
-409.450012
 21
282.168762
  0
LINE
  8
0
 10
-409.000000
 20
274.571045
 11
-402.299988
 21
274.571045
  0
LINE
  8
0
 10
-409.000000
 20
279.571045
 11
-402.299988
 21
279.571045
  0
LINE
  8
0
 10
-409.000000
 20
260.428925
 11
-402.299988
 21
260.428925
  0
LINE
  8
0
 10
-409.000000
 20
265.428925
 11
-402.299988
 21
265.428925
  0
LINE
  8
0
 10
-402.000000
 20
265.128906
 11
-402.000000
 21
260.728912
  0
LINE
  8
0
 10
-402.300018
 20
265.428894
 11
-402.000000
 21
265.128906
  0
LINE
  8
0
 10
-402.300018
 20
260.428925
 11
-402.000031
 21
260.728912
  0
LINE
  8
0
 10
-401.999969
 20
274.871033
 11
-402.299957
 21
274.571014
  0
LINE
  8
0
 10
-402.300018
 20
279.571045
 11
-402.000000
 21
279.271027
  0
LINE
  8
0
 10
-409.000000
 20
267.496643
 11
-409.000000
 21
258.883820
  0
LINE
  8
0
 10
-412.000000
 20
257.187042
 11
-412.000000
 21
243.499969
  0
LINE
  8
0
 10
-412.000000
 20
271.973358
 11
-412.000000
 21
268.670776
  0
LINE
  8
0
 10
-402.050018
 20
265.178925
 11
-409.000000
 21
265.178925
  0
LINE
  8
0
 10
-402.049988
 20
260.678925
 11
-409.000000
 21
260.678925
  0
LINE
  8
0
 10
-402.049988
 20
274.821045
 11
-409.000000
 21
274.821045
  0
LINE
  8
0
 10
-402.050049
 20
279.321045
 11
-409.000000
 21
279.321045
  0
LINE
  8
0
 10
-402.299988
 20
260.428925
 11
-402.299988
 21
265.428894
  0
LINE
  8
0
 10
-402.300079
 20
274.571045
 11
-402.300079
 21
279.571045
  0
LINE
  8
0
 10
-411.599976
 20
287.899963
 11
-411.599976
 21
295.099976
  0
LINE
  8
0
 10
-409.549988
 20
291.450684
 11
-409.549988
 21
291.549286
  0
LINE
  8
0
 10
-411.599976
 20
295.099976
 11
-412.000000
 21
295.099976
  0
LINE
  8
0
 10
-411.599976
 20
287.899963
 11
-412.000000
 21
287.899963
  0
LINE
  8
0
 10
-411.600006
 20
244.899979
 11
-411.600006
 21
252.099976
  0
LINE
  8
0
 10
-409.549988
 20
248.450684
 11
-409.549988
 21
248.549271
  0
LINE
  8
0
 10
-411.600006
 20
252.099976
 11
-412.000000
 21
252.099976
  0
LINE
  8
0
 10
-411.600006
 20
244.899979
 11
-412.000000
 21
244.899979
  0
LINE
  8
0
 10
-412.041931
 20
298.355316
 11
-414.000000
 21
298.355316
  0
LINE
  8
0
 10
-412.041931
 20
312.355316
 11
-414.000000
 21
312.355316
  0
LINE
  8
0
 10
-412.041962
 20
227.644638
 11
-414.000000
 21
227.644638
  0
LINE
  8
0
 10
-412.041962
 20
241.644638
 11
-414.000000
 21
241.644638
  0
LINE
  8
0
 10
-491.500000
 20
346.000000
 11
-491.500000
 21
194.000000
  0
LINE
  8
0
 10
-484.500000
 20
335.000000
 11
-484.500000
 21
333.961487
  0
LINE
  8
0
 10
-484.500000
 20
258.000000
 11
-470.000000
 21
258.000000
  0
LINE
  8
0
 10
-484.500000
 20
282.000000
 11
-470.000000
 21
282.000000
  0
LINE
  8
0
 10
-487.840759
 20
206.038498
 11
-473.000000
 21
206.038498
  0
LINE
  8
0
 10
-487.840881
 20
333.961487
 11
-473.000000
 21
333.961487
  0
LINE
  8
0
 10
-491.500031
 20
193.999954
 11
-484.500031
 21
204.999969
  0
LINE
  8
0
 10
-484.500031
 20
335.000031
 11
-491.500031
 21
346.000061
  0
LINE
  8
0
 10
-484.500000
 20
206.038498
 11
-484.500000
 21
205.000000
  0
LINE
  8
0
 10
-484.500000
 20
258.000000
 11
-484.500000
 21
220.222549
  0
LINE
  8
0
 10
-484.500000
 20
319.777466
 11
-484.500000
 21
282.000000
  0
LINE
  8
0
 10
-470.000000
 20
249.399994
 11
-464.000000
 21
249.399994
  0
LINE
  8
0
 10
-470.000000
 20
290.600006
 11
-464.000000
 21
290.600006
  0
LINE
  8
0
 10
-476.000000
 20
222.649994
 11
-470.600006
 21
222.649994
  0
LINE
  8
0
 10
-476.000000
 20
212.649994
 11
-470.600006
 21
212.649994
  0
LINE
  8
0
 10
-476.000000
 20
250.949997
 11
-470.600006
 21
250.949997
  0
LINE
  8
0
 10
-476.000000
 20
240.949997
 11
-470.600006
 21
240.949997
  0
LINE
  8
0
 10
-476.000000
 20
299.049988
 11
-470.600006
 21
299.049988
  0
LINE
  8
0
 10
-476.000000
 20
289.049988
 11
-470.600006
 21
289.049988
  0
LINE
  8
0
 10
-476.000000
 20
327.350006
 11
-470.600006
 21
327.350006
  0
LINE
  8
0
 10
-476.000000
 20
317.350006
 11
-470.600006
 21
317.350006
  0
LINE
  8
0
 10
-470.600006
 20
327.600006
 11
-470.000000
 21
327.600006
  0
LINE
  8
0
 10
-470.600006
 20
317.100006
 11
-470.000000
 21
317.100006
  0
LINE
  8
0
 10
-470.600006
 20
299.299988
 11
-470.000000
 21
299.299988
  0
LINE
  8
0
 10
-470.600006
 20
288.799988
 11
-470.000000
 21
288.799988
  0
LINE
  8
0
 10
-470.600006
 20
240.699997
 11
-470.000000
 21
240.699997
  0
LINE
  8
0
 10
-470.600006
 20
251.199997
 11
-470.000000
 21
251.199997
  0
LINE
  8
0
 10
-470.600006
 20
222.899994
 11
-470.000000
 21
222.899994
  0
LINE
  8
0
 10
-470.600006
 20
212.399994
 11
-470.000000
 21
212.399994
  0
LINE
  8
0
 10
-470.600006
 20
327.600006
 11
-470.600006
 21
317.100006
  0
LINE
  8
0
 10
-476.600006
 20
326.750000
 11
-476.600006
 21
317.950012
  0
LINE
  8
0
 10
-476.000000
 20
327.350006
 11
-476.000000
 21
317.350006
  0
LINE
  8
0
 10
-476.600006
 20
250.350006
 11
-476.600006
 21
241.550003
  0
LINE
  8
0
 10
-476.000000
 20
250.949997
 11
-476.000000
 21
240.949997
  0
LINE
  8
0
 10
-470.600006
 20
251.199997
 11
-470.600006
 21
240.699997
  0
LINE
  8
0
 10
-476.600006
 20
222.050003
 11
-476.600006
 21
213.250000
  0
LINE
  8
0
 10
-470.600006
 20
222.899994
 11
-470.600006
 21
212.399994
  0
LINE
  8
0
 10
-476.000000
 20
222.649994
 11
-476.000000
 21
212.649994
  0
LINE
  8
0
 10
-476.600006
 20
298.450012
 11
-476.600006
 21
289.649994
  0
LINE
  8
0
 10
-476.000000
 20
299.049988
 11
-476.000000
 21
289.049988
  0
LINE
  8
0
 10
-470.600006
 20
299.299988
 11
-470.600006
 21
288.799988
  0
LINE
  8
0
 10
-476.000000
 20
212.649994
 11
-476.600006
 21
213.250000
  0
LINE
  8
0
 10
-476.600006
 20
222.049988
 11
-476.000000
 21
222.649979
  0
LINE
  8
0
 10
-476.000000
 20
240.949997
 11
-476.600006
 21
241.550003
  0
LINE
  8
0
 10
-476.600006
 20
250.349991
 11
-476.000000
 21
250.949982
  0
LINE
  8
0
 10
-476.000000
 20
289.050018
 11
-476.600006
 21
289.650024
  0
LINE
  8
0
 10
-476.600006
 20
298.449982
 11
-476.000000
 21
299.049988
  0
LINE
  8
0
 10
-476.000000
 20
317.350006
 11
-476.600006
 21
317.950012
  0
LINE
  8
0
 10
-476.600006
 20
326.750000
 11
-476.000000
 21
327.349976
  0
LINE
  8
0
 10
-445.000000
 20
349.964081
 11
-433.000000
 21
349.964081
  0
LINE
  8
0
 10
-445.000000
 20
193.145782
 11
-433.000000
 21
193.145782
  0
LINE
  8
0
 10
-447.000000
 20
347.964081
 11
-447.000000
 21
333.639587
  0
LINE
  8
0
 10
-431.000000
 20
347.964081
 11
-431.000000
 21
333.639587
  0
LINE
  8
0
 10
-447.000000
 20
206.360382
 11
-447.000000
 21
195.145782
  0
LINE
  8
0
 10
-431.000000
 20
206.360382
 11
-431.000000
 21
195.145782
  0
ARC
  8
0
 10
-412.424011
 20
258.883820
 40
3.423992
 50
330.293640
 51
29.706814
  0
ARC
  8
0
 10
-418.383179
 20
263.451569
 40
9.383164
 50
342.183624
 51
17.816368
  0
ARC
  8
0
 10
-410.756805
 20
267.496643
 40
1.756806
 50
318.060059
 51
41.939201
  0
ARC
  8
0
 10
-416.443512
 20
274.723694
 40
7.443531
 50
339.975250
 51
20.024750
  0
ARC
  8
0
 10
-415.884155
 20
279.720642
 40
6.884165
 50
339.169067
 51
20.831264
  0
CIRCLE
  8
0
 10
-457.000000
 20
270.000000
 40
2.700000
  0
ARC
  8
0
 10
-413.649994
 20
291.450684
 40
4.100008
 50
299.999725
 51
0.000000
  0
ARC
  8
0
 10
-413.649994
 20
291.549286
 40
4.100006
 50
0.000000
 51
60.000046
  0
ARC
  8
0
 10
-413.650024
 20
248.450684
 40
4.100010
 50
300.000214
 51
0.000000
  0
ARC
  8
0
 10
-413.650024
 20
248.549271
 40
4.100006
 50
0.000000
 51
59.999783
  0
ARC
  8
0
 10
-426.799988
 20
305.355316
 40
17.999996
 50
343.398468
 51
16.601540
  0
ARC
  8
0
 10
-412.041931
 20
300.955322
 40
2.600006
 50
270.000000
 51
343.398346
  0
ARC
  8
0
 10
-412.041931
 20
309.755310
 40
2.599990
 50
16.601656
 51
90.000000
  0
ARC
  8
0
 10
-426.800018
 20
234.644638
 40
17.999996
 50
343.398468
 51
16.601540
  0
ARC
  8
0
 10
-412.041962
 20
230.244629
 40
2.599991
 50
270.000000
 51
343.398682
  0
ARC
  8
0
 10
-412.041962
 20
239.044647
 40
2.599986
 50
16.601334
 51
90.000000
  0
ARC
  8
0
 10
-473.000000
 20
209.038498
 40
3.000000
 50
270.000000
 51
0.000000
  0
ARC
  8
0
 10
-473.000000
 20
330.961487
 40
3.000000
 50
0.000000
 51
90.000000
  0
ARC
  8
0
 10
-487.840881
 20
332.961700
 40
1.000000
 50
90.000000
 51
124.848206
  0
ARC
  8
0
 10
-487.840759
 20
207.038223
 40
1.000005
 50
235.160034
 51
270.000000
  0
ARC
  8
0
 10
-445.000000
 20
347.964081
 40
2.000000
 50
90.000000
 51
180.000000
  0
ARC
  8
0
 10
-445.000000
 20
195.145782
 40
2.000000
 50
180.000000
 51
270.000000
  0
ARC
  8
0
 10
-433.000000
 20
195.145782
 40
2.000000
 50
270.000000
 51
0.000000
  0
ARC
  8
0
 10
-433.000000
 20
347.964081
 40
2.000000
 50
0.000000
 51
90.000000
  0
ARC
  8
0
 10
-457.312683
 20
220.502502
 40
1.712665
 50
345.892456
 51
14.107556
  0
ARC
  8
0
 10
-457.760559
 20
220.338303
 40
2.187629
 50
15.419332
 51
51.390373
  0
ARC
  8
0
 10
-459.000000
 20
218.527344
 40
4.379158
 50
53.504395
 51
126.495605
  0
ARC
  8
0
 10
-460.239441
 20
220.338318
 40
2.187630
 50
128.609879
 51
164.581055
  0
ARC
  8
0
 10
-460.687317
 20
220.502502
 40
1.712665
 50
165.892441
 51
194.107559
  0
ARC
  8
0
 10
-460.239441
 20
220.666702
 40
2.187629
 50
195.419327
 51
231.390366
  0
ARC
  8
0
 10
-459.000000
 20
222.477661
 40
4.379158
 50
233.504395
 51
306.495605
  0
ARC
  8
0
 10
-457.760559
 20
220.666687
 40
2.187630
 50
308.609863
 51
344.581055
  0
ARC
  8
0
 10
-457.312714
 20
319.497498
 40
1.712695
 50
345.892700
 51
14.107307
  0
ARC
  8
0
 10
-457.760559
 20
319.333313
 40
2.187625
 50
15.418946
 51
51.390121
  0
ARC
  8
0
 10
-459.000000
 20
317.522369
 40
4.379134
 50
53.504158
 51
126.495842
  0
ARC
  8
0
 10
-460.239441
 20
319.333313
 40
2.187630
 50
128.609879
 51
164.581055
  0
ARC
  8
0
 10
-460.687286
 20
319.497498
 40
1.712695
 50
165.892685
 51
194.107315
  0
ARC
  8
0
 10
-460.239441
 20
319.661682
 40
2.187625
 50
195.418945
 51
231.390121
  0
ARC
  8
0
 10
-459.000000
 20
321.472626
 40
4.379134
 50
233.504150
 51
306.495850
  0
ARC
  8
0
 10
-457.760559
 20
319.661682
 40
2.187630
 50
308.609863
 51
344.581055
  0
ARC
  8
0
 10
-409.450012
 20
273.646667
 40
1.673065
 50
270.000000
 51
281.890594
  0
ARC
  8
0
 10
-409.138336
 20
272.204834
 40
0.198119
 50
279.603058
 51
311.577820
  0
ARC
  8
0
 10
-409.025696
 20
272.074097
 40
0.025676
 50
317.167450
 51
42.832565
  0
ARC
  8
0
 10
-409.138336
 20
271.943359
 40
0.198105
 50
48.422169
 51
80.396935
  0
ARC
  8
0
 10
-409.450012
 20
270.501526
 40
1.673076
 50
78.109406
 51
90.000000
  0
POLYLINE
  8
0
 66
     1
  0
VERTEX
  8
0
 10
-488.412262
 20
333.782379
  0
VERTEX
  8
0
 10
-488.637665
 20
333.602386
  0
VERTEX
  8
0
 10
-488.829193
 20
333.334198
  0
VERTEX
  8
0
 10
-488.956360
 20
332.880768
  0
VERTEX
  8
0
 10
-488.954529
 20
332.335480
  0
VERTEX
  8
0
 10
-488.918304
 20
331.703796
  0
VERTEX
  8
0
 10
-488.829193
 20
330.945923
  0
VERTEX
  8
0
 10
-488.678802
 20
330.110199
  0
VERTEX
  8
0
 10
-488.477661
 20
329.276978
  0
VERTEX
  8
0
 10
-488.235474
 20
328.427368
  0
VERTEX
  8
0
 10
-487.961365
 20
327.550842
  0
VERTEX
  8
0
 10
-487.666260
 20
326.684326
  0
VERTEX
  8
0
 10
-487.331818
 20
325.778534
  0
VERTEX
  8
0
 10
-487.034454
 20
325.023712
  0
VERTEX
  8
0
 10
-486.722717
 20
324.276031
  0
VERTEX
  8
0
 10
-486.395142
 20
323.530579
  0
VERTEX
  8
0
 10
-486.050171
 20
322.782318
  0
VERTEX
  8
0
 10
-485.682861
 20
322.020508
  0
VERTEX
  8
0
 10
-485.302155
 20
321.265594
  0
VERTEX
  8
0
 10
-484.907898
 20
320.517822
  0
VERTEX
  8
0
 10
-484.500000
 20
319.777466
  0
SEQEND
  0
POLYLINE
  8
0
 66
     1
  0
VERTEX
  8
0
 10
-484.500000
 20
220.222549
  0
VERTEX
  8
0
 10
-484.909119
 20
219.479614
  0
VERTEX
  8
0
 10
-485.305420
 20
218.727493
  0
VERTEX
  8
0
 10
-485.686523
 20
217.971695
  0
VERTEX
  8
0
 10
-486.050171
 20
217.217682
  0
VERTEX
  8
0
 10
-486.395294
 20
216.467163
  0
VERTEX
  8
0
 10
-486.729736
 20
215.704056
  0
VERTEX
  8
0
 10
-487.044769
 20
214.948700
  0
VERTEX
  8
0
 10
-487.331818
 20
214.221466
  0
VERTEX
  8
0
 10
-487.656342
 20
213.339935
  0
VERTEX
  8
0
 10
-487.959808
 20
212.450012
  0
VERTEX
  8
0
 10
-488.235474
 20
211.572647
  0
VERTEX
  8
0
 10
-488.479401
 20
210.694916
  0
VERTEX
  8
0
 10
-488.688995
 20
209.810989
  0
VERTEX
  8
0
 10
-488.829193
 20
209.054077
  0
VERTEX
  8
0
 10
-488.908997
 20
208.343964
  0
VERTEX
  8
0
 10
-488.954529
 20
207.664536
  0
VERTEX
  8
0
 10
-488.943970
 20
207.122910
  0
VERTEX
  8
0
 10
-488.829193
 20
206.665802
  0
VERTEX
  8
0
 10
-488.647797
 20
206.418335
  0
VERTEX
  8
0
 10
-488.412842
 20
206.218018
  0
SEQEND
  0
POLYLINE
  8
0
 66
     1
  0
VERTEX
  8
0
 10
-484.500000
 20
282.000000
  0
VERTEX
  8
0
 10
-484.932312
 20
281.388794
  0
VERTEX
  8
0
 10
-485.374298
 20
280.784485
  0
VERTEX
  8
0
 10
-485.772736
 20
280.269165
  0
VERTEX
  8
0
 10
-486.169220
 20
279.789124
  0
VERTEX
  8
0
 10
-486.566284
 20
279.275116
  0
VERTEX
  8
0
 10
-486.961304
 20
278.656738
  0
VERTEX
  8
0
 10
-487.314636
 20
277.978546
  0
VERTEX
  8
0
 10
-487.656158
 20
277.218353
  0
VERTEX
  8
0
 10
-487.970093
 20
276.379425
  0
VERTEX
  8
0
 10
-488.193726
 20
275.671112
  0
VERTEX
  8
0
 10
-488.384491
 20
274.952789
  0
VERTEX
  8
0
 10
-488.546631
 20
274.218475
  0
VERTEX
  8
0
 10
-488.684814
 20
273.444855
  0
VERTEX
  8
0
 10
-488.794128
 20
272.666779
  0
VERTEX
  8
0
 10
-488.871826
 20
271.927856
  0
VERTEX
  8
0
 10
-488.933960
 20
270.964813
  0
VERTEX
  8
0
 10
-488.954529
 20
270.000000
  0
VERTEX
  8
0
 10
-488.936035
 20
269.059082
  0
VERTEX
  8
0
 10
-488.871826
 20
268.072144
  0
VERTEX
  8
0
 10
-488.791107
 20
267.302094
  0
VERTEX
  8
0
 10
-488.682465
 20
266.535400
  0
VERTEX
  8
0
 10
-488.546631
 20
265.781525
  0
VERTEX
  8
0
 10
-488.379517
 20
265.035004
  0
VERTEX
  8
0
 10
-488.182068
 20
264.296082
  0
VERTEX
  8
0
 10
-487.970093
 20
263.620575
  0
VERTEX
  8
0
 10
-487.660156
 20
262.798645
  0
VERTEX
  8
0
 10
-487.314636
 20
262.021454
  0
VERTEX
  8
0
 10
-486.959412
 20
261.344849
  0
VERTEX
  8
0
 10
-486.566284
 20
260.724884
  0
VERTEX
  8
0
 10
-486.211853
 20
260.264923
  0
VERTEX
  8
0
 10
-485.772736
 20
259.730835
  0
VERTEX
  8
0
 10
-485.333405
 20
259.165009
  0
VERTEX
  8
0
 10
-484.911865
 20
258.585968
  0
VERTEX
  8
0
 10
-484.500000
 20
258.000000
  0
SEQEND
  0
POINT
  8
0
 10
-470.000000
 20
40.000000
  0
POINT
  8
0
 10
-425.500000
 20
40.000000
  0
LINE
  8
0
 10
-464.000000
 20
175.047699
 11
-414.000000
 21
175.047699
  0
LINE
  8
0
 10
-464.000000
 20
93.047691
 11
-447.000000
 21
93.047691
  0
LINE
  8
0
 10
-414.000000
 20
165.545929
 11
-409.450012
 21
165.545929
  0
LINE
  8
0
 10
-414.000000
 20
160.875076
 11
-409.450012
 21
160.875076
  0
LINE
  8
0
 10
-414.000000
 20
155.600708
 11
-409.450012
 21
155.600708
  0
LINE
  8
0
 10
-412.000000
 20
97.352531
 11
-397.300018
 21
97.352531
  0
LINE
  8
0
 10
-408.921387
 20
129.852539
 11
-397.299988
 21
129.852539
  0
LINE
  8
0
 10
-414.000000
 20
93.602531
 11
-412.000000
 21
93.602531
  0
LINE
  8
0
 10
-414.000000
 20
154.997223
 11
-409.450012
 21
154.997223
  0
LINE
  8
0
 10
-470.000000
 20
57.000000
 11
-464.000000
 21
57.000000
  0
LINE
  8
0
 10
-470.000000
 20
130.600006
 11
-464.000000
 21
130.600006
  0
LINE
  8
0
 10
-470.000000
 20
175.000000
 11
-470.000000
 21
-29.000000
  0
LINE
  8
0
 10
-464.000000
 20
175.047699
 11
-464.000000
 21
57.000000
  0
LINE
  8
0
 10
-414.000000
 20
175.047699
 11
-414.000000
 21
93.047699
  0
LINE
  8
0
 10
-412.000000
 20
124.939308
 11
-412.000000
 21
93.602539
  0
LINE
  8
0
 10
-397.000000
 20
129.552551
 11
-397.000000
 21
97.652542
  0
LINE
  8
0
 10
-409.000000
 20
163.674805
 11
-409.000000
 21
155.298981
  0
LINE
  8
0
 10
-402.000000
 20
162.471588
 11
-402.000000
 21
158.071594
  0
LINE
  8
0
 10
-409.000000
 20
162.771576
 11
-402.300018
 21
162.771576
  0
LINE
  8
0
 10
-409.000000
 20
157.771576
 11
-402.300018
 21
157.771576
  0
LINE
  8
0
 10
-401.999969
 20
162.471619
 11
-402.299957
 21
162.771606
  0
LINE
  8
0
 10
-402.000000
 20
158.071609
 11
-402.299988
 21
157.771622
  0
LINE
  8
0
 10
-397.299988
 20
97.352524
 11
-397.000000
 21
97.652527
  0
LINE
  8
0
 10
-396.999969
 20
129.552551
 11
-397.299957
 21
129.852570
  0
LINE
  8
0
 10
-409.000000
 20
158.021576
 11
-402.050049
 21
158.021576
  0
LINE
  8
0
 10
-409.000000
 20
162.521576
 11
-402.049988
 21
162.521576
  0
LINE
  8
0
 10
-402.300110
 20
157.771576
 11
-402.300110
 21
162.771576
  0
LINE
  8
0
 10
-470.000000
 20
175.000000
 11
-464.000000
 21
175.000000
  0
LINE
  8
0
 10
-431.000000
 20
116.079849
 11
-431.000000
 21
116.031189
  0
LINE
  8
0
 10
-447.000000
 20
116.079849
 11
-447.000000
 21
116.031181
  0
LINE
  8
0
 10
-448.481476
 20
106.827408
 11
-448.481476
 21
106.544571
  0
LINE
  8
0
 10
-455.681458
 20
106.827408
 11
-455.681458
 21
106.544571
  0
LINE
  8
0
 10
-429.518524
 20
125.327408
 11
-429.518524
 21
125.044571
  0
LINE
  8
0
 10
-422.318542
 20
125.327408
 11
-422.318542
 21
125.044571
  0
LINE
  8
0
 10
-456.998596
 20
118.002838
 11
-457.081268
 21
108.563492
  0
LINE
  8
0
 10
-420.918701
 20
127.126961
 11
-421.001373
 21
117.687523
  0
LINE
  8
0
 10
-439.225769
 20
130.572037
 11
-425.949860
 21
130.630905
  0
LINE
  8
0
 10
-439.225769
 20
128.804337
 11
-425.949890
 21
128.863205
  0
LINE
  8
0
 10
-456.998596
 20
116.235107
 11
-457.081268
 21
106.795753
  0
LINE
  8
0
 10
-452.050140
 20
103.291656
 11
-447.000000
 21
103.314056
  0
LINE
  8
0
 10
-420.918640
 20
125.359207
 11
-421.001282
 21
115.919769
  0
LINE
  8
0
 10
-411.600006
 20
110.002541
 11
-411.600006
 21
117.202538
  0
LINE
  8
0
 10
-409.549988
 20
113.553246
 11
-409.549988
 21
113.651833
  0
LINE
  8
0
 10
-411.600006
 20
117.202538
 11
-412.000000
 21
117.202538
  0
LINE
  8
0
 10
-411.600006
 20
110.002541
 11
-412.000000
 21
110.002541
  0
LINE
  8
0
 10
-464.000000
 20
131.939301
 11
-414.000000
 21
131.939301
  0
LINE
  8
0
 10
-412.041962
 20
124.939308
 11
-414.000000
 21
124.939308
  0
LINE
  8
0
 10
-412.041962
 20
138.939301
 11
-414.000000
 21
138.939301
  0
LINE
  8
0
 10
-449.000000
 20
61.326412
 11
-449.000000
 21
78.673584
  0
LINE
  8
0
 10
-449.700012
 20
61.000000
 11
-449.700012
 21
79.000000
  0
LINE
  8
0
 10
-449.700012
 20
61.000000
 11
-461.000000
 21
61.000000
  0
LINE
  8
0
 10
-449.700012
 20
79.000000
 11
-461.000000
 21
79.000000
  0
LINE
  8
0
 10
-449.000031
 20
61.326401
 11
-449.700012
 21
60.999992
  0
LINE
  8
0
 10
-449.000000
 20
78.673599
 11
-449.700012
 21
79.000023
  0
LINE
  8
0
 10
-465.500000
 20
57.000000
 11
-465.500000
 21
5.500004
  0
LINE
  8
0
 10
-425.500000
 20
59.150002
 11
-425.500000
 21
20.850000
  0
LINE
  8
0
 10
-491.500000
 20
116.000000
 11
-491.500000
 21
-36.000000
  0
LINE
  8
0
 10
-488.954529
 20
-32.000000
 11
-473.000000
 21
-32.000000
  0
LINE
  8
0
 10
-484.500000
 20
-2.000000
 11
-470.000000
 21
-2.000000
  0
LINE
  8
0
 10
-469.600006
 20
5.000000
 11
-466.000000
 21
5.000000
  0
LINE
  8
0
 10
-465.500000
 20
20.000000
 11
-461.549988
 21
20.000000
  0
LINE
  8
0
 10
-484.500000
 20
82.000000
 11
-470.000000
 21
82.000000
  0
LINE
  8
0
 10
-488.954529
 20
112.000000
 11
-476.200012
 21
112.000000
  0
LINE
  8
0
 10
-465.999969
 20
4.999973
 11
-465.499969
 21
5.499973
  0
LINE
  8
0
 10
-461.500000
 20
59.250000
 11
-461.500000
 21
20.050003
  0
LINE
  8
0
 10
-461.500000
 20
20.049999
 11
-460.500000
 21
20.049999
  0
LINE
  8
0
 10
-461.000000
 20
59.950001
 11
-460.500000
 21
59.950001
  0
LINE
  8
0
 10
-426.299896
 20
20.049883
 11
-425.499878
 21
20.849888
  0
LINE
  8
0
 10
-426.299957
 20
59.950035
 11
-425.499939
 21
59.150040
  0
LINE
  8
0
 10
-426.299988
 20
59.950001
 11
-426.299988
 21
20.049995
  0
LINE
  8
0
 10
-461.549988
 20
19.999994
 11
-461.500000
 21
20.049997
  0
LINE
  8
0
 10
-491.500000
 20
-36.000008
 11
-488.954559
 21
-32.000015
  0
LINE
  8
0
 10
-491.500000
 20
116.000008
 11
-488.954559
 21
112.000015
  0
LINE
  8
0
 10
-460.500000
 20
37.112518
 11
-460.500000
 21
20.260071
  0
LINE
  8
0
 10
-431.000000
 20
42.887482
 11
-426.299988
 21
42.887482
  0
LINE
  8
0
 10
-431.000000
 20
37.112518
 11
-426.299988
 21
37.112518
  0
LINE
  8
0
 10
-431.000000
 20
20.260071
 11
-426.299988
 21
20.260071
  0
LINE
  8
0
 10
-426.300110
 20
20.260220
 11
-425.500122
 21
21.015541
  0
LINE
  8
0
 10
-426.299988
 20
37.112534
 11
-425.500000
 21
37.488567
  0
LINE
  8
0
 10
-431.000000
 20
45.203545
 11
-426.299988
 21
42.887566
  0
LINE
  8
0
 10
-426.299957
 20
59.739922
 11
-431.000000
 21
57.423920
  0
LINE
  8
0
 10
-431.000000
 20
22.576084
 11
-426.299957
 21
20.260082
  0
LINE
  8
0
 10
-426.299957
 20
37.112537
 11
-431.000000
 21
34.796539
  0
LINE
  8
0
 10
-460.500000
 20
59.739929
 11
-460.500000
 21
42.887482
  0
LINE
  8
0
 10
-426.300049
 20
42.887367
 11
-425.500061
 21
42.511333
  0
LINE
  8
0
 10
-425.499969
 20
58.984577
 11
-426.299988
 21
59.739891
  0
LINE
  8
0
 10
-484.500000
 20
104.008331
 11
-484.500000
 21
82.000000
  0
LINE
  8
0
 10
-484.500000
 20
62.208668
 11
-484.500000
 21
17.791332
  0
LINE
  8
0
 10
-484.500000
 20
-2.000000
 11
-484.500000
 21
-24.008331
  0
LINE
  8
0
 10
-449.700012
 20
63.000000
 11
-457.020294
 21
63.000000
  0
LINE
  8
0
 10
-449.700012
 20
65.000000
 11
-455.865601
 21
65.000000
  0
LINE
  8
0
 10
-449.700012
 20
67.000000
 11
-454.710876
 21
67.000000
  0
LINE
  8
0
 10
-449.700012
 20
69.000000
 11
-453.556213
 21
69.000000
  0
LINE
  8
0
 10
-449.700012
 20
71.000000
 11
-452.401489
 21
71.000000
  0
LINE
  8
0
 10
-449.700012
 20
73.000000
 11
-451.246796
 21
73.000000
  0
LINE
  8
0
 10
-470.600006
 20
168.350006
 11
-470.600006
 21
157.850006
  0
LINE
  8
0
 10
-476.600006
 20
167.500000
 11
-476.600006
 21
158.700012
  0
LINE
  8
0
 10
-476.000000
 20
168.100006
 11
-476.000000
 21
158.100006
  0
LINE
  8
0
 10
-476.000000
 20
112.200005
 11
-470.600006
 21
112.200005
  0
LINE
  8
0
 10
-476.000000
 20
102.200005
 11
-470.600006
 21
102.200005
  0
LINE
  8
0
 10
-476.000000
 20
139.800003
 11
-470.600006
 21
139.800003
  0
LINE
  8
0
 10
-476.000000
 20
129.800003
 11
-470.600006
 21
129.800003
  0
LINE
  8
0
 10
-476.000000
 20
168.100006
 11
-470.600006
 21
168.100006
  0
LINE
  8
0
 10
-476.000000
 20
158.100006
 11
-470.600006
 21
158.100006
  0
LINE
  8
0
 10
-470.600006
 20
157.850006
 11
-470.000000
 21
157.850006
  0
LINE
  8
0
 10
-470.600006
 20
168.350006
 11
-470.000000
 21
168.350006
  0
LINE
  8
0
 10
-470.600006
 20
140.050003
 11
-470.000000
 21
140.050003
  0
LINE
  8
0
 10
-470.600006
 20
129.550003
 11
-470.000000
 21
129.550003
  0
LINE
  8
0
 10
-470.600006
 20
101.950005
 11
-470.000000
 21
101.950005
  0
LINE
  8
0
 10
-470.600006
 20
112.450005
 11
-470.000000
 21
112.450005
  0
LINE
  8
0
 10
-476.000000
 20
112.200005
 11
-476.000000
 21
102.200005
  0
LINE
  8
0
 10
-476.600006
 20
111.600006
 11
-476.600006
 21
102.800003
  0
LINE
  8
0
 10
-470.600006
 20
112.450005
 11
-470.600006
 21
101.950005
  0
LINE
  8
0
 10
-476.600006
 20
139.200012
 11
-476.600006
 21
130.399994
  0
LINE
  8
0
 10
-476.000000
 20
139.800003
 11
-476.000000
 21
129.800003
  0
LINE
  8
0
 10
-470.600006
 20
140.050003
 11
-470.600006
 21
129.550003
  0
LINE
  8
0
 10
-476.000000
 20
102.200012
 11
-476.600006
 21
102.800011
  0
LINE
  8
0
 10
-476.600006
 20
111.600006
 11
-476.000000
 21
112.200005
  0
LINE
  8
0
 10
-476.000000
 20
129.800003
 11
-476.600006
 21
130.399994
  0
LINE
  8
0
 10
-476.600006
 20
139.200012
 11
-476.000000
 21
139.800018
  0
LINE
  8
0
 10
-476.000000
 20
158.100006
 11
-476.600006
 21
158.700012
  0
LINE
  8
0
 10
-476.600006
 20
167.500015
 11
-476.000000
 21
168.100006
  0
LINE
  8
0
 10
-461.000000
 20
80.750000
 11
-461.000000
 21
59.250000
  0
LINE
  8
0
 10
-461.000000
 20
80.750000
 11
-464.000000
 21
80.750000
  0
LINE
  8
0
 10
-461.000000
 20
59.250000
 11
-464.000000
 21
59.250000
  0
LINE
  8
0
 10
-464.000000
 20
68.267952
 11
-461.000000
 21
70.000000
  0
LINE
  8
0
 10
-464.000000
 20
69.653595
 11
-461.000000
 21
71.385651
  0
LINE
  8
0
 10
-431.000000
 20
117.964073
 11
-431.000000
 21
-35.501480
  0
LINE
  8
0
 10
-447.000000
 20
117.964073
 11
-447.000000
 21
38.577068
  0
LINE
  8
0
 10
-460.500000
 20
79.597977
 11
-460.500000
 21
79.000000
  0
LINE
  8
0
 10
-445.000000
 20
119.964073
 11
-433.000000
 21
119.964073
  0
LINE
  8
0
 10
-445.000000
 20
98.686218
 11
-433.000000
 21
98.686218
  0
LINE
  8
0
 10
-445.000000
 20
85.651901
 11
-433.000000
 21
85.651901
  0
LINE
  8
0
 10
-449.661224
 20
35.460873
 11
-431.000000
 21
35.460873
  0
LINE
  8
0
 10
-449.661163
 20
3.526939
 11
-431.000000
 21
3.526939
  0
LINE
  8
0
 10
-445.000000
 20
-37.501480
 11
-433.000000
 21
-37.501480
  0
LINE
  8
0
 10
-460.500000
 20
44.949745
 11
-451.992065
 21
44.949745
  0
LINE
  8
0
 10
-460.500000
 20
35.050255
 11
-451.999969
 21
35.050255
  0
LINE
  8
0
 10
-460.500000
 20
3.937557
 11
-451.995697
 21
3.937557
  0
LINE
  8
0
 10
-460.500000
 20
79.597977
 11
-454.999817
 21
79.597977
  0
LINE
  8
0
 10
-454.999817
 20
79.597977
 11
-454.999817
 21
79.000000
  0
LINE
  8
0
 10
-448.309204
 20
82.426498
 11
-447.000000
 21
82.426498
  0
LINE
  8
0
 10
-450.618561
 20
79.598022
 11
-448.309174
 21
82.426407
  0
LINE
  8
0
 10
-448.309082
 20
76.769547
 11
-449.000000
 21
77.615730
  0
LINE
  8
0
 10
-448.309204
 20
78.890968
 11
-447.000000
 21
78.890968
  0
LINE
  8
0
 10
-449.000000
 20
78.044800
 11
-448.309174
 21
78.890877
  0
LINE
  8
0
 10
-447.167908
 20
76.769547
 11
-448.309113
 21
76.769547
  0
LINE
  8
0
 10
-448.309204
 20
82.426407
 11
-448.309204
 21
78.890869
  0
LINE
  8
0
 10
-447.000000
 20
0.419506
 11
-447.000000
 21
-35.501480
  0
LINE
  8
0
 10
-445.000000
 20
-24.467484
 11
-433.000000
 21
-24.467484
  0
LINE
  8
0
 10
-431.000000
 20
93.047691
 11
-414.000000
 21
93.047691
  0
LINE
  8
0
 10
-450.130249
 20
79.000000
 11
-450.618530
 21
79.598007
  0
LINE
  8
0
 10
-460.500000
 20
61.000000
 11
-460.500000
 21
3.937557
  0
LINE
  8
0
 10
-431.000000
 20
59.950001
 11
-426.299988
 21
59.950001
  0
LINE
  8
0
 10
-431.000000
 20
59.739929
 11
-426.299988
 21
59.739929
  0
LINE
  8
0
 10
-431.000000
 20
20.049999
 11
-426.299988
 21
20.049999
  0
ARC
  8
0
 10
-415.045837
 20
163.210510
 40
6.063622
 50
337.346649
 51
22.653360
  0
ARC
  8
0
 10
-409.326172
 20
155.298981
 40
0.326181
 50
247.686935
 51
112.315109
  0
ARC
  8
0
 10
-416.952515
 20
158.237915
 40
7.952504
 50
340.632996
 51
19.366821
  0
CIRCLE
  8
0
 10
-439.000000
 20
115.016754
 40
0.010000
  0
CIRCLE
  8
0
 10
-452.081482
 20
105.095207
 40
0.010000
  0
CIRCLE
  8
0
 10
-425.918518
 20
123.595215
 40
0.010000
  0
ARC
  8
0
 10
-413.650024
 20
113.553246
 40
4.100010
 50
300.000214
 51
0.000000
  0
ARC
  8
0
 10
-413.650024
 20
113.651833
 40
4.100006
 50
0.000000
 51
59.999783
  0
ARC
  8
0
 10
-426.799988
 20
131.939301
 40
17.999994
 50
343.398499
 51
16.601540
  0
ARC
  8
0
 10
-412.041962
 20
127.539307
 40
2.599998
 50
270.000000
 51
343.398346
  0
ARC
  8
0
 10
-412.041962
 20
136.339310
 40
2.599990
 50
16.601656
 51
90.000000
  0
ARC
  8
0
 10
-473.000000
 20
-29.000000
 40
3.000000
 50
270.000000
 51
0.000000
  0
ARC
  8
0
 10
-469.600006
 20
4.599998
 40
0.400002
 50
90.000000
 51
180.000000
  0
ARC
  8
0
 10
-433.000000
 20
-35.501480
 40
2.000000
 50
270.000000
 51
0.000000
  0
ARC
  8
0
 10
-445.000000
 20
-35.501480
 40
2.000000
 50
180.000000
 51
270.000000
  0
ARC
  8
0
 10
-433.000000
 20
96.686218
 40
2.000000
 50
0.000000
 51
90.000000
  0
ARC
  8
0
 10
-445.000000
 20
96.686218
 40
2.000000
 50
90.000000
 51
180.000000
  0
ARC
  8
0
 10
-433.000000
 20
117.964073
 40
2.000000
 50
0.000000
 51
90.000000
  0
ARC
  8
0
 10
-445.000000
 20
117.964073
 40
2.000000
 50
90.000000
 51
180.000000
  0
ARC
  8
0
 10
-457.312683
 20
146.129456
 40
1.712665
 50
345.892456
 51
14.107556
  0
ARC
  8
0
 10
-457.760559
 20
145.965256
 40
2.187629
 50
15.419332
 51
51.390373
  0
ARC
  8
0
 10
-459.000000
 20
144.154297
 40
4.379158
 50
53.504395
 51
126.495605
  0
ARC
  8
0
 10
-460.239441
 20
145.965256
 40
2.187642
 50
128.609634
 51
164.580673
  0
ARC
  8
0
 10
-460.687317
 20
146.129456
 40
1.712665
 50
165.892441
 51
194.107559
  0
ARC
  8
0
 10
-460.239441
 20
146.293655
 40
2.187629
 50
195.419327
 51
231.390366
  0
ARC
  8
0
 10
-459.000000
 20
148.104614
 40
4.379158
 50
233.504395
 51
306.495605
  0
ARC
  8
0
 10
-457.760559
 20
146.293655
 40
2.187642
 50
308.609619
 51
344.580658
  0
ARC
  8
0
 10
-439.000000
 20
109.626587
 40
11.435836
 50
64.149025
 51
115.855400
  0
ARC
  8
0
 10
-424.100647
 20
125.327408
 40
1.782104
 50
0.000000
 51
14.231613
  0
ARC
  8
0
 10
-424.583160
 20
125.148941
 40
2.294334
 50
15.589443
 51
51.687019
  0
ARC
  8
0
 10
-425.918518
 20
123.180527
 40
4.669886
 50
53.804703
 51
126.195297
  0
ARC
  8
0
 10
-427.253876
 20
125.148941
 40
2.294343
 50
128.312973
 51
164.410553
  0
ARC
  8
0
 10
-427.736389
 20
125.327408
 40
1.782110
 50
165.768387
 51
180.000000
  0
ARC
  8
0
 10
-425.918518
 20
127.191452
 40
4.669887
 50
300.677490
 51
306.195282
  0
ARC
  8
0
 10
-424.583160
 20
125.223038
 40
2.294343
 50
308.312988
 51
344.410553
  0
ARC
  8
0
 10
-424.100647
 20
125.044571
 40
1.782110
 50
345.768372
 51
14.231613
  0
ARC
  8
0
 10
-424.583160
 20
124.866104
 40
2.294334
 50
15.589443
 51
51.687019
  0
ARC
  8
0
 10
-425.918518
 20
122.897690
 40
4.669886
 50
53.804703
 51
126.195297
  0
ARC
  8
0
 10
-427.253876
 20
124.866104
 40
2.294343
 50
128.312973
 51
164.410553
  0
ARC
  8
0
 10
-427.736389
 20
125.044571
 40
1.782110
 50
165.768387
 51
194.231613
  0
ARC
  8
0
 10
-427.253876
 20
125.223038
 40
2.294334
 50
195.589447
 51
231.687027
  0
ARC
  8
0
 10
-425.918518
 20
127.191452
 40
4.669886
 50
233.804703
 51
239.319504
  0
ARC
  8
0
 10
-450.263611
 20
106.827408
 40
1.782104
 50
0.000000
 51
14.231613
  0
ARC
  8
0
 10
-450.746124
 20
106.648941
 40
2.294334
 50
15.589443
 51
51.686901
  0
ARC
  8
0
 10
-452.081482
 20
104.680519
 40
4.669886
 50
53.804703
 51
126.195297
  0
ARC
  8
0
 10
-453.416840
 20
106.648941
 40
2.294338
 50
128.313095
 51
164.410553
  0
ARC
  8
0
 10
-453.899353
 20
106.827408
 40
1.782110
 50
165.768387
 51
180.000000
  0
ARC
  8
0
 10
-452.081482
 20
108.691460
 40
4.669889
 50
300.677887
 51
306.195282
  0
ARC
  8
0
 10
-450.746124
 20
106.723038
 40
2.294338
 50
308.313110
 51
344.410553
  0
ARC
  8
0
 10
-450.263611
 20
106.544571
 40
1.782110
 50
345.768372
 51
14.231613
  0
ARC
  8
0
 10
-450.746124
 20
106.366104
 40
2.294334
 50
15.589443
 51
51.686901
  0
ARC
  8
0
 10
-452.081482
 20
104.397682
 40
4.669886
 50
53.804703
 51
126.195297
  0
ARC
  8
0
 10
-453.416840
 20
106.366104
 40
2.294338
 50
128.313095
 51
164.410553
  0
ARC
  8
0
 10
-453.899353
 20
106.544571
 40
1.782110
 50
165.768387
 51
194.231613
  0
ARC
  8
0
 10
-453.416840
 20
106.723038
 40
2.294334
 50
195.589447
 51
231.686905
  0
ARC
  8
0
 10
-452.081482
 20
108.691460
 40
4.669886
 50
233.804703
 51
239.319931
  0
ARC
  8
0
 10
-450.549164
 20
106.047913
 40
1.555671
 50
345.893433
 51
14.106575
  0
ARC
  8
0
 10
-450.955872
 20
105.898804
 40
1.986977
 50
15.418337
 51
51.389256
  0
ARC
  8
0
 10
-452.081482
 20
104.254257
 40
3.977153
 50
53.502899
 51
126.497101
  0
ARC
  8
0
 10
-453.207092
 20
105.898804
 40
1.986983
 50
128.610748
 51
164.581665
  0
ARC
  8
0
 10
-453.613800
 20
106.047913
 40
1.555671
 50
165.893417
 51
194.106583
  0
ARC
  8
0
 10
-453.207092
 20
106.197021
 40
1.986977
 50
195.418335
 51
231.389252
  0
ARC
  8
0
 10
-452.081482
 20
107.841568
 40
3.977153
 50
233.502899
 51
306.497101
  0
ARC
  8
0
 10
-450.955872
 20
106.197021
 40
1.986983
 50
308.610748
 51
344.581665
  0
ARC
  8
0
 10
-450.862579
 20
105.650017
 40
1.237097
 50
346.034729
 51
14.250495
  0
ARC
  8
0
 10
-451.185822
 20
105.530594
 40
1.580210
 50
15.562374
 51
51.533913
  0
ARC
  8
0
 10
-452.077942
 20
104.220108
 40
3.163386
 50
53.647724
 51
126.637161
  0
ARC
  8
0
 10
-452.976562
 20
105.526138
 40
1.580197
 50
128.751053
 51
164.722977
  0
ARC
  8
0
 10
-453.300385
 20
105.643944
 40
1.237097
 50
166.034714
 51
194.250488
  0
ARC
  8
0
 10
-452.977142
 20
105.763367
 40
1.580210
 50
195.562378
 51
231.533905
  0
ARC
  8
0
 10
-452.085022
 20
107.073853
 40
3.163386
 50
233.647720
 51
306.637177
  0
ARC
  8
0
 10
-451.186401
 20
105.767822
 40
1.580197
 50
308.751038
 51
344.722961
  0
ARC
  8
0
 10
-451.375031
 20
105.265091
 40
0.717067
 50
346.082031
 51
14.297057
  0
ARC
  8
0
 10
-451.562317
 20
105.195724
 40
0.915919
 50
15.608826
 51
51.580795
  0
ARC
  8
0
 10
-452.078735
 20
104.435783
 40
1.833463
 50
53.694687
 51
126.685699
  0
ARC
  8
0
 10
-452.600189
 20
105.192284
 40
0.915919
 50
128.799637
 51
164.770493
  0
ARC
  8
0
 10
-452.787933
 20
105.260406
 40
0.717067
 50
166.082031
 51
194.297058
  0
ARC
  8
0
 10
-452.600647
 20
105.329773
 40
0.915919
 50
195.608826
 51
231.580795
  0
ARC
  8
0
 10
-452.084229
 20
106.089714
 40
1.833463
 50
233.694687
 51
306.685699
  0
ARC
  8
0
 10
-451.562775
 20
105.333214
 40
0.915919
 50
308.799652
 51
344.770508
  0
ARC
  8
0
 10
-424.386200
 20
124.547920
 40
1.555671
 50
345.893433
 51
14.106575
  0
ARC
  8
0
 10
-424.792908
 20
124.398811
 40
1.986977
 50
15.418337
 51
51.389256
  0
ARC
  8
0
 10
-425.918518
 20
122.754265
 40
3.977153
 50
53.502899
 51
126.497101
  0
ARC
  8
0
 10
-427.044128
 20
124.398811
 40
1.986983
 50
128.610748
 51
164.581665
  0
ARC
  8
0
 10
-427.450836
 20
124.547920
 40
1.555671
 50
165.893417
 51
194.106583
  0
ARC
  8
0
 10
-427.044128
 20
124.697029
 40
1.986977
 50
195.418335
 51
231.389252
  0
ARC
  8
0
 10
-425.918518
 20
126.341576
 40
3.977153
 50
233.502899
 51
306.497101
  0
ARC
  8
0
 10
-424.792908
 20
124.697029
 40
1.986983
 50
308.610748
 51
344.581665
  0
ARC
  8
0
 10
-424.699615
 20
124.146988
 40
1.237110
 50
345.892456
 51
14.107546
  0
ARC
  8
0
 10
-425.023132
 20
124.028374
 40
1.580195
 50
15.419568
 51
51.392036
  0
ARC
  8
0
 10
-425.918518
 20
122.720108
 40
3.163380
 50
53.505444
 51
126.494560
  0
ARC
  8
0
 10
-426.813904
 20
124.028374
 40
1.580195
 50
128.607971
 51
164.580429
  0
ARC
  8
0
 10
-427.137421
 20
124.146988
 40
1.237110
 50
165.892456
 51
194.107544
  0
ARC
  8
0
 10
-426.813904
 20
124.265602
 40
1.580195
 50
195.419571
 51
231.392029
  0
ARC
  8
0
 10
-425.918518
 20
125.573868
 40
3.163380
 50
233.505447
 51
306.494568
  0
ARC
  8
0
 10
-425.023132
 20
124.265602
 40
1.580195
 50
308.607971
 51
344.580444
  0
ARC
  8
0
 10
-425.212067
 20
123.762756
 40
0.717060
 50
345.892792
 51
14.107213
  0
ARC
  8
0
 10
-425.399567
 20
123.694008
 40
0.915902
 50
15.419416
 51
51.390877
  0
ARC
  8
0
 10
-425.918518
 20
122.935791
 40
1.833474
 50
53.504181
 51
126.495819
  0
ARC
  8
0
 10
-426.437469
 20
123.694008
 40
0.915913
 50
128.609131
 51
164.580582
  0
ARC
  8
0
 10
-426.624969
 20
123.762756
 40
0.717060
 50
165.892792
 51
194.107208
  0
ARC
  8
0
 10
-426.437469
 20
123.831505
 40
0.915902
 50
195.419418
 51
231.390869
  0
ARC
  8
0
 10
-425.918518
 20
124.589722
 40
1.833474
 50
233.504181
 51
306.495819
  0
ARC
  8
0
 10
-425.399567
 20
123.831505
 40
0.915913
 50
308.609131
 51
344.580597
  0
ARC
  8
0
 10
-439.000000
 20
107.390488
 40
23.182585
 50
90.594803
 51
126.497795
  0
ARC
  8
0
 10
-445.560974
 20
116.976074
 40
11.582401
 50
128.611526
 51
164.582062
  0
ARC
  8
0
 10
-447.931671
 20
117.845177
 40
9.068319
 50
165.893555
 51
180.028534
  0
ARC
  8
0
 10
-423.437500
 20
127.095169
 40
2.518992
 50
358.277069
 51
14.106447
  0
ARC
  8
0
 10
-424.096008
 20
126.853752
 40
3.217317
 50
15.418029
 51
51.388741
  0
ARC
  8
0
 10
-425.918518
 20
124.191086
 40
6.439620
 50
53.502232
 51
90.281845
  0
ARC
  8
0
 10
-444.458221
 20
117.845177
 40
5.541774
 50
189.182007
 51
194.106491
  0
ARC
  8
0
 10
-443.009460
 20
118.376282
 40
7.078150
 50
195.417877
 51
231.388458
  0
ARC
  8
0
 10
-439.000000
 20
124.234100
 40
14.167102
 50
233.502167
 51
235.701538
  0
ARC
  8
0
 10
-439.000000
 20
105.622726
 40
23.182585
 50
90.594803
 51
126.497795
  0
ARC
  8
0
 10
-445.560974
 20
115.208313
 40
11.582401
 50
128.611526
 51
164.582062
  0
ARC
  8
0
 10
-447.931671
 20
116.077415
 40
9.068319
 50
165.893555
 51
180.028534
  0
ARC
  8
0
 10
-454.562500
 20
106.827408
 40
2.518992
 50
178.277069
 51
194.106445
  0
ARC
  8
0
 10
-453.903961
 20
107.068825
 40
3.217347
 50
195.417877
 51
231.388321
  0
ARC
  8
0
 10
-452.081482
 20
109.731483
 40
6.439613
 50
233.502197
 51
270.281586
  0
ARC
  8
0
 10
-439.000000
 20
126.532104
 40
23.182590
 50
290.103271
 51
306.497803
  0
ARC
  8
0
 10
-432.439026
 20
116.946518
 40
11.582401
 50
308.611511
 51
344.582062
  0
ARC
  8
0
 10
-430.068329
 20
116.077415
 40
9.068319
 50
345.893555
 51
358.858917
  0
ARC
  8
0
 10
-423.437500
 20
125.327408
 40
2.518992
 50
358.277069
 51
14.106447
  0
ARC
  8
0
 10
-424.096008
 20
125.085991
 40
3.217317
 50
15.418029
 51
51.388657
  0
ARC
  8
0
 10
-425.918518
 20
122.423325
 40
6.439613
 50
53.502193
 51
90.281845
  0
ARC
  8
0
 10
-433.541779
 20
116.077423
 40
5.541779
 50
0.000000
 51
14.106493
  0
ARC
  8
0
 10
-434.990540
 20
115.546318
 40
7.078150
 50
15.417875
 51
51.388454
  0
ARC
  8
0
 10
-439.000000
 20
109.688499
 40
14.167102
 50
53.502171
 51
126.497826
  0
ARC
  8
0
 10
-443.009460
 20
115.546318
 40
7.078142
 50
128.611542
 51
164.582123
  0
ARC
  8
0
 10
-444.458221
 20
116.077423
 40
5.541780
 50
165.893509
 51
194.106491
  0
ARC
  8
0
 10
-443.009460
 20
116.608528
 40
7.078150
 50
195.417877
 51
231.388458
  0
ARC
  8
0
 10
-439.000000
 20
122.466347
 40
14.167102
 50
233.502167
 51
235.701538
  0
POLYLINE
  8
0
 66
     1
  0
VERTEX
  8
0
 10
-484.500000
 20
82.000000
  0
VERTEX
  8
0
 10
-485.334930
 20
81.786491
  0
VERTEX
  8
0
 10
-486.138611
 20
81.463776
  0
VERTEX
  8
0
 10
-486.881897
 20
81.052849
  0
VERTEX
  8
0
 10
-487.521301
 20
80.592453
  0
VERTEX
  8
0
 10
-488.076630
 20
80.050018
  0
VERTEX
  8
0
 10
-488.503357
 20
79.409973
  0
VERTEX
  8
0
 10
-488.766266
 20
78.685562
  0
VERTEX
  8
0
 10
-488.884064
 20
77.901779
  0
VERTEX
  8
0
 10
-488.923370
 20
77.000412
  0
VERTEX
  8
0
 10
-488.934113
 20
76.171761
  0
VERTEX
  8
0
 10
-488.923889
 20
75.359375
  0
VERTEX
  8
0
 10
-488.886536
 20
74.546066
  0
VERTEX
  8
0
 10
-488.815826
 20
73.714645
  0
VERTEX
  8
0
 10
-488.704468
 20
72.842148
  0
VERTEX
  8
0
 10
-488.556427
 20
71.976692
  0
VERTEX
  8
0
 10
-488.371521
 20
71.104019
  0
VERTEX
  8
0
 10
-488.149536
 20
70.209839
  0
VERTEX
  8
0
 10
-487.871216
 20
69.236893
  0
VERTEX
  8
0
 10
-487.554077
 20
68.259079
  0
VERTEX
  8
0
 10
-487.217743
 20
67.325684
  0
VERTEX
  8
0
 10
-486.881897
 20
66.485977
  0
VERTEX
  8
0
 10
-486.486847
 20
65.606743
  0
VERTEX
  8
0
 10
-486.058411
 20
64.742989
  0
VERTEX
  8
0
 10
-485.634644
 20
63.966896
  0
VERTEX
  8
0
 10
-485.275635
 20
63.368465
  0
VERTEX
  8
0
 10
-484.897064
 20
62.782280
  0
VERTEX
  8
0
 10
-484.500000
 20
62.208668
  0
SEQEND
  0
POLYLINE
  8
0
 66
     1
  0
VERTEX
  8
0
 10
-484.500000
 20
-2.000000
  0
VERTEX
  8
0
 10
-485.334930
 20
-1.786491
  0
VERTEX
  8
0
 10
-486.138611
 20
-1.463772
  0
VERTEX
  8
0
 10
-486.881897
 20
-1.052849
  0
VERTEX
  8
0
 10
-487.521301
 20
-0.592451
  0
VERTEX
  8
0
 10
-488.076630
 20
-0.050017
  0
VERTEX
  8
0
 10
-488.503357
 20
0.590031
  0
VERTEX
  8
0
 10
-488.766266
 20
1.314442
  0
VERTEX
  8
0
 10
-488.884064
 20
2.098222
  0
VERTEX
  8
0
 10
-488.923370
 20
2.999588
  0
VERTEX
  8
0
 10
-488.934113
 20
3.828241
  0
VERTEX
  8
0
 10
-488.923889
 20
4.640623
  0
VERTEX
  8
0
 10
-488.886536
 20
5.453928
  0
VERTEX
  8
0
 10
-488.815826
 20
6.285351
  0
VERTEX
  8
0
 10
-488.704468
 20
7.157852
  0
VERTEX
  8
0
 10
-488.556427
 20
8.023303
  0
VERTEX
  8
0
 10
-488.371521
 20
8.895981
  0
VERTEX
  8
0
 10
-488.149536
 20
9.790161
  0
VERTEX
  8
0
 10
-487.871216
 20
10.763110
  0
VERTEX
  8
0
 10
-487.554077
 20
11.740923
  0
VERTEX
  8
0
 10
-487.217743
 20
12.674320
  0
VERTEX
  8
0
 10
-486.881897
 20
13.514023
  0
VERTEX
  8
0
 10
-486.486847
 20
14.393254
  0
VERTEX
  8
0
 10
-486.058411
 20
15.257011
  0
VERTEX
  8
0
 10
-485.634644
 20
16.033106
  0
VERTEX
  8
0
 10
-485.275635
 20
16.631536
  0
VERTEX
  8
0
 10
-484.897064
 20
17.217722
  0
VERTEX
  8
0
 10
-484.500000
 20
17.791332
  0
SEQEND
  0
POLYLINE
  8
0
 66
     1
  0
VERTEX
  8
0
 10
-488.954529
 20
112.000000
  0
VERTEX
  8
0
 10
-488.652191
 20
111.431564
  0
VERTEX
  8
0
 10
-488.337280
 20
110.843742
  0
VERTEX
  8
0
 10
-488.005035
 20
110.227577
  0
VERTEX
  8
0
 10
-487.625183
 20
109.529434
  0
VERTEX
  8
0
 10
-487.259827
 20
108.863297
  0
VERTEX
  8
0
 10
-486.892151
 20
108.198418
  0
VERTEX
  8
0
 10
-486.535095
 20
107.557983
  0
VERTEX
  8
0
 10
-486.207275
 20
106.974792
  0
VERTEX
  8
0
 10
-485.877563
 20
106.392700
  0
VERTEX
  8
0
 10
-485.542358
 20
105.805573
  0
VERTEX
  8
0
 10
-485.196960
 20
105.205299
  0
VERTEX
  8
0
 10
-484.849518
 20
104.606216
  0
VERTEX
  8
0
 10
-484.500000
 20
104.008331
  0
SEQEND
  0
POLYLINE
  8
0
 66
     1
  0
VERTEX
  8
0
 10
-488.954529
 20
-32.000000
  0
VERTEX
  8
0
 10
-488.652191
 20
-31.431564
  0
VERTEX
  8
0
 10
-488.337280
 20
-30.843742
  0
VERTEX
  8
0
 10
-488.005035
 20
-30.227573
  0
VERTEX
  8
0
 10
-487.625183
 20
-29.529434
  0
VERTEX
  8
0
 10
-487.259827
 20
-28.863293
  0
VERTEX
  8
0
 10
-486.892151
 20
-28.198416
  0
VERTEX
  8
0
 10
-486.535095
 20
-27.557983
  0
VERTEX
  8
0
 10
-486.207275
 20
-26.974796
  0
VERTEX
  8
0
 10
-485.877563
 20
-26.392698
  0
VERTEX
  8
0
 10
-485.542358
 20
-25.805573
  0
VERTEX
  8
0
 10
-485.196960
 20
-25.205297
  0
VERTEX
  8
0
 10
-484.849518
 20
-24.606215
  0
VERTEX
  8
0
 10
-484.500000
 20
-24.008331
  0
SEQEND
  0
ARC
  8
0
 10
-445.999817
 20
74.597908
 40
10.303370
 50
95.563339
 51
126.497787
  0
ARC
  8
0
 10
-448.915802
 20
78.858162
 40
5.147733
 50
128.611481
 51
164.581985
  0
ARC
  8
0
 10
-449.969421
 20
79.244423
 40
4.030383
 50
165.893463
 51
183.477402
  0
ARC
  8
0
 10
-445.999817
 20
75.454453
 40
9.187993
 50
96.251190
 51
126.497704
  0
ARC
  8
0
 10
-448.600128
 20
79.253525
 40
4.590481
 50
128.611450
 51
164.582047
  0
ARC
  8
0
 10
-449.539703
 20
79.597977
 40
3.594099
 50
165.893555
 51
189.569458
  0
ARC
  8
0
 10
-452.000000
 20
80.582161
 40
6.439601
 50
297.630524
 51
306.497803
  0
ARC
  8
0
 10
-450.177521
 20
77.919495
 40
3.217344
 50
308.611755
 51
344.582123
  0
ARC
  8
0
 10
-449.518982
 20
77.678085
 40
2.518986
 50
345.893372
 51
0.000000
  0
ARC
  8
0
 10
-452.000000
 20
41.489861
 40
6.439606
 50
270.000275
 51
306.497803
  0
ARC
  8
0
 10
-450.177521
 20
38.827198
 40
3.217347
 50
308.611725
 51
344.582123
  0
ARC
  8
0
 10
-449.518982
 20
38.585785
 40
2.518986
 50
345.893463
 51
0.000087
  0
ARC
  8
0
 10
-449.518921
 20
0.402027
 40
2.518982
 50
359.999939
 51
14.106558
  0
ARC
  8
0
 10
-450.177460
 20
0.160612
 40
3.217348
 50
15.417934
 51
51.388302
  0
ARC
  8
0
 10
-451.999939
 20
-2.502042
 40
6.439609
 50
53.502159
 51
90.000000
  0
ARC
  8
0
 10
-452.000000
 20
51.389351
 40
6.439613
 50
270.000275
 51
306.497803
  0
ARC
  8
0
 10
-450.177521
 20
48.726688
 40
3.217347
 50
308.611725
 51
344.582123
  0
ARC
  8
0
 10
-449.518982
 20
48.485275
 40
2.518986
 50
345.893463
 51
0.000000
  0
ARC
  8
0
 10
-439.000000
 20
124.234100
 40
14.167102
 50
304.302490
 51
306.497833
  0
ARC
  8
0
 10
-434.990540
 20
118.376282
 40
7.078142
 50
308.611542
 51
344.582123
  0
ARC
  8
0
 10
-433.541779
 20
117.845177
 40
5.541780
 50
345.893494
 51
350.824371
  0
ARC
  8
0
 10
-439.000000
 20
122.466347
 40
14.167102
 50
304.302490
 51
306.497833
  0
ARC
  8
0
 10
-434.990540
 20
116.608528
 40
7.078142
 50
308.611542
 51
344.582123
  0
ARC
  8
0
 10
-433.541779
 20
116.077423
 40
5.541780
 50
345.893494
 51
0.000000
  0
POINT
  8
0
 10
-220.000000
 20
270.000000
  0
POINT
  8
0
 10
-122.000000
 20
270.000000
  0
LINE
  8
0
 10
-272.999695
 20
294.700012
 11
-311.939331
 21
333.639679
  0
LINE
  8
0
 10
-311.939331
 20
206.360367
 11
-272.999695
 21
245.299988
  0
LINE
  8
0
 10
-311.939331
 20
206.360352
 11
-354.999695
 21
249.420746
  0
LINE
  8
0
 10
-354.999695
 20
290.579285
 11
-311.939331
 21
333.639679
  0
LINE
  8
0
 10
-272.999695
 20
245.299988
 11
-272.999695
 21
294.700012
  0
LINE
  8
0
 10
-354.999695
 20
249.399704
 11
-354.999695
 21
290.600311
  0
LINE
  8
0
 10
-301.686279
 20
326.922119
 11
-286.624908
 21
341.983490
  0
LINE
  8
0
 10
-290.372528
 20
315.608398
 11
-275.311157
 21
330.669739
  0
LINE
  8
0
 10
-300.970734
 20
213.705841
 11
-301.014526
 21
213.749634
  0
LINE
  8
0
 10
-291.000549
 20
223.676056
 11
-291.044342
 21
223.719833
  0
LINE
  8
0
 10
-285.458191
 20
341.806732
 11
-284.353729
 21
342.911194
  0
LINE
  8
0
 10
-275.487976
 20
331.836548
 11
-274.383545
 21
332.940979
  0
LINE
  8
0
 10
-275.101959
 20
331.450531
 11
-285.844116
 21
342.192688
  0
LINE
  8
0
 10
-300.970703
 20
213.705856
 11
-291.000519
 21
223.676056
  0
LINE
  8
0
 10
-284.353699
 20
342.911163
 11
-274.383484
 21
332.940948
  0
LINE
  8
0
 10
-275.311188
 20
330.669769
 11
-275.101990
 21
331.450500
  0
LINE
  8
0
 10
-286.624908
 20
341.983521
 11
-285.844147
 21
342.192719
  0
LINE
  8
0
 10
-275.311157
 20
330.669769
 11
-286.624878
 21
341.983490
  0
LINE
  8
0
 10
-308.757355
 20
206.006805
 11
-283.301514
 21
231.462646
  0
LINE
  8
0
 10
-283.301514
 20
308.537354
 11
-308.757355
 21
333.993225
  0
LINE
  8
0
 10
-307.779449
 20
206.984726
 11
-309.547211
 21
208.752502
  0
LINE
  8
0
 10
-284.279419
 20
230.484756
 11
-286.047180
 21
232.252533
  0
LINE
  8
0
 10
-335.552795
 20
259.535370
 11
-334.949310
 21
265.277252
  0
LINE
  8
0
 10
-345.498016
 20
260.580658
 11
-344.894531
 21
266.322540
  0
LINE
  8
0
 10
-335.552734
 20
259.535431
 11
-340.827087
 21
257.187134
  0
LINE
  8
0
 10
-339.620117
 20
268.670898
 11
-344.894470
 21
266.322601
  0
LINE
  8
0
 10
-340.827148
 20
257.186951
 11
-345.498016
 21
260.580536
  0
LINE
  8
0
 10
-334.949280
 20
265.277130
 11
-339.620148
 21
268.670715
  0
LINE
  8
0
 10
-337.839783
 20
262.175629
 11
-342.711914
 21
262.687714
  0
LINE
  8
0
 10
-337.735229
 20
263.170166
 11
-342.607361
 21
263.682220
  0
LINE
  8
0
 10
-337.513062
 20
271.973419
 11
-334.453583
 21
276.869598
  0
LINE
  8
0
 10
-345.993591
 20
277.272583
 11
-342.934082
 21
282.168793
  0
LINE
  8
0
 10
-337.513062
 20
271.973389
 11
-343.283051
 21
272.174866
  0
LINE
  8
0
 10
-337.164093
 20
281.967316
 11
-342.934082
 21
282.168793
  0
LINE
  8
0
 10
-343.283203
 20
272.174805
 11
-345.993683
 21
277.272522
  0
LINE
  8
0
 10
-334.453705
 20
276.869537
 11
-337.164185
 21
281.967224
  0
LINE
  8
0
 10
-338.411255
 20
275.348999
 11
-342.565857
 21
277.945068
  0
LINE
  8
0
 10
-337.881348
 20
276.197052
 11
-342.035889
 21
278.793121
  0
LINE
  8
0
 10
-273.554535
 20
260.834839
 11
-273.554535
 21
279.165161
  0
LINE
  8
0
 10
-296.615662
 20
244.546402
 11
-307.023193
 21
252.604538
  0
LINE
  8
0
 10
-290.493530
 20
244.546539
 11
-280.085999
 21
252.604675
  0
LINE
  8
0
 10
-280.085999
 20
287.395325
 11
-290.493530
 21
295.453461
  0
LINE
  8
0
 10
-296.615601
 20
295.453583
 11
-307.023132
 21
287.395447
  0
LINE
  8
0
 10
-313.554535
 20
260.834869
 11
-313.554535
 21
279.165161
  0
LINE
  8
0
 10
-307.542145
 20
206.656342
 11
-302.450989
 21
211.747513
  0
LINE
  8
0
 10
-307.542175
 20
206.656311
 11
-307.825012
 21
206.939148
  0
LINE
  8
0
 10
-302.451019
 20
211.747482
 11
-302.733856
 21
212.030319
  0
LINE
  8
0
 10
-289.042145
 20
225.156342
 11
-283.950989
 21
230.247498
  0
LINE
  8
0
 10
-289.042175
 20
225.156326
 11
-289.325012
 21
225.439163
  0
LINE
  8
0
 10
-283.950989
 20
230.247482
 11
-284.233826
 21
230.530334
  0
LINE
  8
0
 10
-283.950958
 20
309.752502
 11
-289.042145
 21
314.843689
  0
LINE
  8
0
 10
-283.950989
 20
309.752533
 11
-284.233826
 21
309.469696
  0
LINE
  8
0
 10
-289.042145
 20
314.843689
 11
-289.324982
 21
314.560852
  0
LINE
  8
0
 10
-302.450958
 20
328.252502
 11
-307.542114
 21
333.343689
  0
LINE
  8
0
 10
-302.450989
 20
328.252533
 11
-302.733856
 21
327.969696
  0
LINE
  8
0
 10
-307.542175
 20
333.343719
 11
-307.825012
 21
333.060852
  0
LINE
  8
0
 10
-237.000000
 20
210.000000
 11
-237.000000
 21
221.091309
  0
LINE
  8
0
 10
-310.600006
 20
335.000000
 11
-293.608398
 21
335.000000
  0
LINE
  8
0
 10
-310.600006
 20
205.000000
 11
-293.341675
 21
205.000000
  0
LINE
  8
0
 10
-237.000000
 20
300.594116
 11
-237.000000
 21
330.000000
  0
LINE
  8
0
 10
-237.000015
 20
210.000015
 11
-242.000015
 21
205.000000
  0
LINE
  8
0
 10
-236.999985
 20
330.000031
 11
-241.999985
 21
335.000031
  0
LINE
  8
0
 10
-285.069275
 20
306.769592
 11
-283.301514
 21
308.537354
  0
LINE
  8
0
 10
-310.525116
 20
332.225433
 11
-308.757355
 21
333.993195
  0
LINE
  8
0
 10
-308.757385
 20
206.006790
 11
-310.525146
 21
207.774551
  0
LINE
  8
0
 10
-283.301514
 20
231.462646
 11
-285.069275
 21
233.230408
  0
LINE
  8
0
 10
-310.600037
 20
204.999985
 11
-354.999725
 21
249.399689
  0
LINE
  8
0
 10
-354.999695
 20
290.600311
 11
-310.600006
 21
335.000000
  0
LINE
  8
0
 10
-230.142227
 20
359.217590
 11
-231.376236
 21
354.612244
  0
LINE
  8
0
 10
-209.857773
 20
359.217590
 11
-208.623779
 21
354.612244
  0
LINE
  8
0
 10
-230.142212
 20
180.782410
 11
-231.376221
 21
185.387772
  0
LINE
  8
0
 10
-209.857788
 20
180.782410
 11
-208.623795
 21
185.387756
  0
LINE
  8
0
 10
-152.411804
 20
217.841751
 11
-147.806427
 21
216.607742
  0
LINE
  8
0
 10
-141.035538
 20
237.545929
 11
-137.664215
 21
234.174591
  0
LINE
  8
0
 10
-141.035522
 20
302.453949
 11
-137.664154
 21
305.825317
  0
LINE
  8
0
 10
-201.591156
 20
214.932617
 11
-202.625824
 21
218.794098
  0
LINE
  8
0
 10
-181.514755
 20
226.523727
 11
-184.341522
 21
229.350494
  0
LINE
  8
0
 10
-163.105835
 20
258.408844
 11
-166.967316
 21
259.443512
  0
LINE
  8
0
 10
-163.105835
 20
281.591064
 11
-166.967255
 21
280.556396
  0
LINE
  8
0
 10
-202.625717
 20
321.205902
 11
-201.591049
 21
325.067322
  0
LINE
  8
0
 10
-232.544510
 20
317.500000
 11
-207.455338
 21
317.500000
  0
LINE
  8
0
 10
-232.544617
 20
222.500000
 11
-207.455460
 21
222.500000
  0
LINE
  8
0
 10
-185.136108
 20
235.386017
 11
-172.591522
 21
257.113892
  0
LINE
  8
0
 10
-142.500000
 20
241.081451
 11
-142.500000
 21
298.918427
  0
LINE
  8
0
 10
-172.889969
 20
332.290314
 11
-206.294159
 21
351.576233
  0
LINE
  8
0
 10
-233.705841
 20
188.423767
 11
-262.416687
 21
205.000000
  0
LINE
  8
0
 10
-206.294159
 20
188.423767
 11
-156.205887
 21
217.342224
  0
LINE
  8
0
 10
-262.416748
 20
335.000000
 11
-233.705856
 21
351.576233
  0
LINE
  8
0
 10
-222.511444
 20
251.015396
 11
-238.984604
 21
267.488556
  0
LINE
  8
0
 10
-217.488556
 20
251.015396
 11
-201.015396
 21
267.488556
  0
LINE
  8
0
 10
-238.984604
 20
272.511444
 11
-222.511444
 21
288.984619
  0
LINE
  8
0
 10
-201.015396
 20
272.511444
 11
-217.488556
 21
288.984619
  0
LINE
  8
0
 10
-217.488556
 20
288.984619
 11
-217.112518
 21
289.739929
  0
LINE
  8
0
 10
-222.511429
 20
288.984619
 11
-222.887482
 21
289.739929
  0
LINE
  8
0
 10
-239.739929
 20
272.887482
 11
-238.984604
 21
272.511444
  0
LINE
  8
0
 10
-239.739929
 20
267.112518
 11
-238.984604
 21
267.488556
  0
LINE
  8
0
 10
-222.887482
 20
250.260071
 11
-222.511444
 21
251.015396
  0
LINE
  8
0
 10
-217.112518
 20
250.260071
 11
-217.488556
 21
251.015396
  0
LINE
  8
0
 10
-201.015396
 20
267.488556
 11
-200.260071
 21
267.112518
  0
LINE
  8
0
 10
-200.260071
 20
272.887482
 11
-201.015396
 21
272.511414
  0
LINE
  8
0
 10
-275.369019
 20
335.000000
 11
-242.000000
 21
335.000000
  0
LINE
  8
0
 10
-311.939301
 20
238.544662
 11
-311.939301
 21
230.744659
  0
LINE
  8
0
 10
-315.839294
 20
234.644669
 11
-308.039307
 21
234.644669
  0
LINE
  8
0
 10
-247.113251
 20
213.050003
 11
-250.927933
 21
213.050003
  0
LINE
  8
0
 10
-245.205917
 20
216.353607
 11
-247.113251
 21
213.050003
  0
LINE
  8
0
 10
-293.554535
 20
249.943390
 11
-294.804535
 21
249.221695
  0
LINE
  8
0
 10
-294.804535
 20
249.221695
 11
-294.804535
 21
247.778320
  0
LINE
  8
0
 10
-293.554535
 20
247.056625
 11
-294.804535
 21
247.778320
  0
LINE
  8
0
 10
-292.304535
 20
247.778320
 11
-293.554535
 21
247.056625
  0
LINE
  8
0
 10
-292.304535
 20
249.221695
 11
-292.304535
 21
247.778320
  0
LINE
  8
0
 10
-293.554535
 20
249.943390
 11
-292.304535
 21
249.221695
  0
LINE
  8
0
 10
-293.554535
 20
292.943390
 11
-294.804535
 21
292.221680
  0
LINE
  8
0
 10
-294.804535
 20
292.221710
 11
-294.804535
 21
290.778320
  0
LINE
  8
0
 10
-293.554535
 20
290.056641
 11
-294.804535
 21
290.778320
  0
LINE
  8
0
 10
-292.304535
 20
290.778320
 11
-293.554535
 21
290.056641
  0
LINE
  8
0
 10
-292.304535
 20
292.221710
 11
-292.304535
 21
290.778320
  0
LINE
  8
0
 10
-293.554535
 20
292.943390
 11
-292.304535
 21
292.221710
  0
LINE
  8
0
 10
-244.226501
 20
321.950012
 11
-247.113251
 21
326.950012
  0
LINE
  8
0
 10
-247.113251
 20
326.950012
 11
-252.886749
 21
326.950012
  0
LINE
  8
0
 10
-255.773499
 20
321.950012
 11
-252.886749
 21
326.950012
  0
LINE
  8
0
 10
-252.886749
 20
316.950012
 11
-255.773499
 21
321.950012
  0
LINE
  8
0
 10
-247.113251
 20
316.950012
 11
-252.886749
 21
316.950012
  0
LINE
  8
0
 10
-244.226486
 20
321.950012
 11
-247.113251
 21
316.950012
  0
LINE
  8
0
 10
-311.939301
 20
309.255341
 11
-311.939301
 21
301.455353
  0
LINE
  8
0
 10
-315.839294
 20
305.355347
 11
-308.039307
 21
305.355347
  0
LINE
  8
0
 10
-254.847015
 20
208.454742
 11
-253.970367
 21
209.973114
  0
LINE
  8
0
 10
-255.886230
 20
209.054749
 11
-255.009613
 21
210.573120
  0
LINE
  8
0
 10
-255.886230
 20
330.945251
 11
-255.009598
 21
329.426880
  0
LINE
  8
0
 10
-254.847000
 20
331.545258
 11
-253.970367
 21
330.026886
  0
LINE
  8
0
 10
-215.460876
 20
233.526947
 11
-183.526947
 21
265.460876
  0
LINE
  8
0
 10
-264.901276
 20
273.181976
 11
-244.465897
 21
293.617371
  0
LINE
  8
0
 10
-264.511780
 20
205.207367
 11
-215.460876
 21
233.526932
  0
LINE
  8
0
 10
-276.823822
 20
193.377197
 11
-266.582825
 21
203.618195
  0
LINE
  8
0
 10
-277.407715
 20
224.613098
 11
-266.109222
 21
235.911575
  0
LINE
  8
0
 10
-299.964081
 20
213.345383
 11
-286.175293
 21
224.915558
  0
LINE
  8
0
 10
-259.597992
 20
268.585785
 11
-259.597992
 21
278.485291
  0
LINE
  8
0
 10
-228.485275
 20
309.597992
 11
-218.585785
 21
309.597992
  0
LINE
  8
0
 10
-155.207367
 20
314.511780
 11
-183.526932
 21
265.460876
  0
LINE
  8
0
 10
-143.377197
 20
326.823822
 11
-153.618195
 21
316.582825
  0
LINE
  8
0
 10
-163.345383
 20
349.964081
 11
-174.915558
 21
336.175293
  0
LINE
  8
0
 10
-174.613098
 20
327.407715
 11
-185.911575
 21
316.109222
  0
LINE
  8
0
 10
-221.414215
 20
248.786804
 11
-241.213196
 21
268.585785
  0
LINE
  8
0
 10
-241.213196
 20
271.414215
 11
-221.414215
 21
291.213196
  0
LINE
  8
0
 10
-198.786804
 20
271.414215
 11
-218.585785
 21
291.213196
  0
LINE
  8
0
 10
-218.585785
 20
248.786804
 11
-198.786804
 21
268.585785
  0
LINE
  8
0
 10
-241.920303
 20
271.414215
 11
-232.091522
 21
281.243011
  0
LINE
  8
0
 10
-221.414215
 20
248.079697
 11
-241.920303
 21
268.585785
  0
LINE
  8
0
 10
-218.585785
 20
248.079697
 11
-198.079697
 21
268.585785
  0
LINE
  8
0
 10
-198.079697
 20
271.414215
 11
-218.585785
 21
291.920319
  0
LINE
  8
0
 10
-230.889450
 20
281.737976
 11
-243.617371
 21
294.465881
  0
LINE
  8
0
 10
-231.737976
 20
280.889435
 11
-244.465897
 21
293.617371
  0
LINE
  8
0
 10
-231.242996
 20
282.091522
 11
-221.414215
 21
291.920319
  0
LINE
  8
0
 10
-243.617371
 20
294.465881
 11
-228.485275
 21
309.597992
  0
LINE
  8
0
 10
-235.273499
 20
284.424988
 11
-234.424973
 21
285.273499
  0
LINE
  8
0
 10
-242.344574
 20
291.496033
 11
-241.496048
 21
292.344574
  0
LINE
  8
0
 10
-264.901245
 20
273.181976
 11
-264.642426
 21
272.216064
  0
LINE
  8
0
 10
-258.775909
 20
266.349487
 11
-264.642456
 21
272.216064
  0
LINE
  8
0
 10
-259.147156
 20
267.427856
 11
-264.901276
 21
273.181976
  0
LINE
  8
0
 10
-264.870941
 20
205.000000
 11
-242.000000
 21
205.000000
  0
CIRCLE
  8
0
 10
-311.939301
 20
305.355347
 40
7.500000
  0
CIRCLE
  8
0
 10
-293.554535
 20
270.000000
 40
0.500000
  0
CIRCLE
  8
0
 10
-293.554535
 20
270.000000
 40
16.250000
  0
ARC
  8
0
 10
-307.696655
 20
230.402039
 40
18.000011
 50
291.941742
 51
338.058167
  0
ARC
  8
0
 10
-291.079651
 20
326.214996
 40
18.000011
 50
21.941750
 51
68.058212
  0
CIRCLE
  8
0
 10
-340.223572
 20
262.928955
 40
2.500000
  0
CIRCLE
  8
0
 10
-340.223572
 20
262.928955
 40
2.250000
  0
CIRCLE
  8
0
 10
-340.223572
 20
262.928955
 40
5.000000
  0
CIRCLE
  8
0
 10
-340.223572
 20
277.071075
 40
2.500000
  0
CIRCLE
  8
0
 10
-340.223572
 20
277.071075
 40
2.250000
  0
CIRCLE
  8
0
 10
-340.223572
 20
277.071075
 40
5.000000
  0
CIRCLE
  8
0
 10
-311.939301
 20
305.355347
 40
7.000000
  0
CIRCLE
  8
0
 10
-293.554535
 20
270.000000
 40
17.049999
  0
ARC
  8
0
 10
-293.554535
 20
291.500000
 40
5.000003
 50
52.250767
 51
127.749229
  0
ARC
  8
0
 10
-293.554535
 20
270.000000
 40
21.999996
 50
127.749207
 51
155.380005
  0
ARC
  8
0
 10
-293.554535
 20
270.000000
 40
21.999996
 50
307.749207
 51
335.380005
  0
ARC
  8
0
 10
-293.554535
 20
291.500000
 40
5.000003
 50
52.250767
 51
90.000000
  0
ARC
  8
0
 10
-293.554535
 20
270.000000
 40
22.000004
 50
204.619995
 51
232.250793
  0
ARC
  8
0
 10
-293.554535
 20
270.000000
 40
22.000004
 50
24.620001
 51
52.250797
  0
ARC
  8
0
 10
-293.554535
 20
248.500000
 40
5.000003
 50
232.250763
 51
307.749237
  0
ARC
  8
0
 10
-306.481018
 20
210.616638
 40
4.100000
 50
255.000015
 51
315.000305
  0
ARC
  8
0
 10
-306.411285
 20
210.686340
 40
4.100002
 50
315.000000
 51
14.999986
  0
ARC
  8
0
 10
-287.980988
 20
229.116638
 40
4.100000
 50
255.000015
 51
315.000000
  0
ARC
  8
0
 10
-287.911285
 20
229.186340
 40
4.100002
 50
315.000000
 51
14.999986
  0
ARC
  8
0
 10
-287.911285
 20
310.813660
 40
4.100000
 50
345.000000
 51
45.000000
  0
ARC
  8
0
 10
-287.980988
 20
310.883392
 40
4.100002
 50
45.000000
 51
104.999985
  0
ARC
  8
0
 10
-306.411255
 20
329.313660
 40
4.099971
 50
344.999908
 51
45.000301
  0
ARC
  8
0
 10
-306.480988
 20
329.383392
 40
4.100002
 50
45.000000
 51
104.999985
  0
CIRCLE
  8
0
 10
-311.939301
 20
234.644669
 40
7.000000
  0
CIRCLE
  8
0
 10
-311.939301
 20
234.644669
 40
7.500000
  0
ARC
  8
0
 10
-220.000000
 20
270.000000
 40
35.000000
 50
280.952271
 51
349.047729
  0
ARC
  8
0
 10
-220.000000
 20
270.000000
 40
65.000000
 50
70.021080
 51
107.109818
  0
CIRCLE
  8
0
 10
-190.000046
 20
218.038452
 40
6.000000
  0
CIRCLE
  8
0
 10
-160.000000
 20
269.999939
 40
6.000000
  0
CIRCLE
  8
0
 10
-189.999939
 20
321.961487
 40
6.000000
  0
CIRCLE
  8
0
 10
-190.000046
 20
218.038452
 40
5.125000
  0
CIRCLE
  8
0
 10
-160.000000
 20
269.999939
 40
5.125000
  0
CIRCLE
  8
0
 10
-189.999939
 20
321.961487
 40
5.125000
  0
ARC
  8
0
 10
-190.000046
 20
218.038452
 40
12.000002
 50
195.000031
 51
45.000000
  0
ARC
  8
0
 10
-160.000000
 20
269.999939
 40
12.000012
 50
255.000061
 51
105.000008
  0
ARC
  8
0
 10
-189.999939
 20
321.961487
 40
12.000002
 50
9.143640
 51
164.999969
  0
ARC
  8
0
 10
-220.000000
 20
356.500000
 40
10.500003
 50
14.999941
 51
165.000031
  0
ARC
  8
0
 10
-220.000015
 20
183.500000
 40
10.500008
 50
195.000015
 51
344.999969
  0
ARC
  8
0
 10
-145.088821
 20
226.749969
 40
10.500003
 50
255.000061
 51
45.000000
  0
ARC
  8
0
 10
-145.088776
 20
313.249939
 40
10.500001
 50
315.000000
 51
98.020264
  0
ARC
  8
0
 10
-232.544617
 20
217.500000
 40
5.000000
 50
90.000000
 51
153.008774
  0
ARC
  8
0
 10
-207.455460
 20
217.500000
 40
5.000007
 50
15.000010
 51
90.000000
  0
ARC
  8
0
 10
-180.805984
 20
232.886017
 40
4.999997
 50
149.999985
 51
224.999878
  0
ARC
  8
0
 10
-168.261398
 20
254.613876
 40
5.000003
 50
75.000160
 51
149.999832
  0
ARC
  8
0
 10
-168.261353
 20
285.386017
 40
5.000001
 50
199.340576
 51
285.000061
  0
ARC
  8
0
 10
-207.455338
 20
322.500000
 40
5.000000
 50
270.000000
 51
344.999939
  0
ARC
  8
0
 10
-232.544510
 20
322.500000
 40
4.999995
 50
206.988327
 51
270.000000
  0
ARC
  8
0
 10
-220.000000
 20
270.000000
 40
65.000000
 50
252.890152
 51
289.978760
  0
ARC
  8
0
 10
-220.000000
 20
270.000000
 40
65.000000
 50
310.021088
 51
349.978760
  0
ARC
  8
0
 10
-220.000000
 20
270.000000
 40
64.999985
 50
10.021097
 51
28.609760
  0
ARC
  8
0
 10
-236.205841
 20
355.906342
 40
4.999984
 50
300.000092
 51
344.999939
  0
ARC
  8
0
 10
-236.205872
 20
184.093658
 40
5.000007
 50
15.000010
 51
60.000069
  0
ARC
  8
0
 10
-203.794174
 20
184.093658
 40
4.999984
 50
120.000107
 51
164.999939
  0
ARC
  8
0
 10
-153.705902
 20
213.012131
 40
4.999992
 50
74.999947
 51
120.000015
  0
ARC
  8
0
 10
-137.500000
 20
241.081451
 40
5.000000
 50
180.000000
 51
225.000000
  0
ARC
  8
0
 10
-137.500000
 20
298.918427
 40
4.999984
 50
135.000000
 51
180.000000
  0
ARC
  8
0
 10
-203.794144
 20
355.906342
 40
5.000007
 50
195.000015
 51
240.000076
  0
ARC
  8
0
 10
-220.000000
 20
270.000000
 40
98.000008
 50
231.649155
 51
38.350834
  0
ARC
  8
0
 10
-220.000000
 20
270.000000
 40
19.150002
 50
172.464188
 51
187.535812
  0
ARC
  8
0
 10
-220.000000
 20
270.000000
 40
19.150000
 50
262.464233
 51
277.535858
  0
ARC
  8
0
 10
-220.000000
 20
270.000000
 40
19.150002
 50
352.464172
 51
7.535724
  0
ARC
  8
0
 10
-220.000000
 20
270.000000
 40
19.149986
 50
82.464180
 51
97.535805
  0
ARC
  8
0
 10
-220.000000
 20
270.000000
 40
75.999992
 50
238.788803
 51
121.211189
  0
ARC
  8
0
 10
-220.000000
 20
270.000000
 40
45.000000
 50
258.795166
 51
11.204825
  0
CIRCLE
  8
0
 10
-293.554535
 20
248.500000
 40
3.800000
  0
ARC
  8
0
 10
-250.000000
 20
218.050003
 40
9.000001
 50
235.440460
 51
4.559536
  0
ARC
  8
0
 10
-250.000000
 20
218.050003
 40
7.799996
 50
239.713333
 51
0.286603
  0
ARC
  8
0
 10
-250.000000
 20
218.050003
 40
10.750004
 50
243.199524
 51
8.921709
  0
ARC
  8
0
 10
-250.000000
 20
321.950012
 40
10.749978
 50
123.199600
 51
116.800446
  0
CIRCLE
  8
0
 10
-250.000000
 20
321.950012
 40
9.000000
  0
CIRCLE
  8
0
 10
-250.000000
 20
321.950012
 40
7.800000
  0
CIRCLE
  8
0
 10
-293.554535
 20
291.500000
 40
3.800000
  0
ARC
  8
0
 10
-220.000000
 20
270.000000
 40
98.000000
 50
215.317642
 51
231.649216
  0
ARC
  8
0
 10
-278.945129
 20
195.498520
 40
2.999995
 50
231.649216
 51
314.999786
  0
ARC
  8
0
 10
-259.511749
 20
196.547119
 40
10.000010
 50
120.000168
 51
135.000000
  0
ARC
  8
0
 10
-281.650360
 20
228.855743
 40
6.000007
 50
221.048447
 51
315.000000
  0
ARC
  8
0
 10
-287.322449
 20
257.124786
 40
30.000021
 50
315.000031
 51
22.459663
  0
ARC
  8
0
 10
-178.855743
 20
331.650360
 40
6.000007
 50
315.000000
 51
48.951561
  0
ARC
  8
0
 10
-145.498520
 20
328.945129
 40
2.999992
 50
315.000214
 51
38.350777
  0
ARC
  8
0
 10
-146.547119
 20
309.511749
 40
10.000000
 50
134.999939
 51
149.999832
  0
ARC
  8
0
 10
-220.000000
 20
270.000000
 40
97.999992
 50
38.350765
 51
54.682358
  0
ARC
  8
0
 10
-207.124786
 20
337.322449
 40
30.000006
 50
247.540283
 51
314.999969
  0
ARC
  8
0
 10
-220.000000
 20
250.201004
 40
1.999991
 50
224.999695
 51
315.000305
  0
ARC
  8
0
 10
-200.201004
 20
270.000000
 40
1.999991
 50
314.999695
 51
45.000309
  0
ARC
  8
0
 10
-220.000000
 20
289.798981
 40
2.000002
 50
45.000000
 51
135.000000
  0
ARC
  8
0
 10
-239.798996
 20
270.000000
 40
1.999991
 50
134.999695
 51
225.000305
  0
ARC
  8
0
 10
-220.000000
 20
249.493896
 40
1.999991
 50
224.999695
 51
315.000305
  0
ARC
  8
0
 10
-199.493896
 20
270.000000
 40
1.999991
 50
314.999695
 51
45.000309
  0
ARC
  8
0
 10
-220.000000
 20
290.506104
 40
2.000002
 50
45.000000
 51
135.000000
  0
ARC
  8
0
 10
-240.506104
 20
270.000000
 40
1.999991
 50
134.999695
 51
225.000305
  0
ARC
  8
0
 10
-220.000000
 20
270.000000
 40
44.999989
 50
59.899349
 51
112.196129
  0
ARC
  8
0
 10
-250.000000
 20
218.050003
 40
10.750008
 50
231.078247
 51
236.800446
  0
ARC
  8
0
 10
-220.000000
 20
270.000000
 40
19.949997
 50
171.678009
 51
188.321991
  0
ARC
  8
0
 10
-220.000000
 20
270.000000
 40
19.949997
 50
81.678009
 51
98.321991
  0
ARC
  8
0
 10
-220.000000
 20
270.000000
 40
19.949997
 50
261.678009
 51
278.321991
  0
ARC
  8
0
 10
-220.000000
 20
270.000000
 40
19.949997
 50
351.678009
 51
8.321989
  0
ARC
  8
0
 10
-220.000000
 20
270.000000
 40
98.000000
 50
54.682396
 51
132.784164
  0
POINT
  8
0
 10
-250.000000
 20
-60.000000
  0
POINT
  8
0
 10
-177.000000
 20
-60.000000
  0
LINE
  8
0
 10
-244.000000
 20
-80.579239
 11
-194.000000
 21
-80.579239
  0
LINE
  8
0
 10
-244.000000
 20
-39.420784
 11
-194.000000
 21
-39.420784
  0
LINE
  8
0
 10
-244.000015
 20
-123.639618
 11
-194.000015
 21
-123.639618
  0
LINE
  8
0
 10
-250.000015
 20
-125.000015
 11
-244.000015
 21
-125.000015
  0
LINE
  8
0
 10
-243.999985
 20
3.639603
 11
-193.999985
 21
3.639603
  0
LINE
  8
0
 10
-249.999985
 20
4.999985
 11
-243.999985
 21
4.999985
  0
LINE
  8
0
 10
-250.000000
 20
4.999985
 11
-250.000000
 21
-125.000015
  0
LINE
  8
0
 10
-194.000000
 20
3.639591
 11
-194.000000
 21
-123.639633
  0
LINE
  8
0
 10
-244.000000
 20
4.999985
 11
-244.000000
 21
-125.000015
  0
LINE
  8
0
 10
-192.000000
 20
-33.500023
 11
-192.000000
 21
-47.831253
  0
LINE
  8
0
 10
-177.000000
 20
-43.950020
 11
-177.000000
 21
-76.050026
  0
LINE
  8
0
 10
-191.500000
 20
-43.750008
 11
-177.199997
 21
-43.750008
  0
LINE
  8
0
 10
-194.000000
 20
-33.500008
 11
-192.000000
 21
-33.500008
  0
LINE
  8
0
 10
-194.000000
 20
-86.499954
 11
-192.000000
 21
-86.499954
  0
LINE
  8
0
 10
-191.500000
 20
-76.250008
 11
-177.199997
 21
-76.250008
  0
LINE
  8
0
 10
-177.200012
 20
-43.750031
 11
-177.000000
 21
-43.950035
  0
LINE
  8
0
 10
-177.199966
 20
-76.250069
 11
-176.999969
 21
-76.050072
  0
LINE
  8
0
 10
-189.000000
 20
-50.279358
 11
-189.000000
 21
-57.925953
  0
LINE
  8
0
 10
-182.000000
 20
-50.728958
 11
-182.000000
 21
-55.128956
  0
LINE
  8
0
 10
-194.000000
 20
-72.812958
 11
-189.449997
 21
-72.812958
  0
LINE
  8
0
 10
-194.000000
 20
-69.419388
 11
-189.449997
 21
-69.419388
  0
LINE
  8
0
 10
-194.000000
 20
-63.677494
 11
-189.449997
 21
-63.677494
  0
LINE
  8
0
 10
-194.000000
 20
-61.329201
 11
-189.449997
 21
-61.329201
  0
LINE
  8
0
 10
-194.000000
 20
-58.026638
 11
-189.449997
 21
-58.026638
  0
LINE
  8
0
 10
-194.000000
 20
-57.825142
 11
-189.449997
 21
-57.825142
  0
LINE
  8
0
 10
-194.000000
 20
-47.831242
 11
-189.449997
 21
-47.831242
  0
LINE
  8
0
 10
-189.000000
 20
-55.428940
 11
-182.299988
 21
-55.428940
  0
LINE
  8
0
 10
-189.000000
 20
-50.428940
 11
-182.300003
 21
-50.428940
  0
LINE
  8
0
 10
-189.000000
 20
-69.571075
 11
-182.300003
 21
-69.571075
  0
LINE
  8
0
 10
-189.000000
 20
-64.571075
 11
-182.300003
 21
-64.571075
  0
LINE
  8
0
 10
-182.000000
 20
-64.871094
 11
-182.000000
 21
-69.271088
  0
LINE
  8
0
 10
-182.300018
 20
-64.571098
 11
-182.000000
 21
-64.871101
  0
LINE
  8
0
 10
-182.300018
 20
-69.571075
 11
-182.000031
 21
-69.271072
  0
LINE
  8
0
 10
-181.999969
 20
-55.128983
 11
-182.299957
 21
-55.428978
  0
LINE
  8
0
 10
-182.300018
 20
-50.428959
 11
-182.000015
 21
-50.728966
  0
LINE
  8
0
 10
-189.000000
 20
-62.503365
 11
-189.000000
 21
-71.116173
  0
LINE
  8
0
 10
-192.000000
 20
-72.812965
 11
-192.000000
 21
-86.500023
  0
LINE
  8
0
 10
-192.000000
 20
-58.026649
 11
-192.000000
 21
-61.329212
  0
LINE
  8
0
 10
-182.050018
 20
-64.821075
 11
-189.000000
 21
-64.821075
  0
LINE
  8
0
 10
-182.050003
 20
-69.321075
 11
-189.000000
 21
-69.321075
  0
LINE
  8
0
 10
-182.049988
 20
-55.178940
 11
-189.000000
 21
-55.178940
  0
LINE
  8
0
 10
-182.050034
 20
-50.678940
 11
-189.000000
 21
-50.678940
  0
LINE
  8
0
 10
-182.299988
 20
-69.571091
 11
-182.299988
 21
-64.571091
  0
LINE
  8
0
 10
-182.300079
 20
-55.428947
 11
-182.300079
 21
-50.428959
  0
LINE
  8
0
 10
-191.599991
 20
-42.100021
 11
-191.599991
 21
-34.900021
  0
LINE
  8
0
 10
-189.550003
 20
-38.549316
 11
-189.550003
 21
-38.450726
  0
LINE
  8
0
 10
-191.599991
 20
-34.900021
 11
-192.000000
 21
-34.900021
  0
LINE
  8
0
 10
-191.599991
 20
-42.100021
 11
-192.000000
 21
-42.100021
  0
LINE
  8
0
 10
-191.600006
 20
-85.100021
 11
-191.600006
 21
-77.900024
  0
LINE
  8
0
 10
-189.550003
 20
-81.549316
 11
-189.550003
 21
-81.450729
  0
LINE
  8
0
 10
-191.600006
 20
-77.900024
 11
-192.000000
 21
-77.900024
  0
LINE
  8
0
 10
-191.600006
 20
-85.100021
 11
-192.000000
 21
-85.100021
  0
LINE
  8
0
 10
-192.041946
 20
-31.644680
 11
-194.000000
 21
-31.644680
  0
LINE
  8
0
 10
-192.041946
 20
-17.644680
 11
-194.000000
 21
-17.644680
  0
LINE
  8
0
 10
-192.041962
 20
-102.355362
 11
-194.000000
 21
-102.355362
  0
LINE
  8
0
 10
-192.041962
 20
-88.355362
 11
-194.000000
 21
-88.355362
  0
LINE
  8
0
 10
-271.500000
 20
16.000000
 11
-271.500000
 21
-136.000000
  0
LINE
  8
0
 10
-264.500000
 20
5.000000
 11
-264.500000
 21
3.961498
  0
LINE
  8
0
 10
-264.500000
 20
-72.000000
 11
-250.000000
 21
-72.000000
  0
LINE
  8
0
 10
-264.500000
 20
-48.000000
 11
-250.000000
 21
-48.000000
  0
LINE
  8
0
 10
-267.840759
 20
-123.961502
 11
-253.000000
 21
-123.961502
  0
LINE
  8
0
 10
-267.840881
 20
3.961498
 11
-253.000000
 21
3.961498
  0
LINE
  8
0
 10
-271.500031
 20
-136.000046
 11
-264.500031
 21
-125.000038
  0
LINE
  8
0
 10
-264.500031
 20
5.000038
 11
-271.500031
 21
16.000046
  0
LINE
  8
0
 10
-264.500000
 20
-123.961502
 11
-264.500000
 21
-125.000000
  0
LINE
  8
0
 10
-264.500000
 20
-72.000000
 11
-264.500000
 21
-109.777451
  0
LINE
  8
0
 10
-264.500000
 20
-10.222549
 11
-264.500000
 21
-48.000000
  0
LINE
  8
0
 10
-250.000000
 20
-80.599998
 11
-244.000000
 21
-80.599998
  0
LINE
  8
0
 10
-250.000000
 20
-39.400002
 11
-244.000000
 21
-39.400002
  0
LINE
  8
0
 10
-256.000000
 20
-107.349998
 11
-250.600006
 21
-107.349998
  0
LINE
  8
0
 10
-256.000000
 20
-117.349998
 11
-250.600006
 21
-117.349998
  0
LINE
  8
0
 10
-256.000000
 20
-79.050003
 11
-250.600006
 21
-79.050003
  0
LINE
  8
0
 10
-256.000000
 20
-89.050003
 11
-250.600006
 21
-89.050003
  0
LINE
  8
0
 10
-256.000000
 20
-30.950001
 11
-250.600006
 21
-30.950001
  0
LINE
  8
0
 10
-256.000000
 20
-40.950001
 11
-250.600006
 21
-40.950001
  0
LINE
  8
0
 10
-256.000000
 20
-2.650002
 11
-250.600006
 21
-2.650002
  0
LINE
  8
0
 10
-256.000000
 20
-12.650002
 11
-250.600006
 21
-12.650002
  0
LINE
  8
0
 10
-250.600006
 20
-2.400002
 11
-250.000000
 21
-2.400002
  0
LINE
  8
0
 10
-250.600006
 20
-12.900002
 11
-250.000000
 21
-12.900002
  0
LINE
  8
0
 10
-250.600006
 20
-30.700001
 11
-250.000000
 21
-30.700001
  0
LINE
  8
0
 10
-250.600006
 20
-41.200001
 11
-250.000000
 21
-41.200001
  0
LINE
  8
0
 10
-250.600006
 20
-89.300003
 11
-250.000000
 21
-89.300003
  0
LINE
  8
0
 10
-250.600006
 20
-78.800003
 11
-250.000000
 21
-78.800003
  0
LINE
  8
0
 10
-250.600006
 20
-107.099998
 11
-250.000000
 21
-107.099998
  0
LINE
  8
0
 10
-250.600006
 20
-117.599998
 11
-250.000000
 21
-117.599998
  0
LINE
  8
0
 10
-250.600006
 20
-2.400002
 11
-250.600006
 21
-12.900002
  0
LINE
  8
0
 10
-256.600006
 20
-3.250000
 11
-256.600006
 21
-12.049999
  0
LINE
  8
0
 10
-256.000000
 20
-2.650002
 11
-256.000000
 21
-12.650002
  0
LINE
  8
0
 10
-256.600006
 20
-79.650002
 11
-256.600006
 21
-88.449997
  0
LINE
  8
0
 10
-256.000000
 20
-79.050003
 11
-256.000000
 21
-89.050003
  0
LINE
  8
0
 10
-250.600006
 20
-78.800003
 11
-250.600006
 21
-89.300003
  0
LINE
  8
0
 10
-256.600006
 20
-107.949997
 11
-256.600006
 21
-116.750000
  0
LINE
  8
0
 10
-250.600006
 20
-107.099998
 11
-250.600006
 21
-117.599998
  0
LINE
  8
0
 10
-256.000000
 20
-107.349998
 11
-256.000000
 21
-117.349998
  0
LINE
  8
0
 10
-256.600006
 20
-31.549999
 11
-256.600006
 21
-40.349998
  0
LINE
  8
0
 10
-256.000000
 20
-30.950001
 11
-256.000000
 21
-40.950001
  0
LINE
  8
0
 10
-250.600006
 20
-30.700001
 11
-250.600006
 21
-41.200001
  0
LINE
  8
0
 10
-256.000000
 20
-117.349998
 11
-256.600006
 21
-116.750000
  0
LINE
  8
0
 10
-256.600006
 20
-107.950012
 11
-256.000000
 21
-107.350021
  0
LINE
  8
0
 10
-256.000000
 20
-89.049995
 11
-256.600006
 21
-88.449997
  0
LINE
  8
0
 10
-256.600006
 20
-79.650009
 11
-256.000000
 21
-79.050011
  0
LINE
  8
0
 10
-256.000000
 20
-40.949997
 11
-256.600006
 21
-40.349991
  0
LINE
  8
0
 10
-256.600006
 20
-31.550011
 11
-256.000000
 21
-30.950003
  0
LINE
  8
0
 10
-256.000000
 20
-12.649986
 11
-256.600006
 21
-12.049988
  0
LINE
  8
0
 10
-256.600006
 20
-3.250008
 11
-256.000000
 21
-2.650009
  0
LINE
  8
0
 10
-225.000000
 20
-136.854218
 11
-213.000000
 21
-136.854218
  0
LINE
  8
0
 10
-227.000000
 20
-123.639618
 11
-227.000000
 21
-134.854218
  0
LINE
  8
0
 10
-211.000000
 20
-123.639618
 11
-211.000000
 21
-134.854218
  0
ARC
  8
0
 10
-192.424011
 20
-71.116173
 40
3.424013
 50
330.293549
 51
29.706465
  0
ARC
  8
0
 10
-198.383179
 20
-66.548439
 40
9.383179
 50
342.183655
 51
17.816339
  0
ARC
  8
0
 10
-190.756805
 20
-62.503365
 40
1.756803
 50
318.060944
 51
41.939663
  0
ARC
  8
0
 10
-196.443512
 20
-55.276306
 40
7.443512
 50
339.975281
 51
20.024708
  0
ARC
  8
0
 10
-195.884171
 20
-50.279354
 40
6.884170
 50
339.168976
 51
20.831144
  0
CIRCLE
  8
0
 10
-237.000000
 20
-60.000004
 40
2.700000
  0
ARC
  8
0
 10
-193.649994
 20
-38.549316
 40
4.100002
 50
300.000031
 51
0.000000
  0
ARC
  8
0
 10
-193.649994
 20
-38.450726
 40
4.100006
 50
359.999939
 51
59.999969
  0
ARC
  8
0
 10
-193.650009
 20
-81.549316
 40
4.100002
 50
300.000031
 51
0.000000
  0
ARC
  8
0
 10
-193.650009
 20
-81.450729
 40
4.099991
 50
0.000000
 51
59.999969
  0
ARC
  8
0
 10
-206.799988
 20
-24.644676
 40
17.999996
 50
343.398468
 51
16.601528
  0
ARC
  8
0
 10
-192.041946
 20
-29.044682
 40
2.600000
 50
270.000000
 51
343.398468
  0
ARC
  8
0
 10
-192.041946
 20
-20.244678
 40
2.600003
 50
16.601479
 51
90.000000
  0
ARC
  8
0
 10
-206.800018
 20
-95.355362
 40
17.999996
 50
343.398468
 51
16.601540
  0
ARC
  8
0
 10
-192.041962
 20
-99.755363
 40
2.599998
 50
270.000000
 51
343.398590
  0
ARC
  8
0
 10
-192.041962
 20
-90.955360
 40
2.600005
 50
16.601559
 51
90.000000
  0
ARC
  8
0
 10
-253.000000
 20
-120.961502
 40
3.000000
 50
270.000000
 51
0.000000
  0
ARC
  8
0
 10
-253.000000
 20
0.961498
 40
3.000000
 50
0.000000
 51
90.000000
  0
ARC
  8
0
 10
-267.840881
 20
2.961704
 40
1.000000
 50
90.000000
 51
124.848457
  0
ARC
  8
0
 10
-267.840759
 20
-122.961777
 40
1.000005
 50
235.160034
 51
270.000000
  0
ARC
  8
0
 10
-225.000000
 20
-134.854218
 40
2.000000
 50
180.000000
 51
270.000000
  0
ARC
  8
0
 10
-213.000000
 20
-134.854218
 40
2.000000
 50
270.000000
 51
0.000000
  0
ARC
  8
0
 10
-237.312714
 20
-109.497505
 40
1.712696
 50
345.892456
 51
14.107307
  0
ARC
  8
0
 10
-237.760559
 20
-109.661697
 40
2.187627
 50
15.419139
 51
51.390560
  0
ARC
  8
0
 10
-239.000015
 20
-111.472656
 40
4.379152
 50
53.504333
 51
126.495445
  0
ARC
  8
0
 10
-240.239471
 20
-109.661697
 40
2.187623
 50
128.609009
 51
164.580673
  0
ARC
  8
0
 10
-240.687317
 20
-109.497505
 40
1.712696
 50
165.892441
 51
194.107315
  0
ARC
  8
0
 10
-240.239471
 20
-109.333313
 40
2.187627
 50
195.419144
 51
231.390564
  0
ARC
  8
0
 10
-239.000015
 20
-107.522354
 40
4.379152
 50
233.504333
 51
306.495453
  0
ARC
  8
0
 10
-237.760559
 20
-109.333313
 40
2.187623
 50
308.609009
 51
344.580658
  0
ARC
  8
0
 10
-237.312683
 20
-10.502504
 40
1.712695
 50
345.892578
 51
14.107307
  0
ARC
  8
0
 10
-237.760544
 20
-10.666696
 40
2.187641
 50
15.419009
 51
51.390358
  0
ARC
  8
0
 10
-238.999985
 20
-12.477636
 40
4.379143
 50
53.504246
 51
126.495552
  0
ARC
  8
0
 10
-240.239426
 20
-10.666693
 40
2.187634
 50
128.609283
 51
164.580872
  0
ARC
  8
0
 10
-240.687286
 20
-10.502501
 40
1.712695
 50
165.892563
 51
194.107315
  0
ARC
  8
0
 10
-240.239426
 20
-10.338309
 40
2.187641
 50
195.419006
 51
231.390350
  0
ARC
  8
0
 10
-238.999985
 20
-8.527369
 40
4.379143
 50
233.504242
 51
306.495544
  0
ARC
  8
0
 10
-237.760544
 20
-10.338312
 40
2.187634
 50
308.609283
 51
344.580872
  0
ARC
  8
0
 10
-189.449997
 20
-56.353333
 40
1.673065
 50
270.000000
 51
281.890137
  0
ARC
  8
0
 10
-189.138306
 20
-57.795177
 40
0.198095
 50
279.595276
 51
311.580750
  0
ARC
  8
0
 10
-189.025696
 20
-57.925903
 40
0.025696
 50
317.219940
 51
42.780064
  0
ARC
  8
0
 10
-189.138306
 20
-58.056629
 40
0.198094
 50
48.419239
 51
80.404724
  0
ARC
  8
0
 10
-189.449997
 20
-59.498474
 40
1.673065
 50
78.109863
 51
90.000000
  0
POLYLINE
  8
0
 66
     1
  0
VERTEX
  8
0
 10
-268.412262
 20
3.782385
  0
VERTEX
  8
0
 10
-268.637665
 20
3.602403
  0
VERTEX
  8
0
 10
-268.829193
 20
3.334206
  0
VERTEX
  8
0
 10
-268.956360
 20
2.880756
  0
VERTEX
  8
0
 10
-268.954529
 20
2.335468
  0
VERTEX
  8
0
 10
-268.918304
 20
1.703795
  0
VERTEX
  8
0
 10
-268.829193
 20
0.945915
  0
VERTEX
  8
0
 10
-268.678802
 20
0.110182
  0
VERTEX
  8
0
 10
-268.477661
 20
-0.723045
  0
VERTEX
  8
0
 10
-268.235474
 20
-1.572643
  0
VERTEX
  8
0
 10
-267.961365
 20
-2.449161
  0
VERTEX
  8
0
 10
-267.666260
 20
-3.315675
  0
VERTEX
  8
0
 10
-267.331818
 20
-4.221474
  0
VERTEX
  8
0
 10
-267.034454
 20
-4.976297
  0
VERTEX
  8
0
 10
-266.722717
 20
-5.723964
  0
VERTEX
  8
0
 10
-266.395142
 20
-6.469440
  0
VERTEX
  8
0
 10
-266.050171
 20
-7.217690
  0
VERTEX
  8
0
 10
-265.682861
 20
-7.979486
  0
VERTEX
  8
0
 10
-265.302155
 20
-8.734422
  0
VERTEX
  8
0
 10
-264.907898
 20
-9.482205
  0
VERTEX
  8
0
 10
-264.500000
 20
-10.222549
  0
SEQEND
  0
POLYLINE
  8
0
 66
     1
  0
VERTEX
  8
0
 10
-264.500000
 20
-109.777451
  0
VERTEX
  8
0
 10
-264.909119
 20
-110.520393
  0
VERTEX
  8
0
 10
-265.305420
 20
-111.272499
  0
VERTEX
  8
0
 10
-265.686523
 20
-112.028297
  0
VERTEX
  8
0
 10
-266.050171
 20
-112.782310
  0
VERTEX
  8
0
 10
-266.395294
 20
-113.532829
  0
VERTEX
  8
0
 10
-266.729736
 20
-114.295944
  0
VERTEX
  8
0
 10
-267.044769
 20
-115.051285
  0
VERTEX
  8
0
 10
-267.331818
 20
-115.778526
  0
VERTEX
  8
0
 10
-267.656342
 20
-116.660057
  0
VERTEX
  8
0
 10
-267.959808
 20
-117.549995
  0
VERTEX
  8
0
 10
-268.235474
 20
-118.427353
  0
VERTEX
  8
0
 10
-268.479401
 20
-119.305077
  0
VERTEX
  8
0
 10
-268.688995
 20
-120.189011
  0
VERTEX
  8
0
 10
-268.829193
 20
-120.945915
  0
VERTEX
  8
0
 10
-268.908997
 20
-121.656036
  0
VERTEX
  8
0
 10
-268.954529
 20
-122.335464
  0
VERTEX
  8
0
 10
-268.943970
 20
-122.877090
  0
VERTEX
  8
0
 10
-268.829193
 20
-123.334206
  0
VERTEX
  8
0
 10
-268.647797
 20
-123.581673
  0
VERTEX
  8
0
 10
-268.412842
 20
-123.781990
  0
SEQEND
  0
POLYLINE
  8
0
 66
     1
  0
VERTEX
  8
0
 10
-264.500000
 20
-48.000000
  0
VERTEX
  8
0
 10
-264.932312
 20
-48.611217
  0
VERTEX
  8
0
 10
-265.374298
 20
-49.215519
  0
VERTEX
  8
0
 10
-265.772736
 20
-49.730839
  0
VERTEX
  8
0
 10
-266.169220
 20
-50.210876
  0
VERTEX
  8
0
 10
-266.566284
 20
-50.724880
  0
VERTEX
  8
0
 10
-266.961304
 20
-51.343250
  0
VERTEX
  8
0
 10
-267.314636
 20
-52.021454
  0
VERTEX
  8
0
 10
-267.656158
 20
-52.781643
  0
VERTEX
  8
0
 10
-267.970093
 20
-53.620564
  0
VERTEX
  8
0
 10
-268.193726
 20
-54.328892
  0
VERTEX
  8
0
 10
-268.384491
 20
-55.047218
  0
VERTEX
  8
0
 10
-268.546631
 20
-55.781521
  0
VERTEX
  8
0
 10
-268.684814
 20
-56.555153
  0
VERTEX
  8
0
 10
-268.794128
 20
-57.333221
  0
VERTEX
  8
0
 10
-268.871826
 20
-58.072136
  0
VERTEX
  8
0
 10
-268.933960
 20
-59.035175
  0
VERTEX
  8
0
 10
-268.954529
 20
-60.000000
  0
VERTEX
  8
0
 10
-268.936035
 20
-60.940910
  0
VERTEX
  8
0
 10
-268.871826
 20
-61.927864
  0
VERTEX
  8
0
 10
-268.791107
 20
-62.697922
  0
VERTEX
  8
0
 10
-268.682465
 20
-63.464615
  0
VERTEX
  8
0
 10
-268.546631
 20
-64.218475
  0
VERTEX
  8
0
 10
-268.379517
 20
-64.964989
  0
VERTEX
  8
0
 10
-268.182068
 20
-65.703934
  0
VERTEX
  8
0
 10
-267.970093
 20
-66.379440
  0
VERTEX
  8
0
 10
-267.660156
 20
-67.201347
  0
VERTEX
  8
0
 10
-267.314636
 20
-67.978546
  0
VERTEX
  8
0
 10
-266.959412
 20
-68.655144
  0
VERTEX
  8
0
 10
-266.566284
 20
-69.275124
  0
VERTEX
  8
0
 10
-266.211853
 20
-69.735077
  0
VERTEX
  8
0
 10
-265.772736
 20
-70.269165
  0
VERTEX
  8
0
 10
-265.333405
 20
-70.834991
  0
VERTEX
  8
0
 10
-264.911865
 20
-71.414032
  0
VERTEX
  8
0
 10
-264.500000
 20
-72.000000
  0
SEQEND
  0
POINT
  8
0
 10
-250.000000
 20
-290.000000
  0
POINT
  8
0
 10
-205.500000
 20
-290.000000
  0
LINE
  8
0
 10
-211.000000
 20
-212.035919
 11
-211.000000
 21
-367.964050
  0
LINE
  8
0
 10
-227.000000
 20
-212.035919
 11
-227.000000
 21
-367.964050
  0
LINE
  8
0
 10
-240.500000
 20
-250.402023
 11
-240.500000
 21
-251.000000
  0
LINE
  8
0
 10
-225.000000
 20
-210.035919
 11
-213.000000
 21
-210.035919
  0
LINE
  8
0
 10
-225.000000
 20
-231.313782
 11
-213.000000
 21
-231.313782
  0
LINE
  8
0
 10
-225.000000
 20
-244.348099
 11
-213.000000
 21
-244.348099
  0
LINE
  8
0
 10
-224.999985
 20
-348.686157
 11
-212.999985
 21
-348.686157
  0
LINE
  8
0
 10
-224.999985
 20
-369.964050
 11
-212.999985
 21
-369.964050
  0
LINE
  8
0
 10
-240.500000
 20
-250.402023
 11
-227.000000
 21
-250.402023
  0
LINE
  8
0
 10
-240.500000
 20
-285.050262
 11
-231.995789
 21
-285.050262
  0
LINE
  8
0
 10
-240.500000
 20
-294.539124
 11
-231.997040
 21
-294.539124
  0
LINE
  8
0
 10
-240.500000
 20
-326.062439
 11
-232.000031
 21
-326.062439
  0
LINE
  8
0
 10
-224.999985
 20
-335.652161
 11
-212.999985
 21
-335.652161
  0
LINE
  8
0
 10
-244.000015
 20
-154.952301
 11
-194.000015
 21
-154.952301
  0
LINE
  8
0
 10
-244.000000
 20
-236.952301
 11
-227.000000
 21
-236.952301
  0
LINE
  8
0
 10
-194.000000
 20
-164.454071
 11
-189.450012
 21
-164.454071
  0
LINE
  8
0
 10
-194.000000
 20
-169.124924
 11
-189.450012
 21
-169.124924
  0
LINE
  8
0
 10
-194.000000
 20
-174.399292
 11
-189.450012
 21
-174.399292
  0
LINE
  8
0
 10
-192.000000
 20
-232.647461
 11
-177.300018
 21
-232.647461
  0
LINE
  8
0
 10
-188.921371
 20
-200.147461
 11
-177.300003
 21
-200.147461
  0
LINE
  8
0
 10
-194.000000
 20
-236.397461
 11
-192.000000
 21
-236.397461
  0
LINE
  8
0
 10
-194.000000
 20
-175.002777
 11
-189.450012
 21
-175.002777
  0
LINE
  8
0
 10
-250.000000
 20
-273.000000
 11
-244.000000
 21
-273.000000
  0
LINE
  8
0
 10
-250.000000
 20
-199.399994
 11
-244.000000
 21
-199.399994
  0
LINE
  8
0
 10
-250.000000
 20
-155.000000
 11
-250.000000
 21
-359.000000
  0
LINE
  8
0
 10
-244.000000
 20
-154.952301
 11
-244.000000
 21
-273.000000
  0
LINE
  8
0
 10
-194.000000
 20
-154.952301
 11
-194.000000
 21
-236.952301
  0
LINE
  8
0
 10
-192.000000
 20
-205.060699
 11
-192.000000
 21
-236.397461
  0
LINE
  8
0
 10
-177.000000
 20
-200.447449
 11
-177.000000
 21
-232.347458
  0
LINE
  8
0
 10
-189.000000
 20
-166.325195
 11
-189.000000
 21
-174.701019
  0
LINE
  8
0
 10
-182.000000
 20
-167.528412
 11
-182.000000
 21
-171.928406
  0
LINE
  8
0
 10
-189.000000
 20
-167.228424
 11
-182.300018
 21
-167.228424
  0
LINE
  8
0
 10
-189.000000
 20
-172.228424
 11
-182.300018
 21
-172.228424
  0
LINE
  8
0
 10
-181.999969
 20
-167.528381
 11
-182.299957
 21
-167.228394
  0
LINE
  8
0
 10
-182.000000
 20
-171.928391
 11
-182.300003
 21
-172.228378
  0
LINE
  8
0
 10
-177.299988
 20
-232.647476
 11
-176.999985
 21
-232.347473
  0
LINE
  8
0
 10
-176.999954
 20
-200.447418
 11
-177.299957
 21
-200.147430
  0
LINE
  8
0
 10
-189.000000
 20
-171.978424
 11
-182.050049
 21
-171.978424
  0
LINE
  8
0
 10
-189.000000
 20
-167.478424
 11
-182.049988
 21
-167.478424
  0
LINE
  8
0
 10
-182.300095
 20
-172.228424
 11
-182.300095
 21
-167.228424
  0
LINE
  8
0
 10
-250.000015
 20
-155.000000
 11
-244.000015
 21
-155.000000
  0
LINE
  8
0
 10
-211.000000
 20
-213.920151
 11
-211.000000
 21
-213.968811
  0
LINE
  8
0
 10
-227.000000
 20
-213.920151
 11
-227.000000
 21
-213.968811
  0
LINE
  8
0
 10
-228.481476
 20
-223.172592
 11
-228.481476
 21
-223.455429
  0
LINE
  8
0
 10
-235.681473
 20
-223.172592
 11
-235.681473
 21
-223.455429
  0
LINE
  8
0
 10
-209.518524
 20
-204.672592
 11
-209.518524
 21
-204.955429
  0
LINE
  8
0
 10
-202.318527
 20
-204.672592
 11
-202.318527
 21
-204.955429
  0
LINE
  8
0
 10
-236.998596
 20
-211.997162
 11
-237.081253
 21
-221.436508
  0
LINE
  8
0
 10
-200.918701
 20
-202.873047
 11
-201.001358
 21
-212.312469
  0
LINE
  8
0
 10
-219.225769
 20
-199.427979
 11
-205.949860
 21
-199.369110
  0
LINE
  8
0
 10
-219.225769
 20
-201.195648
 11
-205.949890
 21
-201.136780
  0
LINE
  8
0
 10
-236.998611
 20
-213.764893
 11
-237.081268
 21
-223.204254
  0
LINE
  8
0
 10
-232.050125
 20
-226.708344
 11
-227.000000
 21
-226.685944
  0
LINE
  8
0
 10
-200.918625
 20
-204.640793
 11
-201.001282
 21
-214.080231
  0
LINE
  8
0
 10
-191.600006
 20
-219.997467
 11
-191.600006
 21
-212.797455
  0
LINE
  8
0
 10
-189.550003
 20
-216.446747
 11
-189.550003
 21
-216.348175
  0
LINE
  8
0
 10
-191.600006
 20
-212.797455
 11
-192.000000
 21
-212.797455
  0
LINE
  8
0
 10
-191.600006
 20
-219.997467
 11
-192.000000
 21
-219.997467
  0
LINE
  8
0
 10
-244.000000
 20
-198.060699
 11
-194.000000
 21
-198.060699
  0
LINE
  8
0
 10
-192.041962
 20
-205.060699
 11
-194.000000
 21
-205.060699
  0
LINE
  8
0
 10
-192.041962
 20
-191.060699
 11
-194.000000
 21
-191.060699
  0
LINE
  8
0
 10
-229.000000
 20
-268.673584
 11
-229.000000
 21
-251.326416
  0
LINE
  8
0
 10
-229.699997
 20
-269.000000
 11
-229.699997
 21
-251.000000
  0
LINE
  8
0
 10
-229.700012
 20
-269.000000
 11
-241.000000
 21
-269.000000
  0
LINE
  8
0
 10
-229.699997
 20
-251.000000
 11
-241.000000
 21
-251.000000
  0
LINE
  8
0
 10
-229.000031
 20
-268.673584
 11
-229.700012
 21
-269.000000
  0
LINE
  8
0
 10
-229.000000
 20
-251.326385
 11
-229.700012
 21
-250.999969
  0
LINE
  8
0
 10
-245.500000
 20
-273.000000
 11
-245.500000
 21
-324.500000
  0
LINE
  8
0
 10
-205.500000
 20
-270.850006
 11
-205.500000
 21
-309.149994
  0
LINE
  8
0
 10
-271.500000
 20
-214.000000
 11
-271.500000
 21
-366.000000
  0
LINE
  8
0
 10
-268.954529
 20
-362.000000
 11
-253.000000
 21
-362.000000
  0
LINE
  8
0
 10
-264.500000
 20
-332.000000
 11
-250.000000
 21
-332.000000
  0
LINE
  8
0
 10
-249.600006
 20
-325.000000
 11
-246.000000
 21
-325.000000
  0
LINE
  8
0
 10
-245.500000
 20
-310.000000
 11
-241.550003
 21
-310.000000
  0
LINE
  8
0
 10
-264.500000
 20
-248.000000
 11
-250.000000
 21
-248.000000
  0
LINE
  8
0
 10
-268.954529
 20
-218.000000
 11
-256.200012
 21
-218.000000
  0
LINE
  8
0
 10
-245.999954
 20
-325.000031
 11
-245.499969
 21
-324.500031
  0
LINE
  8
0
 10
-241.500000
 20
-270.750000
 11
-241.500000
 21
-309.950012
  0
LINE
  8
0
 10
-241.500000
 20
-309.950012
 11
-240.500000
 21
-309.950012
  0
LINE
  8
0
 10
-241.000000
 20
-270.049988
 11
-240.500000
 21
-270.049988
  0
LINE
  8
0
 10
-206.299896
 20
-309.950104
 11
-205.499878
 21
-309.150116
  0
LINE
  8
0
 10
-206.299957
 20
-270.049957
 11
-205.499954
 21
-270.849945
  0
LINE
  8
0
 10
-206.299988
 20
-270.049988
 11
-206.299988
 21
-309.950012
  0
LINE
  8
0
 10
-241.549988
 20
-310.000000
 11
-241.499985
 21
-309.950012
  0
LINE
  8
0
 10
-271.500000
 20
-366.000000
 11
-268.954559
 21
-362.000000
  0
LINE
  8
0
 10
-271.500000
 20
-214.000000
 11
-268.954559
 21
-217.999985
  0
LINE
  8
0
 10
-211.000000
 20
-270.260071
 11
-206.299988
 21
-270.260071
  0
LINE
  8
0
 10
-211.000000
 20
-287.112518
 11
-206.299988
 21
-287.112518
  0
LINE
  8
0
 10
-211.000000
 20
-292.887482
 11
-206.299988
 21
-292.887482
  0
LINE
  8
0
 10
-211.000000
 20
-309.739929
 11
-206.299988
 21
-309.739929
  0
LINE
  8
0
 10
-206.300110
 20
-309.739777
 11
-205.500137
 21
-308.984436
  0
LINE
  8
0
 10
-206.299988
 20
-292.887451
 11
-205.500015
 21
-292.511444
  0
LINE
  8
0
 10
-211.000000
 20
-284.796448
 11
-206.299988
 21
-287.112427
  0
LINE
  8
0
 10
-206.299957
 20
-270.260071
 11
-211.000000
 21
-272.576080
  0
LINE
  8
0
 10
-211.000000
 20
-307.423920
 11
-206.299957
 21
-309.739929
  0
LINE
  8
0
 10
-206.299957
 20
-292.887451
 11
-211.000000
 21
-295.203461
  0
LINE
  8
0
 10
-206.300049
 20
-287.112640
 11
-205.500061
 21
-287.488678
  0
LINE
  8
0
 10
-205.499985
 20
-271.015411
 11
-206.299973
 21
-270.260101
  0
LINE
  8
0
 10
-264.500000
 20
-225.991669
 11
-264.500000
 21
-248.000000
  0
LINE
  8
0
 10
-264.500000
 20
-267.791321
 11
-264.500000
 21
-312.208679
  0
LINE
  8
0
 10
-264.500000
 20
-332.000000
 11
-264.500000
 21
-354.008331
  0
LINE
  8
0
 10
-229.700012
 20
-267.000000
 11
-237.020294
 21
-267.000000
  0
LINE
  8
0
 10
-229.700012
 20
-265.000000
 11
-235.865601
 21
-265.000000
  0
LINE
  8
0
 10
-229.700012
 20
-263.000000
 11
-234.710892
 21
-263.000000
  0
LINE
  8
0
 10
-229.700012
 20
-261.000000
 11
-233.556198
 21
-261.000000
  0
LINE
  8
0
 10
-229.700012
 20
-259.000000
 11
-232.401489
 21
-259.000000
  0
LINE
  8
0
 10
-229.700012
 20
-257.000000
 11
-231.246796
 21
-257.000000
  0
LINE
  8
0
 10
-229.700012
 20
-255.000000
 11
-230.092087
 21
-255.000000
  0
LINE
  8
0
 10
-250.600006
 20
-161.649994
 11
-250.600006
 21
-172.149994
  0
LINE
  8
0
 10
-256.600006
 20
-162.500000
 11
-256.600006
 21
-171.299988
  0
LINE
  8
0
 10
-256.000000
 20
-161.899994
 11
-256.000000
 21
-171.899994
  0
LINE
  8
0
 10
-256.000000
 20
-217.799988
 11
-250.600006
 21
-217.799988
  0
LINE
  8
0
 10
-256.000000
 20
-227.799988
 11
-250.600006
 21
-227.799988
  0
LINE
  8
0
 10
-256.000000
 20
-190.199997
 11
-250.600006
 21
-190.199997
  0
LINE
  8
0
 10
-256.000000
 20
-200.199997
 11
-250.600006
 21
-200.199997
  0
LINE
  8
0
 10
-256.000000
 20
-161.899994
 11
-250.600006
 21
-161.899994
  0
LINE
  8
0
 10
-256.000000
 20
-171.899994
 11
-250.600006
 21
-171.899994
  0
LINE
  8
0
 10
-250.600006
 20
-172.149994
 11
-250.000000
 21
-172.149994
  0
LINE
  8
0
 10
-250.600006
 20
-161.649994
 11
-250.000000
 21
-161.649994
  0
LINE
  8
0
 10
-250.600006
 20
-189.949997
 11
-250.000000
 21
-189.949997
  0
LINE
  8
0
 10
-250.600006
 20
-200.449997
 11
-250.000000
 21
-200.449997
  0
LINE
  8
0
 10
-250.600006
 20
-228.049988
 11
-250.000000
 21
-228.049988
  0
LINE
  8
0
 10
-250.600006
 20
-217.549988
 11
-250.000000
 21
-217.549988
  0
LINE
  8
0
 10
-256.000000
 20
-217.799988
 11
-256.000000
 21
-227.799988
  0
LINE
  8
0
 10
-256.600006
 20
-218.399994
 11
-256.600006
 21
-227.199997
  0
LINE
  8
0
 10
-250.600006
 20
-217.549988
 11
-250.600006
 21
-228.049988
  0
LINE
  8
0
 10
-256.600006
 20
-190.799988
 11
-256.600006
 21
-199.600006
  0
LINE
  8
0
 10
-256.000000
 20
-190.199997
 11
-256.000000
 21
-200.199997
  0
LINE
  8
0
 10
-250.600006
 20
-189.949997
 11
-250.600006
 21
-200.449997
  0
LINE
  8
0
 10
-256.000000
 20
-227.799988
 11
-256.600006
 21
-227.199982
  0
LINE
  8
0
 10
-256.600006
 20
-218.399979
 11
-256.000000
 21
-217.799988
  0
LINE
  8
0
 10
-255.999985
 20
-200.199982
 11
-256.599976
 21
-199.599976
  0
LINE
  8
0
 10
-256.600006
 20
-190.799988
 11
-256.000000
 21
-190.199982
  0
LINE
  8
0
 10
-256.000000
 20
-171.899963
 11
-256.600006
 21
-171.299973
  0
LINE
  8
0
 10
-256.600006
 20
-162.499985
 11
-256.000000
 21
-161.899994
  0
LINE
  8
0
 10
-241.000000
 20
-249.250000
 11
-241.000000
 21
-270.750000
  0
LINE
  8
0
 10
-241.000000
 20
-249.250000
 11
-244.000000
 21
-249.250000
  0
LINE
  8
0
 10
-241.000000
 20
-270.750000
 11
-244.000000
 21
-270.750000
  0
LINE
  8
0
 10
-244.000000
 20
-261.732056
 11
-241.000015
 21
-260.000000
  0
LINE
  8
0
 10
-243.999985
 20
-260.346405
 11
-240.999985
 21
-258.614349
  0
LINE
  8
0
 10
-211.000000
 20
-236.952301
 11
-194.000000
 21
-236.952301
  0
LINE
  8
0
 10
-240.500000
 20
-269.000000
 11
-240.500000
 21
-326.062439
  0
ARC
  8
0
 10
-213.000000
 20
-233.313782
 40
2.000000
 50
0.000000
 51
90.000000
  0
ARC
  8
0
 10
-225.000000
 20
-233.313782
 40
2.000000
 50
90.000000
 51
180.000000
  0
ARC
  8
0
 10
-213.000000
 20
-212.035919
 40
2.000000
 50
0.000000
 51
90.000000
  0
ARC
  8
0
 10
-225.000000
 20
-212.035919
 40
2.000000
 50
90.000000
 51
180.000000
  0
ARC
  8
0
 10
-212.999985
 20
-346.686157
 40
2.000000
 50
270.000000
 51
0.000000
  0
ARC
  8
0
 10
-224.999985
 20
-346.686157
 40
2.000000
 50
180.000000
 51
270.000000
  0
ARC
  8
0
 10
-212.999985
 20
-367.964050
 40
2.000000
 50
270.000000
 51
0.000000
  0
ARC
  8
0
 10
-224.999985
 20
-367.964050
 40
2.000000
 50
180.000000
 51
270.000000
  0
ARC
  8
0
 10
-195.045822
 20
-166.789490
 40
6.063608
 50
337.346588
 51
22.653360
  0
ARC
  8
0
 10
-189.326172
 20
-174.701019
 40
0.326181
 50
247.686935
 51
112.315109
  0
ARC
  8
0
 10
-196.952515
 20
-171.762085
 40
7.952518
 50
340.633026
 51
19.366858
  0
CIRCLE
  8
0
 10
-219.000000
 20
-214.983246
 40
0.010000
  0
CIRCLE
  8
0
 10
-232.081482
 20
-224.904785
 40
0.010000
  0
CIRCLE
  8
0
 10
-205.918533
 20
-206.404785
 40
0.010000
  0
ARC
  8
0
 10
-193.650009
 20
-216.446747
 40
4.100016
 50
299.999939
 51
0.000000
  0
ARC
  8
0
 10
-193.650009
 20
-216.348175
 40
4.099991
 50
0.000000
 51
60.000076
  0
ARC
  8
0
 10
-206.800003
 20
-198.060699
 40
17.999996
 50
343.398468
 51
16.601540
  0
ARC
  8
0
 10
-192.041962
 20
-202.460693
 40
2.600006
 50
270.000000
 51
343.398437
  0
ARC
  8
0
 10
-192.041962
 20
-193.660690
 40
2.600005
 50
16.601559
 51
90.000000
  0
ARC
  8
0
 10
-253.000000
 20
-359.000000
 40
3.000000
 50
270.000000
 51
0.000000
  0
ARC
  8
0
 10
-249.600006
 20
-325.399994
 40
0.399994
 50
90.000000
 51
180.000000
  0
ARC
  8
0
 10
-227.457993
 20
-251.302261
 40
2.573867
 50
159.558487
 51
164.582077
  0
ARC
  8
0
 10
-227.984802
 20
-251.109131
 40
2.015191
 50
165.893570
 51
176.873962
  0
ARC
  8
0
 10
-227.822495
 20
-251.350540
 40
3.217316
 50
162.878784
 51
164.582169
  0
ARC
  8
0
 10
-228.481018
 20
-251.109131
 40
2.518985
 50
165.893555
 51
177.522186
  0
ARC
  8
0
 10
-229.519012
 20
-298.074677
 40
2.518982
 50
0.000000
 51
14.106026
  0
ARC
  8
0
 10
-230.177536
 20
-298.316101
 40
3.217345
 50
15.417753
 51
51.388233
  0
ARC
  8
0
 10
-232.000031
 20
-300.978729
 40
6.439592
 50
53.501881
 51
90.000000
  0
ARC
  8
0
 10
-229.519012
 20
-329.597961
 40
2.518982
 50
0.000000
 51
14.106026
  0
ARC
  8
0
 10
-230.177536
 20
-329.839386
 40
3.217345
 50
15.417753
 51
51.388233
  0
ARC
  8
0
 10
-232.000031
 20
-332.502014
 40
6.439592
 50
53.501881
 51
90.000000
  0
ARC
  8
0
 10
-232.000015
 20
-278.610657
 40
6.439606
 50
270.000000
 51
306.497620
  0
ARC
  8
0
 10
-230.177551
 20
-281.273315
 40
3.217334
 50
308.611542
 51
344.582184
  0
ARC
  8
0
 10
-229.519028
 20
-281.514709
 40
2.518988
 50
345.893219
 51
0.000000
  0
ARC
  8
0
 10
-237.312698
 20
-183.870544
 40
1.712695
 50
345.892700
 51
14.107307
  0
ARC
  8
0
 10
-237.760544
 20
-184.034744
 40
2.187629
 50
15.419332
 51
51.390682
  0
ARC
  8
0
 10
-239.000000
 20
-185.845703
 40
4.379158
 50
53.504395
 51
126.495605
  0
ARC
  8
0
 10
-240.239456
 20
-184.034744
 40
2.187632
 50
128.609314
 51
164.580673
  0
ARC
  8
0
 10
-240.687302
 20
-183.870544
 40
1.712695
 50
165.892685
 51
194.107315
  0
ARC
  8
0
 10
-240.239456
 20
-183.706345
 40
2.187629
 50
195.419327
 51
231.390686
  0
ARC
  8
0
 10
-239.000000
 20
-181.895386
 40
4.379158
 50
233.504395
 51
306.495605
  0
ARC
  8
0
 10
-237.760544
 20
-183.706345
 40
2.187632
 50
308.609314
 51
344.580658
  0
ARC
  8
0
 10
-219.000000
 20
-220.373413
 40
11.435843
 50
64.149040
 51
115.855400
  0
ARC
  8
0
 10
-204.100662
 20
-204.672592
 40
1.782120
 50
0.000000
 51
14.231255
  0
ARC
  8
0
 10
-204.583176
 20
-204.851059
 40
2.294347
 50
15.589158
 51
51.686901
  0
ARC
  8
0
 10
-205.918533
 20
-206.819473
 40
4.669879
 50
53.804649
 51
126.195351
  0
ARC
  8
0
 10
-207.253891
 20
-204.851059
 40
2.294338
 50
128.313095
 51
164.410843
  0
ARC
  8
0
 10
-207.736404
 20
-204.672592
 40
1.782123
 50
165.768738
 51
180.000000
  0
ARC
  8
0
 10
-205.918533
 20
-202.808548
 40
4.669875
 50
300.677765
 51
306.195343
  0
ARC
  8
0
 10
-204.583176
 20
-204.776962
 40
2.294338
 50
308.313110
 51
344.410828
  0
ARC
  8
0
 10
-204.100662
 20
-204.955429
 40
1.782123
 50
345.768738
 51
14.231255
  0
ARC
  8
0
 10
-204.583176
 20
-205.133896
 40
2.294347
 50
15.589158
 51
51.686901
  0
ARC
  8
0
 10
-205.918533
 20
-207.102310
 40
4.669879
 50
53.804649
 51
126.195351
  0
ARC
  8
0
 10
-207.253891
 20
-205.133896
 40
2.294338
 50
128.313095
 51
164.410843
  0
ARC
  8
0
 10
-207.736404
 20
-204.955429
 40
1.782123
 50
165.768738
 51
194.231262
  0
ARC
  8
0
 10
-207.253891
 20
-204.776962
 40
2.294347
 50
195.589157
 51
231.686905
  0
ARC
  8
0
 10
-205.918533
 20
-202.808548
 40
4.669879
 50
233.804642
 51
239.319870
  0
ARC
  8
0
 10
-230.263611
 20
-223.172592
 40
1.782120
 50
0.000000
 51
14.231255
  0
ARC
  8
0
 10
-230.746124
 20
-223.351059
 40
2.294347
 50
15.589158
 51
51.686901
  0
ARC
  8
0
 10
-232.081482
 20
-225.319489
 40
4.669892
 50
53.804760
 51
126.195244
  0
ARC
  8
0
 10
-233.416840
 20
-223.351059
 40
2.294338
 50
128.313095
 51
164.410843
  0
ARC
  8
0
 10
-233.899353
 20
-223.172592
 40
1.782123
 50
165.768738
 51
180.000000
  0
ARC
  8
0
 10
-232.081482
 20
-221.308533
 40
4.669896
 50
300.677856
 51
306.195251
  0
ARC
  8
0
 10
-230.746124
 20
-223.276962
 40
2.294338
 50
308.313110
 51
344.410828
  0
ARC
  8
0
 10
-230.263611
 20
-223.455429
 40
1.782123
 50
345.768738
 51
14.231255
  0
ARC
  8
0
 10
-230.746124
 20
-223.633896
 40
2.294347
 50
15.589158
 51
51.686901
  0
ARC
  8
0
 10
-232.081482
 20
-225.602325
 40
4.669892
 50
53.804760
 51
126.195244
  0
ARC
  8
0
 10
-233.416840
 20
-223.633896
 40
2.294338
 50
128.313095
 51
164.410843
  0
ARC
  8
0
 10
-233.899353
 20
-223.455429
 40
1.782123
 50
165.768738
 51
194.231262
  0
ARC
  8
0
 10
-233.416840
 20
-223.276962
 40
2.294347
 50
195.589157
 51
231.686905
  0
ARC
  8
0
 10
-232.081482
 20
-221.308533
 40
4.669892
 50
233.804764
 51
239.319977
  0
ARC
  8
0
 10
-230.549149
 20
-223.952087
 40
1.555658
 50
345.893005
 51
14.106984
  0
ARC
  8
0
 10
-230.955872
 20
-224.101196
 40
1.986979
 50
15.418549
 51
51.389393
  0
ARC
  8
0
 10
-232.081482
 20
-225.745743
 40
3.977160
 50
53.502964
 51
126.497032
  0
ARC
  8
0
 10
-233.207092
 20
-224.101196
 40
1.986989
 50
128.610611
 51
164.581451
  0
ARC
  8
0
 10
-233.613815
 20
-223.952087
 40
1.555658
 50
165.893021
 51
194.106979
  0
ARC
  8
0
 10
-233.207092
 20
-223.802979
 40
1.986979
 50
195.418549
 51
231.389389
  0
ARC
  8
0
 10
-232.081482
 20
-222.158432
 40
3.977160
 50
233.502960
 51
306.497040
  0
ARC
  8
0
 10
-230.955872
 20
-223.802979
 40
1.986989
 50
308.610596
 51
344.581451
  0
ARC
  8
0
 10
-230.862579
 20
-224.349991
 40
1.237097
 50
346.034729
 51
14.250153
  0
ARC
  8
0
 10
-231.185822
 20
-224.469421
 40
1.580210
 50
15.562374
 51
51.534084
  0
ARC
  8
0
 10
-232.077927
 20
-225.779907
 40
3.163383
 50
53.648026
 51
126.637306
  0
ARC
  8
0
 10
-232.976562
 20
-224.473877
 40
1.580203
 50
128.750885
 51
164.722702
  0
ARC
  8
0
 10
-233.300385
 20
-224.356064
 40
1.237097
 50
166.034714
 51
194.250153
  0
ARC
  8
0
 10
-232.977142
 20
-224.236633
 40
1.580210
 50
195.562378
 51
231.534088
  0
ARC
  8
0
 10
-232.085037
 20
-222.926147
 40
3.163383
 50
233.648026
 51
306.637299
  0
ARC
  8
0
 10
-231.186401
 20
-224.232178
 40
1.580203
 50
308.750885
 51
344.722717
  0
ARC
  8
0
 10
-231.375031
 20
-224.734909
 40
0.717050
 50
346.082336
 51
14.297359
  0
ARC
  8
0
 10
-231.562317
 20
-224.804276
 40
0.915904
 50
15.609082
 51
51.581093
  0
ARC
  8
0
 10
-232.078751
 20
-225.564209
 40
1.833472
 50
53.694302
 51
126.684792
  0
ARC
  8
0
 10
-232.600189
 20
-224.807709
 40
0.915915
 50
128.798599
 51
164.770248
  0
ARC
  8
0
 10
-232.787933
 20
-224.739578
 40
0.717050
 50
166.082336
 51
194.297363
  0
ARC
  8
0
 10
-232.600647
 20
-224.670212
 40
0.915904
 50
195.609085
 51
231.581100
  0
ARC
  8
0
 10
-232.084213
 20
-223.910278
 40
1.833472
 50
233.694305
 51
306.684784
  0
ARC
  8
0
 10
-231.562775
 20
-224.666779
 40
0.915915
 50
308.798584
 51
344.770233
  0
ARC
  8
0
 10
-204.386200
 20
-205.452087
 40
1.555673
 50
345.893158
 51
14.106848
  0
ARC
  8
0
 10
-204.792923
 20
-205.601196
 40
1.986994
 50
15.418431
 51
51.389393
  0
ARC
  8
0
 10
-205.918533
 20
-207.245743
 40
3.977160
 50
53.502964
 51
126.497032
  0
ARC
  8
0
 10
-207.044144
 20
-205.601196
 40
1.986989
 50
128.610611
 51
164.581573
  0
ARC
  8
0
 10
-207.450867
 20
-205.452087
 40
1.555673
 50
165.893158
 51
194.106842
  0
ARC
  8
0
 10
-207.044144
 20
-205.302979
 40
1.986994
 50
195.418427
 51
231.389389
  0
ARC
  8
0
 10
-205.918533
 20
-203.658432
 40
3.977160
 50
233.502960
 51
306.497040
  0
ARC
  8
0
 10
-204.792923
 20
-205.302979
 40
1.986989
 50
308.610596
 51
344.581573
  0
ARC
  8
0
 10
-204.699631
 20
-205.853012
 40
1.237112
 50
345.892120
 51
14.107888
  0
ARC
  8
0
 10
-205.023163
 20
-205.971634
 40
1.580214
 50
15.419954
 51
51.391602
  0
ARC
  8
0
 10
-205.918533
 20
-207.279892
 40
3.163373
 50
53.505360
 51
126.494637
  0
ARC
  8
0
 10
-206.813904
 20
-205.971634
 40
1.580204
 50
128.608398
 51
164.580048
  0
ARC
  8
0
 10
-207.137436
 20
-205.853012
 40
1.237112
 50
165.892105
 51
194.107895
  0
ARC
  8
0
 10
-206.813904
 20
-205.734390
 40
1.580214
 50
195.419952
 51
231.391602
  0
ARC
  8
0
 10
-205.918533
 20
-204.426132
 40
3.163373
 50
233.505356
 51
306.494629
  0
ARC
  8
0
 10
-205.023163
 20
-205.734390
 40
1.580204
 50
308.608398
 51
344.580048
  0
ARC
  8
0
 10
-205.212082
 20
-206.237244
 40
0.717060
 50
345.892792
 51
14.107213
  0
ARC
  8
0
 10
-205.399597
 20
-206.305984
 40
0.915915
 50
15.418703
 51
51.390877
  0
ARC
  8
0
 10
-205.918533
 20
-207.064209
 40
1.833471
 50
53.504707
 51
126.495293
  0
ARC
  8
0
 10
-206.437469
 20
-206.305984
 40
0.915913
 50
128.609131
 51
164.581299
  0
ARC
  8
0
 10
-206.624985
 20
-206.237244
 40
0.717060
 50
165.892792
 51
194.107208
  0
ARC
  8
0
 10
-206.437469
 20
-206.168503
 40
0.915915
 50
195.418701
 51
231.390869
  0
ARC
  8
0
 10
-205.918533
 20
-205.410278
 40
1.833471
 50
233.504700
 51
306.495300
  0
ARC
  8
0
 10
-205.399597
 20
-206.168503
 40
0.915913
 50
308.609131
 51
344.581299
  0
ARC
  8
0
 10
-219.000000
 20
-222.609497
 40
23.182585
 50
90.594803
 51
126.497765
  0
ARC
  8
0
 10
-225.560959
 20
-213.023926
 40
11.582414
 50
128.611481
 51
164.582001
  0
ARC
  8
0
 10
-227.931671
 20
-212.154816
 40
9.068321
 50
165.893509
 51
180.028534
  0
ARC
  8
0
 10
-203.437515
 20
-202.904831
 40
2.518991
 50
358.277222
 51
14.106447
  0
ARC
  8
0
 10
-204.096039
 20
-203.146240
 40
3.217330
 50
15.417826
 51
51.388657
  0
ARC
  8
0
 10
-205.918533
 20
-205.808914
 40
6.439610
 50
53.502342
 51
90.281708
  0
ARC
  8
0
 10
-224.458206
 20
-212.154816
 40
5.541789
 50
189.181992
 51
194.106384
  0
ARC
  8
0
 10
-223.009460
 20
-211.623703
 40
7.078150
 50
195.417877
 51
231.388535
  0
ARC
  8
0
 10
-219.000000
 20
-205.765884
 40
14.167114
 50
233.502213
 51
235.701523
  0
ARC
  8
0
 10
-219.000000
 20
-224.377258
 40
23.182585
 50
90.594803
 51
126.497765
  0
ARC
  8
0
 10
-225.560959
 20
-214.791687
 40
11.582414
 50
128.611481
 51
164.582001
  0
ARC
  8
0
 10
-227.931671
 20
-213.922577
 40
9.068321
 50
165.893509
 51
180.028534
  0
ARC
  8
0
 10
-234.562500
 20
-223.172592
 40
2.518991
 50
178.277237
 51
194.106445
  0
ARC
  8
0
 10
-233.903976
 20
-222.931183
 40
3.217330
 50
195.417831
 51
231.388657
  0
ARC
  8
0
 10
-232.081482
 20
-220.268524
 40
6.439598
 50
233.502258
 51
270.281708
  0
ARC
  8
0
 10
-219.000000
 20
-203.467896
 40
23.182583
 50
290.103302
 51
306.497772
  0
ARC
  8
0
 10
-212.439041
 20
-213.053467
 40
11.582414
 50
308.611481
 51
344.582001
  0
ARC
  8
0
 10
-210.068329
 20
-213.922577
 40
9.068321
 50
345.893524
 51
358.858826
  0
ARC
  8
0
 10
-203.437515
 20
-204.672592
 40
2.518991
 50
358.277222
 51
14.106447
  0
ARC
  8
0
 10
-204.096039
 20
-204.914001
 40
3.217330
 50
15.417826
 51
51.388657
  0
ARC
  8
0
 10
-205.918533
 20
-207.576675
 40
6.439610
 50
53.502342
 51
90.281708
  0
ARC
  8
0
 10
-213.541794
 20
-213.922577
 40
5.541794
 50
0.000000
 51
14.106378
  0
ARC
  8
0
 10
-214.990540
 20
-214.453690
 40
7.078150
 50
15.417875
 51
51.388531
  0
ARC
  8
0
 10
-219.000000
 20
-220.311508
 40
14.167114
 50
53.502209
 51
126.497787
  0
ARC
  8
0
 10
-223.009460
 20
-214.453690
 40
7.078154
 50
128.611465
 51
164.582123
  0
ARC
  8
0
 10
-224.458206
 20
-213.922577
 40
5.541793
 50
165.893616
 51
194.106384
  0
ARC
  8
0
 10
-223.009460
 20
-213.391464
 40
7.078150
 50
195.417877
 51
231.388535
  0
ARC
  8
0
 10
-219.000000
 20
-207.533646
 40
14.167114
 50
233.502213
 51
235.701523
  0
POLYLINE
  8
0
 66
     1
  0
VERTEX
  8
0
 10
-264.500000
 20
-248.000000
  0
VERTEX
  8
0
 10
-265.334930
 20
-248.213501
  0
VERTEX
  8
0
 10
-266.138611
 20
-248.536224
  0
VERTEX
  8
0
 10
-266.881897
 20
-248.947144
  0
VERTEX
  8
0
 10
-267.521301
 20
-249.407547
  0
VERTEX
  8
0
 10
-268.076630
 20
-249.949982
  0
VERTEX
  8
0
 10
-268.503357
 20
-250.590027
  0
VERTEX
  8
0
 10
-268.766266
 20
-251.314438
  0
VERTEX
  8
0
 10
-268.884064
 20
-252.098221
  0
VERTEX
  8
0
 10
-268.923370
 20
-252.999588
  0
VERTEX
  8
0
 10
-268.934113
 20
-253.828232
  0
VERTEX
  8
0
 10
-268.923889
 20
-254.640610
  0
VERTEX
  8
0
 10
-268.886536
 20
-255.453918
  0
VERTEX
  8
0
 10
-268.815826
 20
-256.285339
  0
VERTEX
  8
0
 10
-268.704468
 20
-257.157837
  0
VERTEX
  8
0
 10
-268.556427
 20
-258.023285
  0
VERTEX
  8
0
 10
-268.371521
 20
-258.895966
  0
VERTEX
  8
0
 10
-268.149536
 20
-259.790161
  0
VERTEX
  8
0
 10
-267.871216
 20
-260.763123
  0
VERTEX
  8
0
 10
-267.554077
 20
-261.740936
  0
VERTEX
  8
0
 10
-267.217743
 20
-262.674347
  0
VERTEX
  8
0
 10
-266.881897
 20
-263.514038
  0
VERTEX
  8
0
 10
-266.486847
 20
-264.393280
  0
VERTEX
  8
0
 10
-266.058411
 20
-265.257019
  0
VERTEX
  8
0
 10
-265.634644
 20
-266.033112
  0
VERTEX
  8
0
 10
-265.275635
 20
-266.631531
  0
VERTEX
  8
0
 10
-264.897064
 20
-267.217712
  0
VERTEX
  8
0
 10
-264.500000
 20
-267.791321
  0
SEQEND
  0
POLYLINE
  8
0
 66
     1
  0
VERTEX
  8
0
 10
-264.500000
 20
-332.000000
  0
VERTEX
  8
0
 10
-265.334930
 20
-331.786499
  0
VERTEX
  8
0
 10
-266.138611
 20
-331.463776
  0
VERTEX
  8
0
 10
-266.881897
 20
-331.052856
  0
VERTEX
  8
0
 10
-267.521301
 20
-330.592468
  0
VERTEX
  8
0
 10
-268.076630
 20
-330.050018
  0
VERTEX
  8
0
 10
-268.503357
 20
-329.409973
  0
VERTEX
  8
0
 10
-268.766266
 20
-328.685577
  0
VERTEX
  8
0
 10
-268.884064
 20
-327.901794
  0
VERTEX
  8
0
 10
-268.923370
 20
-327.000427
  0
VERTEX
  8
0
 10
-268.934113
 20
-326.171783
  0
VERTEX
  8
0
 10
-268.923889
 20
-325.359406
  0
VERTEX
  8
0
 10
-268.886536
 20
-324.546082
  0
VERTEX
  8
0
 10
-268.815826
 20
-323.714661
  0
VERTEX
  8
0
 10
-268.704468
 20
-322.842163
  0
VERTEX
  8
0
 10
-268.556427
 20
-321.976715
  0
VERTEX
  8
0
 10
-268.371521
 20
-321.104034
  0
VERTEX
  8
0
 10
-268.149536
 20
-320.209839
  0
VERTEX
  8
0
 10
-267.871216
 20
-319.236877
  0
VERTEX
  8
0
 10
-267.554077
 20
-318.259064
  0
VERTEX
  8
0
 10
-267.217743
 20
-317.325653
  0
VERTEX
  8
0
 10
-266.881897
 20
-316.485962
  0
VERTEX
  8
0
 10
-266.486847
 20
-315.606720
  0
VERTEX
  8
0
 10
-266.058411
 20
-314.742981
  0
VERTEX
  8
0
 10
-265.634644
 20
-313.966888
  0
VERTEX
  8
0
 10
-265.275635
 20
-313.368469
  0
VERTEX
  8
0
 10
-264.897064
 20
-312.782288
  0
VERTEX
  8
0
 10
-264.500000
 20
-312.208679
  0
SEQEND
  0
POLYLINE
  8
0
 66
     1
  0
VERTEX
  8
0
 10
-268.954529
 20
-218.000000
  0
VERTEX
  8
0
 10
-268.652191
 20
-218.568436
  0
VERTEX
  8
0
 10
-268.337280
 20
-219.156250
  0
VERTEX
  8
0
 10
-268.005035
 20
-219.772430
  0
VERTEX
  8
0
 10
-267.625183
 20
-220.470566
  0
VERTEX
  8
0
 10
-267.259827
 20
-221.136703
  0
VERTEX
  8
0
 10
-266.892151
 20
-221.801590
  0
VERTEX
  8
0
 10
-266.535095
 20
-222.442017
  0
VERTEX
  8
0
 10
-266.207275
 20
-223.025208
  0
VERTEX
  8
0
 10
-265.877563
 20
-223.607300
  0
VERTEX
  8
0
 10
-265.542358
 20
-224.194427
  0
VERTEX
  8
0
 10
-265.196960
 20
-224.794708
  0
VERTEX
  8
0
 10
-264.849518
 20
-225.393784
  0
VERTEX
  8
0
 10
-264.500000
 20
-225.991669
  0
SEQEND
  0
POLYLINE
  8
0
 66
     1
  0
VERTEX
  8
0
 10
-268.954529
 20
-362.000000
  0
VERTEX
  8
0
 10
-268.652191
 20
-361.431580
  0
VERTEX
  8
0
 10
-268.337280
 20
-360.843750
  0
VERTEX
  8
0
 10
-268.005035
 20
-360.227570
  0
VERTEX
  8
0
 10
-267.625183
 20
-359.529419
  0
VERTEX
  8
0
 10
-267.259827
 20
-358.863281
  0
VERTEX
  8
0
 10
-266.892151
 20
-358.198425
  0
VERTEX
  8
0
 10
-266.535095
 20
-357.557983
  0
VERTEX
  8
0
 10
-266.207275
 20
-356.974792
  0
VERTEX
  8
0
 10
-265.877563
 20
-356.392700
  0
VERTEX
  8
0
 10
-265.542358
 20
-355.805573
  0
VERTEX
  8
0
 10
-265.196960
 20
-355.205292
  0
VERTEX
  8
0
 10
-264.849518
 20
-354.606201
  0
VERTEX
  8
0
 10
-264.500000
 20
-354.008331
  0
SEQEND
  0
ARC
  8
0
 10
-219.000000
 20
-207.533646
 40
14.167108
 50
304.302460
 51
306.497803
  0
ARC
  8
0
 10
-214.990540
 20
-213.391464
 40
7.078154
 50
308.611481
 51
344.582123
  0
ARC
  8
0
 10
-213.541794
 20
-213.922577
 40
5.541793
 50
345.893616
 51
0.000000
  0
ARC
  8
0
 10
-219.000000
 20
-205.765884
 40
14.167108
 50
304.302460
 51
306.497803
  0
ARC
  8
0
 10
-214.990540
 20
-211.623703
 40
7.078154
 50
308.611481
 51
344.582123
  0
ARC
  8
0
 10
-213.541794
 20
-212.154816
 40
5.541793
 50
345.893616
 51
350.824432
  0
POINT
  8
0
 10
0.000000
 20
-60.000000
  0
POINT
  8
0
 10
98.000000
 20
-60.000000
  0
LINE
  8
0
 10
-39.597980
 20
-51.514717
 11
-24.465895
 21
-36.382633
  0
LINE
  8
0
 10
36.062443
 20
-55.050255
 11
1.414211
 21
-20.402020
  0
LINE
  8
0
 10
-8.485282
 20
-20.402020
 11
1.414212
 21
-20.402020
  0
LINE
  8
0
 10
36.062443
 20
-55.050255
 11
36.062443
 21
-64.949753
  0
LINE
  8
0
 10
-39.597980
 20
-61.414215
 11
-39.597980
 21
-51.514717
  0
LINE
  8
0
 10
-57.407711
 20
-105.386902
 11
-46.109234
 21
-94.088425
  0
LINE
  8
0
 10
-56.823814
 20
-136.622803
 11
-46.582829
 21
-126.381813
  0
LINE
  8
0
 10
-44.511765
 20
-124.792633
 11
-15.000035
 21
-107.754013
  0
LINE
  8
0
 10
-79.964073
 20
-116.654617
 11
-66.175278
 21
-105.084435
  0
LINE
  8
0
 10
79.964043
 20
-116.654671
 11
66.175255
 21
-105.084473
  0
LINE
  8
0
 10
44.511730
 20
-124.792625
 11
15.000018
 21
-107.753983
  0
LINE
  8
0
 10
57.407673
 20
-105.386932
 11
44.232998
 21
-92.212234
  0
LINE
  8
0
 10
56.823761
 20
-136.622833
 11
46.582787
 21
-126.381851
  0
LINE
  8
0
 10
-1.414212
 20
-81.213203
 11
-21.213202
 21
-61.414211
  0
LINE
  8
0
 10
1.414212
 20
-81.213203
 11
21.213202
 21
-61.414211
  0
LINE
  8
0
 10
21.213202
 20
-58.585789
 11
1.414212
 21
-38.786797
  0
LINE
  8
0
 10
-21.920309
 20
-58.585785
 11
-12.091526
 21
-48.757004
  0
LINE
  8
0
 10
21.920309
 20
-58.585785
 11
1.414214
 21
-38.079689
  0
LINE
  8
0
 10
1.414214
 20
-81.920311
 11
21.920309
 21
-61.414215
  0
LINE
  8
0
 10
-1.414214
 20
-81.920311
 11
-21.920309
 21
-61.414215
  0
LINE
  8
0
 10
-11.737972
 20
-49.110558
 11
-24.465895
 21
-36.382633
  0
LINE
  8
0
 10
-10.889444
 20
-48.262028
 11
-23.617367
 21
-35.534103
  0
LINE
  8
0
 10
-21.213202
 20
-58.585789
 11
-1.414212
 21
-38.786797
  0
LINE
  8
0
 10
-11.242997
 20
-47.908474
 11
-1.414214
 21
-38.079689
  0
LINE
  8
0
 10
-23.617367
 20
-35.534103
 11
-3.181980
 21
-15.098721
  0
LINE
  8
0
 10
-21.496044
 20
-37.655426
 11
-22.344572
 21
-38.503956
  0
LINE
  8
0
 10
-14.424978
 20
-44.726494
 11
-15.273506
 21
-45.575020
  0
LINE
  8
0
 10
7.872910
 20
-25.446503
 11
-2.216056
 21
-15.357540
  0
LINE
  8
0
 10
8.131725
 20
-26.412430
 11
-3.181983
 21
-15.098724
  0
LINE
  8
0
 10
-3.181982
 20
-15.098724
 11
-2.216056
 21
-15.357540
  0
LINE
  8
0
 10
8.131727
 20
-26.412430
 11
7.872910
 21
-25.446507
  0
LINE
  8
0
 10
7.778176
 20
-26.765984
 11
8.131729
 21
-26.412430
  0
LINE
  8
0
 10
-52.999702
 20
-35.299976
 11
-91.939339
 21
3.639668
  0
LINE
  8
0
 10
-91.939339
 20
-123.639633
 11
-52.999702
 21
-84.700012
  0
LINE
  8
0
 10
-91.939346
 20
-123.639633
 11
-134.999710
 21
-80.579262
  0
LINE
  8
0
 10
-134.999710
 20
-39.420700
 11
-91.939323
 21
3.639671
  0
LINE
  8
0
 10
-52.999699
 20
-84.700012
 11
-52.999699
 21
-35.299980
  0
LINE
  8
0
 10
-134.999695
 20
-80.600288
 11
-134.999695
 21
-39.399689
  0
LINE
  8
0
 10
-81.686279
 20
-3.077873
 11
-66.624908
 21
11.983490
  0
LINE
  8
0
 10
-70.372536
 20
-14.391613
 11
-55.311165
 21
0.669750
  0
LINE
  8
0
 10
-80.970734
 20
-116.294159
 11
-81.014526
 21
-116.250366
  0
LINE
  8
0
 10
-71.000565
 20
-106.323952
 11
-71.044350
 21
-106.280167
  0
LINE
  8
0
 10
-65.458168
 20
11.806747
 11
-64.353714
 21
12.911201
  0
LINE
  8
0
 10
-55.487984
 20
1.836533
 11
-54.383533
 21
2.940983
  0
LINE
  8
0
 10
-55.101959
 20
1.450531
 11
-65.844116
 21
12.192688
  0
LINE
  8
0
 10
-80.970711
 20
-116.294144
 11
-71.000511
 21
-106.323944
  0
LINE
  8
0
 10
-64.353683
 20
12.911171
 11
-54.383476
 21
2.940956
  0
LINE
  8
0
 10
-55.311195
 20
0.669762
 11
-55.101990
 21
1.450516
  0
LINE
  8
0
 10
-66.624901
 20
11.983528
 11
-65.844147
 21
12.192726
  0
LINE
  8
0
 10
-55.311169
 20
0.669765
 11
-66.624878
 21
11.983482
  0
LINE
  8
0
 10
-88.757362
 20
-123.993195
 11
-63.301514
 21
-98.537346
  0
LINE
  8
0
 10
-63.301498
 20
-21.462643
 11
-88.757347
 21
3.993210
  0
LINE
  8
0
 10
-87.779434
 20
-123.015274
 11
-89.547203
 21
-121.247513
  0
LINE
  8
0
 10
-64.279411
 20
-99.515244
 11
-66.047180
 21
-97.747482
  0
LINE
  8
0
 10
-115.552765
 20
-70.464638
 11
-114.949272
 21
-64.722763
  0
LINE
  8
0
 10
-125.497993
 20
-69.419342
 11
-124.894501
 21
-63.677467
  0
LINE
  8
0
 10
-115.552742
 20
-70.464584
 11
-120.827095
 21
-72.812874
  0
LINE
  8
0
 10
-119.620117
 20
-61.329102
 11
-124.894478
 21
-63.677399
  0
LINE
  8
0
 10
-120.827148
 20
-72.813049
 11
-125.498009
 21
-69.419472
  0
LINE
  8
0
 10
-114.949295
 20
-64.722870
 11
-119.620155
 21
-61.329292
  0
LINE
  8
0
 10
-117.839775
 20
-67.824364
 11
-122.711922
 21
-67.312279
  0
LINE
  8
0
 10
-117.735229
 20
-66.829849
 11
-122.607376
 21
-66.317764
  0
LINE
  8
0
 10
-117.513077
 20
-58.026592
 11
-114.453583
 21
-53.130390
  0
LINE
  8
0
 10
-125.993584
 20
-52.727406
 11
-122.934097
 21
-47.831203
  0
LINE
  8
0
 10
-117.513077
 20
-58.026619
 11
-123.283058
 21
-57.825127
  0
LINE
  8
0
 10
-117.164085
 20
-48.032696
 11
-122.934082
 21
-47.831200
  0
LINE
  8
0
 10
-123.283188
 20
-57.825211
 11
-125.993690
 21
-52.727493
  0
LINE
  8
0
 10
-114.453705
 20
-53.130463
 11
-117.164192
 21
-48.032772
  0
LINE
  8
0
 10
-118.411263
 20
-54.651005
 11
-122.565842
 21
-52.054935
  0
LINE
  8
0
 10
-117.881340
 20
-53.802940
 11
-122.035896
 21
-51.206879
  0
LINE
  8
0
 10
-53.554531
 20
-69.165146
 11
-53.554531
 21
-50.834843
  0
LINE
  8
0
 10
-76.615677
 20
-85.453598
 11
-87.023193
 21
-77.395462
  0
LINE
  8
0
 10
-70.493515
 20
-85.453461
 11
-60.085999
 21
-77.395332
  0
LINE
  8
0
 10
-60.086002
 20
-42.604664
 11
-70.493515
 21
-34.546524
  0
LINE
  8
0
 10
-76.615616
 20
-34.546425
 11
-87.023132
 21
-42.604568
  0
LINE
  8
0
 10
-93.554535
 20
-69.165146
 11
-93.554535
 21
-50.834839
  0
LINE
  8
0
 10
-87.542152
 20
-123.343658
 11
-82.450981
 21
-118.252487
  0
LINE
  8
0
 10
-87.542183
 20
-123.343704
 11
-87.825027
 21
-123.060852
  0
LINE
  8
0
 10
-82.451004
 20
-118.252533
 11
-82.733849
 21
-117.969681
  0
LINE
  8
0
 10
-69.042145
 20
-104.843658
 11
-63.950981
 21
-99.752495
  0
LINE
  8
0
 10
-69.042160
 20
-104.843674
 11
-69.325005
 21
-104.560837
  0
LINE
  8
0
 10
-63.950993
 20
-99.752525
 11
-64.233833
 21
-99.469681
  0
LINE
  8
0
 10
-63.950966
 20
-20.247486
 11
-69.042137
 21
-15.156322
  0
LINE
  8
0
 10
-63.951000
 20
-20.247475
 11
-64.233841
 21
-20.530319
  0
LINE
  8
0
 10
-69.042145
 20
-15.156303
 11
-69.324989
 21
-15.439144
  0
LINE
  8
0
 10
-82.450966
 20
-1.747486
 11
-87.542130
 21
3.343681
  0
LINE
  8
0
 10
-82.451012
 20
-1.747471
 11
-82.733856
 21
-2.030315
  0
LINE
  8
0
 10
-87.542183
 20
3.343704
 11
-87.825027
 21
3.060860
  0
LINE
  8
0
 10
-17.000000
 20
-120.000000
 11
-17.000000
 21
-108.908691
  0
LINE
  8
0
 10
-90.599998
 20
5.000000
 11
-73.608406
 21
5.000000
  0
LINE
  8
0
 10
-90.600014
 20
-125.000000
 11
-73.341667
 21
-125.000000
  0
LINE
  8
0
 10
-17.000000
 20
-29.405882
 11
-17.000000
 21
0.000000
  0
LINE
  8
0
 10
-17.000015
 20
-119.999985
 11
-22.000021
 21
-124.999992
  0
LINE
  8
0
 10
-16.999973
 20
0.000023
 11
-21.999975
 21
5.000031
  0
LINE
  8
0
 10
-65.069283
 20
-23.230408
 11
-63.301517
 21
-21.462643
  0
LINE
  8
0
 10
-90.525124
 20
2.225430
 11
-88.757362
 21
3.993191
  0
LINE
  8
0
 10
-88.757393
 20
-123.993210
 11
-90.525154
 21
-122.225449
  0
LINE
  8
0
 10
-63.301510
 20
-98.537361
 11
-65.069275
 21
-96.769592
  0
LINE
  8
0
 10
-90.600052
 20
-125.000038
 11
-134.999741
 21
-80.600334
  0
LINE
  8
0
 10
-134.999710
 20
-39.399681
 11
-90.600006
 21
5.000015
  0
LINE
  8
0
 10
-10.142232
 20
29.217606
 11
-11.376233
 21
24.612251
  0
LINE
  8
0
 10
10.142227
 20
29.217598
 11
11.376228
 21
24.612244
  0
LINE
  8
0
 10
-10.142217
 20
-149.217590
 11
-11.376220
 21
-144.612228
  0
LINE
  8
0
 10
10.142204
 20
-149.217590
 11
11.376202
 21
-144.612244
  0
LINE
  8
0
 10
78.964462
 20
-92.454079
 11
82.335793
 21
-95.825409
  0
LINE
  8
0
 10
78.964478
 20
-27.546047
 11
82.335854
 21
-24.174671
  0
LINE
  8
0
 10
67.588303
 20
-7.841816
 11
72.193626
 21
-6.607822
  0
LINE
  8
0
 10
18.408846
 20
-115.067375
 11
17.374170
 21
-111.205910
  0
LINE
  8
0
 10
56.894173
 20
-71.591171
 11
53.032692
 21
-70.556488
  0
LINE
  8
0
 10
56.894173
 20
-48.408951
 11
53.032749
 21
-49.443615
  0
LINE
  8
0
 10
35.658543
 20
-19.350594
 11
38.485344
 21
-16.523792
  0
LINE
  8
0
 10
17.374289
 20
-8.794098
 11
18.408951
 21
-4.932686
  0
LINE
  8
0
 10
-12.544503
 20
-12.500000
 11
12.544661
 21
-12.500000
  0
LINE
  8
0
 10
-12.544623
 20
-107.500000
 11
12.544540
 21
-107.500000
  0
LINE
  8
0
 10
39.652912
 20
-86.319153
 11
47.408478
 21
-72.886124
  0
LINE
  8
0
 10
47.408550
 20
-47.113976
 11
34.863972
 21
-25.386120
  0
LINE
  8
0
 10
77.500000
 20
-88.918549
 11
77.500000
 21
-31.081583
  0
LINE
  8
0
 10
63.794174
 20
-7.342297
 11
13.705820
 21
21.576241
  0
LINE
  8
0
 10
-13.705833
 20
-141.576233
 11
-42.416679
 21
-125.000008
  0
LINE
  8
0
 10
13.705835
 20
-141.576248
 11
43.643822
 21
-124.291542
  0
LINE
  8
0
 10
-42.416729
 20
5.000008
 11
-13.705850
 21
21.576241
  0
LINE
  8
0
 10
-2.511446
 20
-78.984604
 11
-18.984604
 21
-62.511440
  0
LINE
  8
0
 10
2.511441
 20
-78.984604
 11
18.984604
 21
-62.511448
  0
LINE
  8
0
 10
-18.984604
 20
-57.488552
 11
-2.511441
 21
-41.015396
  0
LINE
  8
0
 10
18.984604
 20
-57.488560
 11
2.511446
 21
-41.015396
  0
LINE
  8
0
 10
2.511441
 20
-41.015396
 11
2.887483
 21
-40.260063
  0
LINE
  8
0
 10
-2.511435
 20
-41.015396
 11
-2.887476
 21
-40.260063
  0
LINE
  8
0
 10
-19.739935
 20
-57.112518
 11
-18.984604
 21
-57.488560
  0
LINE
  8
0
 10
-19.739937
 20
-62.887478
 11
-18.984606
 21
-62.511436
  0
LINE
  8
0
 10
-2.887486
 20
-79.739929
 11
-2.511438
 21
-78.984604
  0
LINE
  8
0
 10
2.887474
 20
-79.739937
 11
2.511440
 21
-78.984604
  0
LINE
  8
0
 10
18.984604
 20
-62.511452
 11
19.739935
 21
-62.887486
  0
LINE
  8
0
 10
19.739935
 20
-57.112518
 11
18.984604
 21
-57.488575
  0
LINE
  8
0
 10
-55.369022
 20
5.000000
 11
-21.999994
 21
5.000000
  0
LINE
  8
0
 10
-91.939308
 20
-91.455330
 11
-91.939308
 21
-99.255333
  0
LINE
  8
0
 10
-95.839310
 20
-95.355331
 11
-88.039307
 21
-95.355331
  0
LINE
  8
0
 10
-27.113253
 20
-116.949997
 11
-30.927929
 21
-116.949997
  0
LINE
  8
0
 10
-25.205912
 20
-113.646385
 11
-27.113253
 21
-116.949997
  0
LINE
  8
0
 10
-73.554527
 20
-80.056618
 11
-74.804535
 21
-80.778305
  0
LINE
  8
0
 10
-74.804535
 20
-80.778305
 11
-74.804535
 21
-82.221680
  0
LINE
  8
0
 10
-73.554535
 20
-82.943367
 11
-74.804535
 21
-82.221680
  0
LINE
  8
0
 10
-72.304535
 20
-82.221680
 11
-73.554535
 21
-82.943367
  0
LINE
  8
0
 10
-72.304535
 20
-80.778305
 11
-72.304535
 21
-82.221680
  0
LINE
  8
0
 10
-73.554535
 20
-80.056610
 11
-72.304535
 21
-80.778305
  0
LINE
  8
0
 10
-73.554535
 20
-37.056625
 11
-74.804535
 21
-37.778313
  0
LINE
  8
0
 10
-74.804543
 20
-37.778305
 11
-74.804543
 21
-39.221680
  0
LINE
  8
0
 10
-73.554543
 20
-39.943367
 11
-74.804543
 21
-39.221676
  0
LINE
  8
0
 10
-72.304543
 20
-39.221680
 11
-73.554543
 21
-39.943367
  0
LINE
  8
0
 10
-72.304543
 20
-37.778305
 11
-72.304543
 21
-39.221680
  0
LINE
  8
0
 10
-73.554543
 20
-37.056610
 11
-72.304543
 21
-37.778305
  0
LINE
  8
0
 10
-24.226494
 20
-8.049995
 11
-27.113245
 21
-3.049995
  0
LINE
  8
0
 10
-27.113245
 20
-3.049995
 11
-32.886749
 21
-3.049995
  0
LINE
  8
0
 10
-35.773487
 20
-8.050003
 11
-32.886738
 21
-3.049999
  0
LINE
  8
0
 10
-32.886749
 20
-13.049995
 11
-35.773499
 21
-8.049995
  0
LINE
  8
0
 10
-27.113245
 20
-13.049995
 11
-32.886749
 21
-13.049995
  0
LINE
  8
0
 10
-24.226492
 20
-8.049995
 11
-27.113245
 21
-13.049995
  0
LINE
  8
0
 10
-91.939308
 20
-20.744652
 11
-91.939308
 21
-28.544653
  0
LINE
  8
0
 10
-95.839310
 20
-24.644653
 11
-88.039307
 21
-24.644653
  0
LINE
  8
0
 10
-34.847008
 20
-121.545258
 11
-33.970375
 21
-120.026886
  0
LINE
  8
0
 10
-35.886238
 20
-120.945251
 11
-35.009605
 21
-119.426880
  0
LINE
  8
0
 10
-35.886234
 20
0.945267
 11
-35.009602
 21
-0.573105
  0
LINE
  8
0
 10
-34.847004
 20
1.545265
 11
-33.970371
 21
0.026894
  0
LINE
  8
0
 10
-44.854870
 20
-125.000000
 11
-22.000006
 21
-125.000000
  0
ARC
  8
0
 10
0.000000
 20
-60.000000
 40
98.000000
 50
215.317642
 51
231.649216
  0
ARC
  8
0
 10
-58.945133
 20
-134.501480
 40
2.999997
 50
231.649170
 51
314.999939
  0
ARC
  8
0
 10
-39.511761
 20
-133.452881
 40
9.999996
 50
120.000038
 51
135.000000
  0
ARC
  8
0
 10
-61.650352
 20
-101.144257
 40
6.000001
 50
221.048386
 51
314.999939
  0
ARC
  8
0
 10
-67.322433
 20
-72.875214
 40
30.000002
 50
314.999969
 51
22.459679
  0
ARC
  8
0
 10
39.511707
 20
-133.452911
 40
10.000008
 50
45.000076
 51
60.000046
  0
ARC
  8
0
 10
58.945080
 20
-134.501526
 40
3.000000
 50
225.000046
 51
308.350830
  0
ARC
  8
0
 10
61.650322
 20
-101.144302
 40
5.999999
 50
225.000076
 51
318.951660
  0
ARC
  8
0
 10
0.000000
 20
-60.000000
 40
98.000000
 50
308.350830
 51
324.682434
  0
ARC
  8
0
 10
65.446213
 20
-70.999046
 40
30.000000
 50
168.366959
 51
224.999969
  0
ARC
  8
0
 10
-0.000027
 20
-133.734772
 40
30.000010
 50
59.999958
 51
120.000023
  0
ARC
  8
0
 10
0.000000
 20
-79.798988
 40
2.000001
 50
225.000046
 51
314.999969
  0
ARC
  8
0
 10
19.798990
 20
-60.000000
 40
2.000001
 50
314.999969
 51
45.000038
  0
ARC
  8
0
 10
0.000000
 20
-40.201012
 40
2.000000
 50
45.000046
 51
134.999969
  0
ARC
  8
0
 10
-19.798990
 20
-60.000000
 40
2.000001
 50
134.999954
 51
225.000046
  0
ARC
  8
0
 10
-20.506096
 20
-60.000000
 40
2.000001
 50
134.999954
 51
225.000046
  0
ARC
  8
0
 10
0.000000
 20
-80.506096
 40
2.000001
 50
225.000046
 51
314.999969
  0
ARC
  8
0
 10
20.506096
 20
-60.000000
 40
2.000001
 50
314.999969
 51
45.000038
  0
ARC
  8
0
 10
0.000000
 20
-39.493904
 40
2.000000
 50
45.000046
 51
134.999969
  0
CIRCLE
  8
0
 10
-91.939308
 20
-24.644653
 40
7.500000
  0
CIRCLE
  8
0
 10
-73.554535
 20
-59.999992
 40
0.500000
  0
CIRCLE
  8
0
 10
-73.554535
 20
-59.999992
 40
16.250000
  0
ARC
  8
0
 10
-87.696671
 20
-99.597969
 40
17.999998
 50
291.941772
 51
338.058197
  0
ARC
  8
0
 10
-71.079643
 20
-3.785007
 40
18.000002
 50
21.941736
 51
68.058235
  0
CIRCLE
  8
0
 10
-120.223579
 20
-67.071053
 40
2.500000
  0
CIRCLE
  8
0
 10
-120.223579
 20
-67.071053
 40
2.250000
  0
CIRCLE
  8
0
 10
-120.223579
 20
-67.071053
 40
5.000000
  0
CIRCLE
  8
0
 10
-120.223579
 20
-52.928921
 40
2.500000
  0
CIRCLE
  8
0
 10
-120.223579
 20
-52.928921
 40
2.250000
  0
CIRCLE
  8
0
 10
-120.223579
 20
-52.928921
 40
5.000000
  0
CIRCLE
  8
0
 10
-91.939308
 20
-24.644653
 40
7.000000
  0
CIRCLE
  8
0
 10
-73.554535
 20
-59.999992
 40
17.049999
  0
ARC
  8
0
 10
-73.554527
 20
-38.499992
 40
5.000003
 50
52.250767
 51
127.749229
  0
ARC
  8
0
 10
-73.554535
 20
-59.999992
 40
22.000000
 50
127.749245
 51
155.380020
  0
ARC
  8
0
 10
-73.554535
 20
-59.999992
 40
22.000002
 50
307.749207
 51
335.380005
  0
ARC
  8
0
 10
-73.554527
 20
-38.499992
 40
5.000003
 50
52.250767
 51
90.000000
  0
ARC
  8
0
 10
-73.554535
 20
-59.999992
 40
21.999996
 50
204.620010
 51
232.250793
  0
ARC
  8
0
 10
-73.554535
 20
-59.999992
 40
22.000000
 50
24.619974
 51
52.250751
  0
ARC
  8
0
 10
-73.554535
 20
-81.499992
 40
5.000003
 50
232.250763
 51
307.749237
  0
ARC
  8
0
 10
-86.481003
 20
-119.383362
 40
4.100000
 50
255.000015
 51
315.000000
  0
ARC
  8
0
 10
-86.411285
 20
-119.313652
 40
4.100002
 50
315.000000
 51
14.999986
  0
ARC
  8
0
 10
-67.980995
 20
-100.883369
 40
4.100000
 50
255.000015
 51
315.000000
  0
ARC
  8
0
 10
-67.911278
 20
-100.813652
 40
4.100002
 50
315.000000
 51
14.999986
  0
ARC
  8
0
 10
-67.911278
 20
-19.186337
 40
4.100000
 50
345.000000
 51
44.999962
  0
ARC
  8
0
 10
-67.980995
 20
-19.116619
 40
4.099999
 50
44.999962
 51
104.999985
  0
ARC
  8
0
 10
-86.411270
 20
-0.686329
 40
4.100000
 50
345.000000
 51
44.999962
  0
ARC
  8
0
 10
-86.480980
 20
-0.616619
 40
4.099999
 50
44.999962
 51
104.999985
  0
CIRCLE
  8
0
 10
-91.939308
 20
-95.355331
 40
7.000000
  0
CIRCLE
  8
0
 10
-91.939308
 20
-95.355331
 40
7.500000
  0
ARC
  8
0
 10
0.000000
 20
-60.000000
 40
35.000000
 50
10.952266
 51
76.002716
  0
ARC
  8
0
 10
0.000000
 20
-60.000000
 40
65.000000
 50
70.021088
 51
107.109818
  0
ARC
  8
0
 10
29.999958
 20
-111.961548
 40
6.000000
 50
189.992493
 51
290.007355
  0
CIRCLE
  8
0
 10
60.000000
 20
-60.000061
 40
6.000000
  0
CIRCLE
  8
0
 10
30.000063
 20
-8.038513
 40
6.000000
  0
ARC
  8
0
 10
29.999958
 20
-111.961548
 40
5.125000
 50
198.799988
 51
281.199860
  0
CIRCLE
  8
0
 10
60.000000
 20
-60.000061
 40
5.125000
  0
CIRCLE
  8
0
 10
30.000063
 20
-8.038513
 40
5.125000
  0
ARC
  8
0
 10
29.999958
 20
-111.961548
 40
12.000000
 50
195.000031
 51
311.255707
  0
ARC
  8
0
 10
60.000000
 20
-60.000061
 40
11.999998
 50
255.000046
 51
105.000015
  0
ARC
  8
0
 10
30.000063
 20
-8.038513
 40
12.000001
 50
314.999969
 51
164.999985
  0
ARC
  8
0
 10
0.000007
 20
26.500000
 40
10.500000
 50
14.999989
 51
165.000015
  0
ARC
  8
0
 10
-0.000020
 20
-146.500000
 40
10.500000
 50
195.000031
 51
344.999969
  0
ARC
  8
0
 10
74.911179
 20
-103.250031
 40
10.500006
 50
278.038513
 51
45.000000
  0
ARC
  8
0
 10
74.911224
 20
-16.750046
 40
10.500003
 50
315.000000
 51
104.999985
  0
ARC
  8
0
 10
-12.544623
 20
-112.500000
 40
5.000000
 50
90.000000
 51
153.008743
  0
ARC
  8
0
 10
12.544540
 20
-112.500000
 40
5.000001
 50
15.000028
 51
90.000000
  0
ARC
  8
0
 10
51.738598
 20
-75.386116
 40
4.999999
 50
75.000008
 51
150.000000
  0
ARC
  8
0
 10
51.738655
 20
-44.613983
 40
4.999999
 50
210.000061
 51
284.999939
  0
ARC
  8
0
 10
39.194077
 20
-22.886131
 40
5.000000
 50
135.000000
 51
210.000000
  0
ARC
  8
0
 10
12.544661
 20
-7.500000
 40
5.000000
 50
269.999969
 51
344.999969
  0
ARC
  8
0
 10
-12.544503
 20
-7.500000
 40
5.000001
 50
206.988297
 51
269.999969
  0
ARC
  8
0
 10
0.000000
 20
-60.000000
 40
65.000000
 50
252.890137
 51
289.978760
  0
ARC
  8
0
 10
0.000000
 20
-60.000000
 40
65.000000
 50
322.514008
 51
349.978760
  0
ARC
  8
0
 10
0.000000
 20
-60.000000
 40
65.000000
 50
10.021103
 51
49.978775
  0
ARC
  8
0
 10
-16.205845
 20
25.906342
 40
4.999997
 50
300.000031
 51
344.999969
  0
ARC
  8
0
 10
-16.205870
 20
-145.906342
 40
5.000000
 50
15.000033
 51
60.000050
  0
ARC
  8
0
 10
16.205830
 20
-145.906342
 40
4.999984
 50
120.000107
 51
164.999969
  0
ARC
  8
0
 10
82.500000
 20
-88.918549
 40
5.000000
 50
179.999908
 51
225.000000
  0
ARC
  8
0
 10
82.500000
 20
-31.081583
 40
4.999999
 50
134.999954
 51
179.999985
  0
ARC
  8
0
 10
66.294212
 20
-3.012188
 40
5.000000
 50
240.000000
 51
285.000031
  0
ARC
  8
0
 10
16.205856
 20
25.906342
 40
5.000000
 50
195.000031
 51
240.000046
  0
ARC
  8
0
 10
0.000000
 20
-60.000000
 40
98.000008
 50
231.649155
 51
308.350800
  0
ARC
  8
0
 10
0.000000
 20
-60.000000
 40
19.950001
 50
171.678040
 51
188.321945
  0
ARC
  8
0
 10
0.000000
 20
-60.000000
 40
19.150002
 50
172.464188
 51
187.535797
  0
ARC
  8
0
 10
0.000000
 20
-60.000000
 40
19.149998
 50
262.464233
 51
277.535858
  0
ARC
  8
0
 10
0.000000
 20
-60.000000
 40
19.150000
 50
352.464172
 51
7.535769
  0
ARC
  8
0
 10
0.000000
 20
-60.000000
 40
19.150002
 50
82.464180
 51
97.535805
  0
ARC
  8
0
 10
0.000000
 20
-60.000000
 40
76.000000
 50
238.788803
 51
303.546204
  0
ARC
  8
0
 10
0.000000
 20
-60.000000
 40
45.000004
 50
261.417358
 51
278.582581
  0
CIRCLE
  8
0
 10
-73.554535
 20
-81.499992
 40
3.800000
  0
ARC
  8
0
 10
-30.000004
 20
-111.949997
 40
8.999996
 50
235.440491
 51
4.559533
  0
ARC
  8
0
 10
-30.000004
 20
-111.949997
 40
7.799999
 50
239.713409
 51
0.286603
  0
ARC
  8
0
 10
-30.000004
 20
-111.949997
 40
10.749999
 50
243.199570
 51
8.921747
  0
ARC
  8
0
 10
-29.999996
 20
-8.049995
 40
10.750000
 50
123.199554
 51
116.800423
  0
CIRCLE
  8
0
 10
-29.999996
 20
-8.049995
 40
9.000000
  0
CIRCLE
  8
0
 10
-29.999996
 20
-8.049995
 40
7.800000
  0
CIRCLE
  8
0
 10
-73.554543
 20
-38.499992
 40
3.800000
  0
ARC
  8
0
 10
-30.000004
 20
-111.949997
 40
10.750003
 50
231.078278
 51
236.800461
  0
ARC
  8
0
 10
0.000000
 20
-60.000000
 40
45.000004
 50
328.239044
 51
112.196129
  0
ARC
  8
0
 10
0.000000
 20
-60.000000
 40
76.000000
 50
321.931030
 51
121.211197
  0
ARC
  8
0
 10
0.000000
 20
-60.000000
 40
19.950005
 50
81.678017
 51
98.321999
  0
ARC
  8
0
 10
0.000000
 20
-60.000000
 40
19.949997
 50
261.678009
 51
278.321991
  0
ARC
  8
0
 10
0.000000
 20
-60.000000
 40
19.950001
 50
351.678009
 51
8.321987
  0
ARC
  8
0
 10
0.000000
 20
-60.000000
 40
98.000000
 50
324.682343
 51
132.692520
  0
POINT
  8
0
 10
253.000000
 20
270.000000
  0
POINT
  8
0
 10
180.000000
 20
270.000000
  0
LINE
  8
0
 10
186.000000
 20
249.420761
 11
236.000000
 21
249.420761
  0
LINE
  8
0
 10
186.000000
 20
290.579224
 11
236.000000
 21
290.579224
  0
LINE
  8
0
 10
185.999985
 20
206.360382
 11
235.999985
 21
206.360382
  0
LINE
  8
0
 10
179.999985
 20
204.999985
 11
185.999985
 21
204.999985
  0
LINE
  8
0
 10
186.000015
 20
333.639587
 11
236.000015
 21
333.639587
  0
LINE
  8
0
 10
180.000015
 20
335.000000
 11
186.000015
 21
335.000000
  0
LINE
  8
0
 10
180.000000
 20
335.000000
 11
180.000000
 21
204.999985
  0
LINE
  8
0
 10
236.000000
 20
333.639587
 11
236.000000
 21
206.360367
  0
LINE
  8
0
 10
186.000000
 20
335.000000
 11
186.000000
 21
204.999985
  0
LINE
  8
0
 10
238.000000
 20
296.499969
 11
238.000000
 21
282.168732
  0
LINE
  8
0
 10
253.000000
 20
286.049988
 11
253.000000
 21
253.949982
  0
LINE
  8
0
 10
238.500000
 20
286.250000
 11
252.800003
 21
286.250000
  0
LINE
  8
0
 10
236.000000
 20
296.500000
 11
238.000000
 21
296.500000
  0
LINE
  8
0
 10
236.000000
 20
243.500046
 11
238.000000
 21
243.500046
  0
LINE
  8
0
 10
238.500000
 20
253.750000
 11
252.800003
 21
253.750000
  0
LINE
  8
0
 10
252.799988
 20
286.249969
 11
253.000000
 21
286.049957
  0
LINE
  8
0
 10
252.800049
 20
253.749924
 11
253.000031
 21
253.949921
  0
LINE
  8
0
 10
241.000000
 20
279.720642
 11
241.000000
 21
272.074036
  0
LINE
  8
0
 10
248.000000
 20
279.271057
 11
248.000000
 21
274.871033
  0
LINE
  8
0
 10
236.000000
 20
257.187042
 11
240.550003
 21
257.187042
  0
LINE
  8
0
 10
236.000000
 20
260.580627
 11
240.550003
 21
260.580627
  0
LINE
  8
0
 10
236.000000
 20
266.322510
 11
240.550003
 21
266.322510
  0
LINE
  8
0
 10
236.000000
 20
268.670807
 11
240.550003
 21
268.670807
  0
LINE
  8
0
 10
236.000000
 20
271.973358
 11
240.550003
 21
271.973358
  0
LINE
  8
0
 10
236.000000
 20
272.174866
 11
240.550003
 21
272.174866
  0
LINE
  8
0
 10
236.000000
 20
282.168762
 11
240.550003
 21
282.168762
  0
LINE
  8
0
 10
241.000000
 20
274.571045
 11
247.700012
 21
274.571045
  0
LINE
  8
0
 10
241.000000
 20
279.571045
 11
247.699997
 21
279.571045
  0
LINE
  8
0
 10
241.000000
 20
260.428925
 11
247.699997
 21
260.428925
  0
LINE
  8
0
 10
241.000000
 20
265.428925
 11
247.699997
 21
265.428925
  0
LINE
  8
0
 10
248.000000
 20
265.128906
 11
248.000000
 21
260.728912
  0
LINE
  8
0
 10
247.699982
 20
265.428894
 11
248.000000
 21
265.128906
  0
LINE
  8
0
 10
247.699982
 20
260.428925
 11
247.999969
 21
260.728912
  0
LINE
  8
0
 10
248.000031
 20
274.871033
 11
247.700043
 21
274.571014
  0
LINE
  8
0
 10
247.699982
 20
279.571045
 11
247.999985
 21
279.271027
  0
LINE
  8
0
 10
241.000000
 20
267.496643
 11
241.000000
 21
258.883820
  0
LINE
  8
0
 10
238.000000
 20
257.187042
 11
238.000000
 21
243.499969
  0
LINE
  8
0
 10
238.000000
 20
271.973358
 11
238.000000
 21
268.670776
  0
LINE
  8
0
 10
247.949982
 20
265.178925
 11
241.000000
 21
265.178925
  0
LINE
  8
0
 10
247.949997
 20
260.678925
 11
241.000000
 21
260.678925
  0
LINE
  8
0
 10
247.950012
 20
274.821045
 11
241.000000
 21
274.821045
  0
LINE
  8
0
 10
247.949966
 20
279.321045
 11
241.000000
 21
279.321045
  0
LINE
  8
0
 10
247.700012
 20
260.428925
 11
247.700012
 21
265.428894
  0
LINE
  8
0
 10
247.699921
 20
274.571045
 11
247.699921
 21
279.571045
  0
LINE
  8
0
 10
238.400009
 20
287.899963
 11
238.400009
 21
295.099976
  0
LINE
  8
0
 10
240.449997
 20
291.450684
 11
240.449997
 21
291.549286
  0
LINE
  8
0
 10
238.400009
 20
295.099976
 11
238.000000
 21
295.099976
  0
LINE
  8
0
 10
238.400009
 20
287.899963
 11
238.000000
 21
287.899963
  0
LINE
  8
0
 10
238.399994
 20
244.899979
 11
238.399994
 21
252.099976
  0
LINE
  8
0
 10
240.449997
 20
248.450684
 11
240.449997
 21
248.549271
  0
LINE
  8
0
 10
238.399994
 20
252.099976
 11
238.000000
 21
252.099976
  0
LINE
  8
0
 10
238.399994
 20
244.899979
 11
238.000000
 21
244.899979
  0
LINE
  8
0
 10
237.958054
 20
298.355316
 11
236.000000
 21
298.355316
  0
LINE
  8
0
 10
237.958054
 20
312.355316
 11
236.000000
 21
312.355316
  0
LINE
  8
0
 10
237.958038
 20
227.644638
 11
236.000000
 21
227.644638
  0
LINE
  8
0
 10
237.958038
 20
241.644638
 11
236.000000
 21
241.644638
  0
LINE
  8
0
 10
158.500000
 20
346.000000
 11
158.500000
 21
194.000000
  0
LINE
  8
0
 10
165.500000
 20
335.000000
 11
165.500000
 21
333.961487
  0
LINE
  8
0
 10
165.500000
 20
258.000000
 11
180.000000
 21
258.000000
  0
LINE
  8
0
 10
165.500000
 20
282.000000
 11
180.000000
 21
282.000000
  0
LINE
  8
0
 10
162.159225
 20
206.038498
 11
177.000000
 21
206.038498
  0
LINE
  8
0
 10
162.159119
 20
333.961487
 11
177.000000
 21
333.961487
  0
LINE
  8
0
 10
158.499969
 20
193.999954
 11
165.499969
 21
204.999969
  0
LINE
  8
0
 10
165.499969
 20
335.000031
 11
158.499969
 21
346.000061
  0
LINE
  8
0
 10
165.500000
 20
206.038498
 11
165.500000
 21
205.000000
  0
LINE
  8
0
 10
165.500000
 20
258.000000
 11
165.500000
 21
220.222549
  0
LINE
  8
0
 10
165.500000
 20
319.777466
 11
165.500000
 21
282.000000
  0
LINE
  8
0
 10
180.000000
 20
249.399994
 11
186.000000
 21
249.399994
  0
LINE
  8
0
 10
180.000000
 20
290.600006
 11
186.000000
 21
290.600006
  0
LINE
  8
0
 10
174.000000
 20
222.649994
 11
179.399994
 21
222.649994
  0
LINE
  8
0
 10
174.000000
 20
212.649994
 11
179.399994
 21
212.649994
  0
LINE
  8
0
 10
174.000000
 20
250.949997
 11
179.399994
 21
250.949997
  0
LINE
  8
0
 10
174.000000
 20
240.949997
 11
179.399994
 21
240.949997
  0
LINE
  8
0
 10
174.000000
 20
299.049988
 11
179.399994
 21
299.049988
  0
LINE
  8
0
 10
174.000000
 20
289.049988
 11
179.399994
 21
289.049988
  0
LINE
  8
0
 10
174.000000
 20
327.350006
 11
179.399994
 21
327.350006
  0
LINE
  8
0
 10
174.000000
 20
317.350006
 11
179.399994
 21
317.350006
  0
LINE
  8
0
 10
179.399994
 20
327.600006
 11
180.000000
 21
327.600006
  0
LINE
  8
0
 10
179.399994
 20
317.100006
 11
180.000000
 21
317.100006
  0
LINE
  8
0
 10
179.399994
 20
299.299988
 11
180.000000
 21
299.299988
  0
LINE
  8
0
 10
179.399994
 20
288.799988
 11
180.000000
 21
288.799988
  0
LINE
  8
0
 10
179.399994
 20
240.699997
 11
180.000000
 21
240.699997
  0
LINE
  8
0
 10
179.399994
 20
251.199997
 11
180.000000
 21
251.199997
  0
LINE
  8
0
 10
179.399994
 20
222.899994
 11
180.000000
 21
222.899994
  0
LINE
  8
0
 10
179.399994
 20
212.399994
 11
180.000000
 21
212.399994
  0
LINE
  8
0
 10
179.399994
 20
327.600006
 11
179.399994
 21
317.100006
  0
LINE
  8
0
 10
173.399994
 20
326.750000
 11
173.399994
 21
317.950012
  0
LINE
  8
0
 10
174.000000
 20
327.350006
 11
174.000000
 21
317.350006
  0
LINE
  8
0
 10
173.399994
 20
250.350006
 11
173.399994
 21
241.550003
  0
LINE
  8
0
 10
174.000000
 20
250.949997
 11
174.000000
 21
240.949997
  0
LINE
  8
0
 10
179.399994
 20
251.199997
 11
179.399994
 21
240.699997
  0
LINE
  8
0
 10
173.399994
 20
222.050003
 11
173.399994
 21
213.250000
  0
LINE
  8
0
 10
179.399994
 20
222.899994
 11
179.399994
 21
212.399994
  0
LINE
  8
0
 10
174.000000
 20
222.649994
 11
174.000000
 21
212.649994
  0
LINE
  8
0
 10
173.399994
 20
298.450012
 11
173.399994
 21
289.649994
  0
LINE
  8
0
 10
174.000000
 20
299.049988
 11
174.000000
 21
289.049988
  0
LINE
  8
0
 10
179.399994
 20
299.299988
 11
179.399994
 21
288.799988
  0
LINE
  8
0
 10
174.000000
 20
212.649994
 11
173.399994
 21
213.250000
  0
LINE
  8
0
 10
173.400009
 20
222.049988
 11
174.000000
 21
222.649979
  0
LINE
  8
0
 10
174.000000
 20
240.949997
 11
173.399994
 21
241.550003
  0
LINE
  8
0
 10
173.400009
 20
250.349991
 11
174.000000
 21
250.949982
  0
LINE
  8
0
 10
174.000000
 20
289.050018
 11
173.399994
 21
289.650024
  0
LINE
  8
0
 10
173.399994
 20
298.449982
 11
174.000000
 21
299.049988
  0
LINE
  8
0
 10
174.000000
 20
317.350006
 11
173.400009
 21
317.950012
  0
LINE
  8
0
 10
173.399994
 20
326.750000
 11
174.000000
 21
327.349976
  0
LINE
  8
0
 10
205.000000
 20
190.035919
 11
217.000000
 21
190.035919
  0
LINE
  8
0
 10
203.000000
 20
206.360382
 11
203.000000
 21
192.035919
  0
LINE
  8
0
 10
219.000000
 20
206.360382
 11
219.000000
 21
192.035919
  0
ARC
  8
0
 10
237.575989
 20
258.883820
 40
3.424006
 50
330.293762
 51
29.706688
  0
ARC
  8
0
 10
231.616821
 20
263.451569
 40
9.383179
 50
342.183655
 51
17.816339
  0
ARC
  8
0
 10
239.243195
 20
267.496643
 40
1.756818
 50
318.060394
 51
41.939201
  0
ARC
  8
0
 10
233.556488
 20
274.723694
 40
7.443516
 50
339.975220
 51
20.024790
  0
ARC
  8
0
 10
234.115829
 20
279.720642
 40
6.884165
 50
339.169067
 51
20.831175
  0
CIRCLE
  8
0
 10
193.000000
 20
270.000000
 40
2.700000
  0
ARC
  8
0
 10
236.350006
 20
291.450684
 40
4.100016
 50
299.999939
 51
0.000000
  0
ARC
  8
0
 10
236.350006
 20
291.549286
 40
4.100006
 50
0.000000
 51
59.999863
  0
ARC
  8
0
 10
236.349991
 20
248.450684
 40
4.100002
 50
300.000031
 51
0.000000
  0
ARC
  8
0
 10
236.349991
 20
248.549271
 40
4.099991
 50
0.000000
 51
59.999969
  0
ARC
  8
0
 10
223.200012
 20
305.355316
 40
17.999996
 50
343.398468
 51
16.601540
  0
ARC
  8
0
 10
237.958054
 20
300.955322
 40
2.600006
 50
270.000000
 51
343.398437
  0
ARC
  8
0
 10
237.958054
 20
309.755310
 40
2.600005
 50
16.601559
 51
90.000000
  0
ARC
  8
0
 10
223.199982
 20
234.644638
 40
17.999996
 50
343.398468
 51
16.601540
  0
ARC
  8
0
 10
237.958038
 20
230.244629
 40
2.599991
 50
270.000000
 51
343.398773
  0
ARC
  8
0
 10
237.958038
 20
239.044647
 40
2.600000
 50
16.601236
 51
90.000000
  0
ARC
  8
0
 10
177.000000
 20
209.038498
 40
3.000000
 50
270.000000
 51
0.000000
  0
ARC
  8
0
 10
177.000000
 20
330.961487
 40
3.000000
 50
0.000000
 51
90.000000
  0
ARC
  8
0
 10
162.159119
 20
332.961700
 40
1.000000
 50
90.000000
 51
124.848206
  0
ARC
  8
0
 10
162.159225
 20
207.038223
 40
1.000005
 50
235.160034
 51
270.000000
  0
ARC
  8
0
 10
205.000000
 20
192.035919
 40
2.000000
 50
180.000000
 51
270.000000
  0
ARC
  8
0
 10
217.000000
 20
192.035919
 40
2.000000
 50
270.000000
 51
0.000000
  0
ARC
  8
0
 10
192.687286
 20
220.502502
 40
1.712695
 50
345.892700
 51
14.107307
  0
ARC
  8
0
 10
192.239441
 20
220.338303
 40
2.187629
 50
15.419332
 51
51.390682
  0
ARC
  8
0
 10
190.999985
 20
218.527344
 40
4.379158
 50
53.504395
 51
126.495445
  0
ARC
  8
0
 10
189.760529
 20
220.338318
 40
2.187611
 50
128.609253
 51
164.581055
  0
ARC
  8
0
 10
189.312683
 20
220.502502
 40
1.712695
 50
165.892685
 51
194.107315
  0
ARC
  8
0
 10
189.760529
 20
220.666702
 40
2.187629
 50
195.419327
 51
231.390686
  0
ARC
  8
0
 10
190.999985
 20
222.477661
 40
4.379158
 50
233.504395
 51
306.495453
  0
ARC
  8
0
 10
192.239441
 20
220.666687
 40
2.187611
 50
308.609253
 51
344.581055
  0
ARC
  8
0
 10
192.687317
 20
319.497498
 40
1.712695
 50
345.892700
 51
14.107307
  0
ARC
  8
0
 10
192.239456
 20
319.333313
 40
2.187639
 50
15.418840
 51
51.390121
  0
ARC
  8
0
 10
191.000015
 20
317.522369
 40
4.379134
 50
53.504158
 51
126.495682
  0
ARC
  8
0
 10
189.760574
 20
319.333313
 40
2.187620
 50
128.609558
 51
164.581161
  0
ARC
  8
0
 10
189.312714
 20
319.497498
 40
1.712695
 50
165.892685
 51
194.107315
  0
ARC
  8
0
 10
189.760574
 20
319.661682
 40
2.187639
 50
195.418839
 51
231.390121
  0
ARC
  8
0
 10
191.000015
 20
321.472626
 40
4.379134
 50
233.504150
 51
306.495697
  0
ARC
  8
0
 10
192.239456
 20
319.661682
 40
2.187620
 50
308.609558
 51
344.581146
  0
ARC
  8
0
 10
240.550003
 20
273.646667
 40
1.673065
 50
270.000000
 51
281.890076
  0
ARC
  8
0
 10
240.861694
 20
272.204834
 40
0.198114
 50
279.594360
 51
311.577820
  0
ARC
  8
0
 10
240.974304
 20
272.074097
 40
0.025698
 50
317.213684
 51
42.786308
  0
ARC
  8
0
 10
240.861694
 20
271.943359
 40
0.198105
 50
48.422169
 51
80.405640
  0
ARC
  8
0
 10
240.550003
 20
270.501526
 40
1.673073
 50
78.109917
 51
90.000000
  0
POLYLINE
  8
0
 66
     1
  0
VERTEX
  8
0
 10
161.587723
 20
333.782379
  0
VERTEX
  8
0
 10
161.362320
 20
333.602386
  0
VERTEX
  8
0
 10
161.170807
 20
333.334198
  0
VERTEX
  8
0
 10
161.043625
 20
332.880768
  0
VERTEX
  8
0
 10
161.045456
 20
332.335480
  0
VERTEX
  8
0
 10
161.081680
 20
331.703796
  0
VERTEX
  8
0
 10
161.170807
 20
330.945923
  0
VERTEX
  8
0
 10
161.321213
 20
330.110199
  0
VERTEX
  8
0
 10
161.522339
 20
329.276978
  0
VERTEX
  8
0
 10
161.764542
 20
328.427368
  0
VERTEX
  8
0
 10
162.038651
 20
327.550842
  0
VERTEX
  8
0
 10
162.333755
 20
326.684326
  0
VERTEX
  8
0
 10
162.668182
 20
325.778534
  0
VERTEX
  8
0
 10
162.965546
 20
325.023712
  0
VERTEX
  8
0
 10
163.277267
 20
324.276031
  0
VERTEX
  8
0
 10
163.604874
 20
323.530579
  0
VERTEX
  8
0
 10
163.949829
 20
322.782318
  0
VERTEX
  8
0
 10
164.317139
 20
322.020508
  0
VERTEX
  8
0
 10
164.697861
 20
321.265594
  0
VERTEX
  8
0
 10
165.092102
 20
320.517822
  0
VERTEX
  8
0
 10
165.500000
 20
319.777466
  0
SEQEND
  0
POLYLINE
  8
0
 66
     1
  0
VERTEX
  8
0
 10
165.500000
 20
220.222549
  0
VERTEX
  8
0
 10
165.090866
 20
219.479614
  0
VERTEX
  8
0
 10
164.694595
 20
218.727493
  0
VERTEX
  8
0
 10
164.313477
 20
217.971695
  0
VERTEX
  8
0
 10
163.949829
 20
217.217682
  0
VERTEX
  8
0
 10
163.604691
 20
216.467163
  0
VERTEX
  8
0
 10
163.270279
 20
215.704056
  0
VERTEX
  8
0
 10
162.955215
 20
214.948700
  0
VERTEX
  8
0
 10
162.668182
 20
214.221466
  0
VERTEX
  8
0
 10
162.343643
 20
213.339935
  0
VERTEX
  8
0
 10
162.040207
 20
212.450012
  0
VERTEX
  8
0
 10
161.764542
 20
211.572647
  0
VERTEX
  8
0
 10
161.520615
 20
210.694916
  0
VERTEX
  8
0
 10
161.311005
 20
209.810989
  0
VERTEX
  8
0
 10
161.170807
 20
209.054077
  0
VERTEX
  8
0
 10
161.091003
 20
208.343964
  0
VERTEX
  8
0
 10
161.045456
 20
207.664536
  0
VERTEX
  8
0
 10
161.056015
 20
207.122910
  0
VERTEX
  8
0
 10
161.170807
 20
206.665802
  0
VERTEX
  8
0
 10
161.352203
 20
206.418335
  0
VERTEX
  8
0
 10
161.587158
 20
206.218018
  0
SEQEND
  0
POLYLINE
  8
0
 66
     1
  0
VERTEX
  8
0
 10
165.500000
 20
282.000000
  0
VERTEX
  8
0
 10
165.067688
 20
281.388794
  0
VERTEX
  8
0
 10
164.625702
 20
280.784485
  0
VERTEX
  8
0
 10
164.227264
 20
280.269165
  0
VERTEX
  8
0
 10
163.830795
 20
279.789124
  0
VERTEX
  8
0
 10
163.433716
 20
279.275116
  0
VERTEX
  8
0
 10
163.038696
 20
278.656738
  0
VERTEX
  8
0
 10
162.685364
 20
277.978546
  0
VERTEX
  8
0
 10
162.343857
 20
277.218353
  0
VERTEX
  8
0
 10
162.029907
 20
276.379425
  0
VERTEX
  8
0
 10
161.806290
 20
275.671112
  0
VERTEX
  8
0
 10
161.615494
 20
274.952789
  0
VERTEX
  8
0
 10
161.453369
 20
274.218475
  0
VERTEX
  8
0
 10
161.315186
 20
273.444855
  0
VERTEX
  8
0
 10
161.205872
 20
272.666779
  0
VERTEX
  8
0
 10
161.128174
 20
271.927856
  0
VERTEX
  8
0
 10
161.066025
 20
270.964813
  0
VERTEX
  8
0
 10
161.045456
 20
270.000000
  0
VERTEX
  8
0
 10
161.063950
 20
269.059082
  0
VERTEX
  8
0
 10
161.128174
 20
268.072144
  0
VERTEX
  8
0
 10
161.208878
 20
267.302094
  0
VERTEX
  8
0
 10
161.317520
 20
266.535400
  0
VERTEX
  8
0
 10
161.453369
 20
265.781525
  0
VERTEX
  8
0
 10
161.620468
 20
265.035004
  0
VERTEX
  8
0
 10
161.817917
 20
264.296082
  0
VERTEX
  8
0
 10
162.029907
 20
263.620575
  0
VERTEX
  8
0
 10
162.339859
 20
262.798645
  0
VERTEX
  8
0
 10
162.685364
 20
262.021454
  0
VERTEX
  8
0
 10
163.040573
 20
261.344849
  0
VERTEX
  8
0
 10
163.433716
 20
260.724884
  0
VERTEX
  8
0
 10
163.788132
 20
260.264923
  0
VERTEX
  8
0
 10
164.227264
 20
259.730835
  0
VERTEX
  8
0
 10
164.666580
 20
259.165009
  0
VERTEX
  8
0
 10
165.088120
 20
258.585968
  0
VERTEX
  8
0
 10
165.500000
 20
258.000000
  0
SEQEND
  0
POINT
  8
0
 10
224.500000
 20
40.000000
  0
POINT
  8
0
 10
180.000000
 20
40.000000
  0
LINE
  8
0
 10
219.000000
 20
117.964073
 11
219.000000
 21
0.402027
  0
LINE
  8
0
 10
203.000000
 20
117.964073
 11
203.000000
 21
49.315426
  0
LINE
  8
0
 10
189.500000
 20
61.000000
 11
189.500000
 21
0.402023
  0
LINE
  8
0
 10
205.000000
 20
119.964073
 11
217.000000
 21
119.964073
  0
LINE
  8
0
 10
205.000000
 20
96.654617
 11
217.000000
 21
96.654617
  0
LINE
  8
0
 10
203.000000
 20
85.084435
 11
219.000000
 21
85.084435
  0
LINE
  8
0
 10
189.500000
 20
36.464466
 11
219.000000
 21
36.464466
  0
LINE
  8
0
 10
189.500000
 20
0.402023
 11
219.000015
 21
0.402023
  0
LINE
  8
0
 10
205.000000
 20
70.405594
 11
217.000000
 21
70.405594
  0
LINE
  8
0
 10
189.500000
 20
43.528419
 11
197.984955
 21
43.528419
  0
LINE
  8
0
 10
185.999985
 20
175.047699
 11
235.999985
 21
175.047699
  0
LINE
  8
0
 10
186.000000
 20
93.047691
 11
203.000000
 21
93.047691
  0
LINE
  8
0
 10
236.000000
 20
165.545929
 11
240.549988
 21
165.545929
  0
LINE
  8
0
 10
236.000000
 20
160.875076
 11
240.549988
 21
160.875076
  0
LINE
  8
0
 10
236.000000
 20
155.600708
 11
240.549988
 21
155.600708
  0
LINE
  8
0
 10
238.000000
 20
97.352531
 11
252.699982
 21
97.352531
  0
LINE
  8
0
 10
241.078629
 20
129.852539
 11
252.699997
 21
129.852539
  0
LINE
  8
0
 10
236.000000
 20
93.602531
 11
238.000000
 21
93.602531
  0
LINE
  8
0
 10
236.000000
 20
154.997223
 11
240.549988
 21
154.997223
  0
LINE
  8
0
 10
180.000000
 20
57.000000
 11
186.000000
 21
57.000000
  0
LINE
  8
0
 10
180.000000
 20
130.600006
 11
186.000000
 21
130.600006
  0
LINE
  8
0
 10
180.000000
 20
175.000000
 11
180.000000
 21
-29.000000
  0
LINE
  8
0
 10
186.000000
 20
175.047699
 11
186.000000
 21
57.000000
  0
LINE
  8
0
 10
236.000000
 20
175.047699
 11
236.000000
 21
93.047699
  0
LINE
  8
0
 10
238.000000
 20
124.939308
 11
238.000000
 21
93.602539
  0
LINE
  8
0
 10
253.000000
 20
129.552551
 11
253.000000
 21
97.652542
  0
LINE
  8
0
 10
241.000000
 20
163.674805
 11
241.000000
 21
155.298981
  0
LINE
  8
0
 10
248.000000
 20
162.471588
 11
248.000000
 21
158.071594
  0
LINE
  8
0
 10
241.000000
 20
162.771576
 11
247.699982
 21
162.771576
  0
LINE
  8
0
 10
241.000000
 20
157.771576
 11
247.699982
 21
157.771576
  0
LINE
  8
0
 10
248.000031
 20
162.471619
 11
247.700043
 21
162.771606
  0
LINE
  8
0
 10
248.000000
 20
158.071609
 11
247.699997
 21
157.771622
  0
LINE
  8
0
 10
252.700012
 20
97.352524
 11
253.000015
 21
97.652527
  0
LINE
  8
0
 10
253.000046
 20
129.552582
 11
252.700043
 21
129.852570
  0
LINE
  8
0
 10
241.000000
 20
158.021576
 11
247.949951
 21
158.021576
  0
LINE
  8
0
 10
241.000000
 20
162.521576
 11
247.950012
 21
162.521576
  0
LINE
  8
0
 10
247.699905
 20
157.771576
 11
247.699905
 21
162.771576
  0
LINE
  8
0
 10
179.999985
 20
175.000000
 11
185.999985
 21
175.000000
  0
LINE
  8
0
 10
219.000000
 20
116.079849
 11
219.000000
 21
116.031189
  0
LINE
  8
0
 10
203.000000
 20
116.079849
 11
203.000000
 21
116.031181
  0
LINE
  8
0
 10
201.518524
 20
106.827408
 11
201.518524
 21
106.544571
  0
LINE
  8
0
 10
194.318527
 20
106.827408
 11
194.318527
 21
106.544571
  0
LINE
  8
0
 10
220.481476
 20
125.327408
 11
220.481476
 21
125.044571
  0
LINE
  8
0
 10
227.681473
 20
125.327408
 11
227.681473
 21
125.044571
  0
LINE
  8
0
 10
193.001404
 20
118.002838
 11
192.918747
 21
108.563492
  0
LINE
  8
0
 10
229.081299
 20
127.126961
 11
228.998642
 21
117.687523
  0
LINE
  8
0
 10
210.774231
 20
130.572021
 11
224.050140
 21
130.630890
  0
LINE
  8
0
 10
210.774231
 20
128.804352
 11
224.050110
 21
128.863220
  0
LINE
  8
0
 10
193.001389
 20
116.235107
 11
192.918732
 21
106.795753
  0
LINE
  8
0
 10
197.949875
 20
103.291656
 11
203.000000
 21
103.314056
  0
LINE
  8
0
 10
229.081375
 20
125.359207
 11
228.998718
 21
115.919769
  0
LINE
  8
0
 10
238.399994
 20
110.002541
 11
238.399994
 21
117.202538
  0
LINE
  8
0
 10
240.449997
 20
113.553246
 11
240.449997
 21
113.651833
  0
LINE
  8
0
 10
238.399994
 20
117.202538
 11
238.000000
 21
117.202538
  0
LINE
  8
0
 10
238.399994
 20
110.002541
 11
238.000000
 21
110.002541
  0
LINE
  8
0
 10
186.000000
 20
131.939301
 11
236.000000
 21
131.939301
  0
LINE
  8
0
 10
237.958038
 20
124.939308
 11
236.000000
 21
124.939308
  0
LINE
  8
0
 10
237.958038
 20
138.939301
 11
236.000000
 21
138.939301
  0
LINE
  8
0
 10
201.000000
 20
61.326412
 11
201.000000
 21
78.673584
  0
LINE
  8
0
 10
200.300003
 20
61.000000
 11
200.300003
 21
79.000000
  0
LINE
  8
0
 10
200.299988
 20
61.000000
 11
189.000000
 21
61.000000
  0
LINE
  8
0
 10
200.300003
 20
79.000000
 11
189.000000
 21
79.000000
  0
LINE
  8
0
 10
200.999969
 20
61.326401
 11
200.299988
 21
60.999992
  0
LINE
  8
0
 10
201.000000
 20
78.673615
 11
200.299988
 21
79.000031
  0
LINE
  8
0
 10
184.500000
 20
57.000000
 11
184.500000
 21
5.500004
  0
LINE
  8
0
 10
224.500000
 20
59.150002
 11
224.500000
 21
20.850000
  0
LINE
  8
0
 10
158.500000
 20
116.000000
 11
158.500000
 21
-36.000000
  0
LINE
  8
0
 10
161.045456
 20
-32.000000
 11
177.000000
 21
-32.000000
  0
LINE
  8
0
 10
165.500000
 20
-2.000000
 11
180.000000
 21
-2.000000
  0
LINE
  8
0
 10
180.399994
 20
5.000000
 11
184.000000
 21
5.000000
  0
LINE
  8
0
 10
184.500000
 20
20.000000
 11
188.449997
 21
20.000000
  0
LINE
  8
0
 10
165.500000
 20
82.000000
 11
180.000000
 21
82.000000
  0
LINE
  8
0
 10
161.045456
 20
112.000000
 11
173.800003
 21
112.000000
  0
LINE
  8
0
 10
184.000046
 20
4.999969
 11
184.500031
 21
5.499969
  0
LINE
  8
0
 10
188.500000
 20
59.250000
 11
188.500000
 21
20.050003
  0
LINE
  8
0
 10
188.500000
 20
20.049999
 11
189.500000
 21
20.049999
  0
LINE
  8
0
 10
189.000000
 20
59.950001
 11
189.500000
 21
59.950001
  0
LINE
  8
0
 10
223.700104
 20
20.049885
 11
224.500122
 21
20.849890
  0
LINE
  8
0
 10
223.700043
 20
59.950035
 11
224.500046
 21
59.150043
  0
LINE
  8
0
 10
223.700012
 20
59.950001
 11
223.700012
 21
20.049995
  0
LINE
  8
0
 10
188.450012
 20
19.999994
 11
188.500015
 21
20.049997
  0
LINE
  8
0
 10
158.500000
 20
-36.000008
 11
161.045441
 21
-32.000015
  0
LINE
  8
0
 10
158.500000
 20
116.000008
 11
161.045441
 21
112.000015
  0
LINE
  8
0
 10
219.000000
 20
59.739929
 11
223.700012
 21
59.739929
  0
LINE
  8
0
 10
219.000000
 20
42.887482
 11
223.700012
 21
42.887482
  0
LINE
  8
0
 10
219.000000
 20
37.112518
 11
223.700012
 21
37.112518
  0
LINE
  8
0
 10
219.000000
 20
20.260071
 11
223.700012
 21
20.260071
  0
LINE
  8
0
 10
223.699875
 20
20.260235
 11
224.499863
 21
21.015556
  0
LINE
  8
0
 10
223.700012
 20
37.112534
 11
224.499985
 21
37.488567
  0
LINE
  8
0
 10
219.000000
 20
45.203545
 11
223.700012
 21
42.887566
  0
LINE
  8
0
 10
223.700043
 20
59.739922
 11
219.000000
 21
57.423927
  0
LINE
  8
0
 10
219.000000
 20
22.576080
 11
223.700043
 21
20.260082
  0
LINE
  8
0
 10
223.700043
 20
37.112537
 11
219.000000
 21
34.796543
  0
LINE
  8
0
 10
223.699951
 20
42.887367
 11
224.499939
 21
42.511330
  0
LINE
  8
0
 10
224.500015
 20
58.984581
 11
223.700027
 21
59.739891
  0
LINE
  8
0
 10
165.500000
 20
104.008331
 11
165.500000
 21
82.000000
  0
LINE
  8
0
 10
165.500000
 20
62.208668
 11
165.500000
 21
17.791332
  0
LINE
  8
0
 10
165.500000
 20
-2.000000
 11
165.500000
 21
-24.008331
  0
LINE
  8
0
 10
200.299988
 20
63.000000
 11
192.979706
 21
63.000000
  0
LINE
  8
0
 10
200.299988
 20
65.000000
 11
194.134399
 21
65.000000
  0
LINE
  8
0
 10
200.299988
 20
67.000000
 11
195.289108
 21
67.000000
  0
LINE
  8
0
 10
200.299988
 20
69.000000
 11
196.443802
 21
69.000000
  0
LINE
  8
0
 10
200.299988
 20
71.000000
 11
197.598511
 21
71.000000
  0
LINE
  8
0
 10
200.299988
 20
73.000000
 11
198.753204
 21
73.000000
  0
LINE
  8
0
 10
200.299988
 20
75.000000
 11
199.907913
 21
75.000000
  0
LINE
  8
0
 10
179.399994
 20
168.350006
 11
179.399994
 21
157.850006
  0
LINE
  8
0
 10
173.399994
 20
167.500000
 11
173.399994
 21
158.700012
  0
LINE
  8
0
 10
174.000000
 20
168.100006
 11
174.000000
 21
158.100006
  0
LINE
  8
0
 10
174.000000
 20
112.200005
 11
179.399994
 21
112.200005
  0
LINE
  8
0
 10
174.000000
 20
102.200005
 11
179.399994
 21
102.200005
  0
LINE
  8
0
 10
174.000000
 20
139.800003
 11
179.399994
 21
139.800003
  0
LINE
  8
0
 10
174.000000
 20
129.800003
 11
179.399994
 21
129.800003
  0
LINE
  8
0
 10
174.000000
 20
168.100006
 11
179.399994
 21
168.100006
  0
LINE
  8
0
 10
174.000000
 20
158.100006
 11
179.399994
 21
158.100006
  0
LINE
  8
0
 10
179.399994
 20
157.850006
 11
180.000000
 21
157.850006
  0
LINE
  8
0
 10
179.399994
 20
168.350006
 11
180.000000
 21
168.350006
  0
LINE
  8
0
 10
179.399994
 20
140.050003
 11
180.000000
 21
140.050003
  0
LINE
  8
0
 10
179.399994
 20
129.550003
 11
180.000000
 21
129.550003
  0
LINE
  8
0
 10
179.399994
 20
101.950005
 11
180.000000
 21
101.950005
  0
LINE
  8
0
 10
179.399994
 20
112.450005
 11
180.000000
 21
112.450005
  0
LINE
  8
0
 10
174.000000
 20
112.200005
 11
174.000000
 21
102.200005
  0
LINE
  8
0
 10
173.399994
 20
111.600006
 11
173.399994
 21
102.800003
  0
LINE
  8
0
 10
179.399994
 20
112.450005
 11
179.399994
 21
101.950005
  0
LINE
  8
0
 10
173.399994
 20
139.200012
 11
173.399994
 21
130.399994
  0
LINE
  8
0
 10
174.000000
 20
139.800003
 11
174.000000
 21
129.800003
  0
LINE
  8
0
 10
179.399994
 20
140.050003
 11
179.399994
 21
129.550003
  0
LINE
  8
0
 10
174.000000
 20
102.200012
 11
173.399994
 21
102.800011
  0
LINE
  8
0
 10
173.399994
 20
111.600021
 11
173.999985
 21
112.200020
  0
LINE
  8
0
 10
174.000015
 20
129.800018
 11
173.400024
 21
130.400024
  0
LINE
  8
0
 10
173.399994
 20
139.200012
 11
174.000000
 21
139.800018
  0
LINE
  8
0
 10
174.000000
 20
158.100037
 11
173.400009
 21
158.700027
  0
LINE
  8
0
 10
173.399994
 20
167.500015
 11
174.000000
 21
168.100006
  0
LINE
  8
0
 10
189.000000
 20
80.750000
 11
189.000000
 21
59.250000
  0
LINE
  8
0
 10
189.000000
 20
80.750000
 11
186.000000
 21
80.750000
  0
LINE
  8
0
 10
189.000000
 20
59.250000
 11
186.000000
 21
59.250000
  0
LINE
  8
0
 10
186.000000
 20
68.267952
 11
188.999985
 21
70.000000
  0
LINE
  8
0
 10
186.000015
 20
69.653595
 11
189.000015
 21
71.385651
  0
LINE
  8
0
 10
219.000000
 20
93.047691
 11
236.000000
 21
93.047691
  0
ARC
  8
0
 10
217.000000
 20
94.654617
 40
2.000000
 50
0.000000
 51
90.000000
  0
ARC
  8
0
 10
205.000000
 20
94.654617
 40
2.000000
 50
90.000000
 51
180.000000
  0
ARC
  8
0
 10
217.000000
 20
117.964073
 40
2.000000
 50
0.000000
 51
90.000000
  0
ARC
  8
0
 10
205.000000
 20
117.964073
 40
2.000000
 50
90.000000
 51
180.000000
  0
ARC
  8
0
 10
234.954178
 20
163.210510
 40
6.063608
 50
337.346588
 51
22.653360
  0
ARC
  8
0
 10
240.673828
 20
155.298981
 40
0.326181
 50
247.686935
 51
112.315109
  0
ARC
  8
0
 10
233.047485
 20
158.237915
 40
7.952518
 50
340.633026
 51
19.366858
  0
CIRCLE
  8
0
 10
211.000000
 20
115.016754
 40
0.010000
  0
CIRCLE
  8
0
 10
197.918518
 20
105.095207
 40
0.010000
  0
CIRCLE
  8
0
 10
224.081467
 20
123.595215
 40
0.010000
  0
ARC
  8
0
 10
236.349991
 20
113.553246
 40
4.100002
 50
300.000031
 51
0.000000
  0
ARC
  8
0
 10
236.349991
 20
113.651833
 40
4.099991
 50
0.000000
 51
59.999969
  0
ARC
  8
0
 10
223.199997
 20
131.939301
 40
17.999994
 50
343.398499
 51
16.601540
  0
ARC
  8
0
 10
237.958038
 20
127.539307
 40
2.599998
 50
270.000000
 51
343.398437
  0
ARC
  8
0
 10
237.958038
 20
136.339310
 40
2.600005
 50
16.601559
 51
90.000000
  0
ARC
  8
0
 10
177.000000
 20
-29.000000
 40
3.000000
 50
270.000000
 51
0.000000
  0
ARC
  8
0
 10
180.399994
 20
4.599998
 40
0.400002
 50
90.000000
 51
180.000000
  0
ARC
  8
0
 10
205.822495
 20
1.350542
 40
3.217333
 50
342.847351
 51
344.581970
  0
ARC
  8
0
 10
206.481003
 20
1.109127
 40
2.519001
 50
345.893524
 51
14.106313
  0
ARC
  8
0
 10
205.822479
 20
0.867714
 40
3.217345
 50
15.417776
 51
51.388237
  0
ARC
  8
0
 10
204.000000
 20
-1.794934
 40
6.439600
 50
53.502098
 51
126.497726
  0
ARC
  8
0
 10
202.177505
 20
0.867720
 40
3.217330
 50
128.611267
 51
164.581985
  0
ARC
  8
0
 10
201.518997
 20
1.109135
 40
2.519001
 50
165.893509
 51
194.106308
  0
ARC
  8
0
 10
202.177521
 20
1.350548
 40
3.217345
 50
195.417770
 51
197.152542
  0
ARC
  8
0
 10
205.457977
 20
1.302256
 40
2.573887
 50
339.566101
 51
344.582031
  0
ARC
  8
0
 10
205.984802
 20
1.109126
 40
2.015193
 50
345.893372
 51
14.106354
  0
ARC
  8
0
 10
205.457977
 20
0.915999
 40
2.573872
 50
15.417710
 51
51.388229
  0
ARC
  8
0
 10
204.000000
 20
-1.214106
 40
5.151664
 50
53.502056
 51
126.497841
  0
ARC
  8
0
 10
202.542023
 20
0.916006
 40
2.573881
 50
128.611664
 51
164.582016
  0
ARC
  8
0
 10
202.015198
 20
1.109136
 40
2.015193
 50
165.893372
 51
194.106354
  0
ARC
  8
0
 10
202.542023
 20
1.302263
 40
2.573872
 50
195.417709
 51
200.433350
  0
ARC
  8
0
 10
198.000000
 20
93.726822
 40
16.243067
 50
280.631470
 51
283.639160
  0
ARC
  8
0
 10
201.405243
 20
80.009743
 40
2.111148
 50
281.612946
 51
316.006500
  0
ARC
  8
0
 10
202.635651
 20
78.766060
 40
0.364352
 50
322.327667
 51
0.000000
  0
ARC
  8
0
 10
198.001419
 20
47.858250
 40
4.329849
 50
269.981232
 51
281.623688
  0
ARC
  8
0
 10
197.884827
 20
48.245380
 40
4.732672
 50
282.061951
 51
314.776733
  0
ARC
  8
0
 10
196.601959
 20
49.315834
 40
6.398037
 50
316.179993
 51
0.051071
  0
ARC
  8
0
 10
192.687302
 20
146.129456
 40
1.712695
 50
345.892700
 51
14.107307
  0
ARC
  8
0
 10
192.239456
 20
145.965256
 40
2.187629
 50
15.419332
 51
51.390682
  0
ARC
  8
0
 10
191.000000
 20
144.154297
 40
4.379158
 50
53.504395
 51
126.495605
  0
ARC
  8
0
 10
189.760544
 20
145.965256
 40
2.187632
 50
128.609314
 51
164.580673
  0
ARC
  8
0
 10
189.312698
 20
146.129456
 40
1.712695
 50
165.892685
 51
194.107315
  0
ARC
  8
0
 10
189.760544
 20
146.293655
 40
2.187629
 50
195.419327
 51
231.390686
  0
ARC
  8
0
 10
191.000000
 20
148.104614
 40
4.379158
 50
233.504395
 51
306.495605
  0
ARC
  8
0
 10
192.239456
 20
146.293655
 40
2.187632
 50
308.609314
 51
344.580658
  0
ARC
  8
0
 10
211.000000
 20
109.626587
 40
11.435836
 50
64.149025
 51
115.855400
  0
ARC
  8
0
 10
225.899338
 20
125.327408
 40
1.782120
 50
0.000000
 51
14.231493
  0
ARC
  8
0
 10
225.416824
 20
125.148941
 40
2.294349
 50
15.589341
 51
51.687019
  0
ARC
  8
0
 10
224.081467
 20
123.180527
 40
4.669886
 50
53.804703
 51
126.195297
  0
ARC
  8
0
 10
222.746109
 20
125.148941
 40
2.294343
 50
128.312973
 51
164.410660
  0
ARC
  8
0
 10
222.263596
 20
125.327408
 40
1.782125
 50
165.768509
 51
180.000000
  0
ARC
  8
0
 10
224.081467
 20
127.191452
 40
4.669888
 50
300.677673
 51
306.195282
  0
ARC
  8
0
 10
225.416824
 20
125.223038
 40
2.294343
 50
308.312988
 51
344.410645
  0
ARC
  8
0
 10
225.899338
 20
125.044571
 40
1.782125
 50
345.768494
 51
14.231493
  0
ARC
  8
0
 10
225.416824
 20
124.866104
 40
2.294349
 50
15.589341
 51
51.687019
  0
ARC
  8
0
 10
224.081467
 20
122.897690
 40
4.669886
 50
53.804703
 51
126.195297
  0
ARC
  8
0
 10
222.746109
 20
124.866104
 40
2.294343
 50
128.312973
 51
164.410660
  0
ARC
  8
0
 10
222.263596
 20
125.044571
 40
1.782125
 50
165.768509
 51
194.231491
  0
ARC
  8
0
 10
222.746109
 20
125.223038
 40
2.294349
 50
195.589340
 51
231.687027
  0
ARC
  8
0
 10
224.081467
 20
127.191452
 40
4.669886
 50
233.804703
 51
239.319717
  0
ARC
  8
0
 10
199.736389
 20
106.827408
 40
1.782120
 50
0.000000
 51
14.231493
  0
ARC
  8
0
 10
199.253876
 20
106.648941
 40
2.294349
 50
15.589341
 51
51.686901
  0
ARC
  8
0
 10
197.918518
 20
104.680519
 40
4.669886
 50
53.804703
 51
126.195297
  0
ARC
  8
0
 10
196.583160
 20
106.648941
 40
2.294338
 50
128.313095
 51
164.410660
  0
ARC
  8
0
 10
196.100647
 20
106.827408
 40
1.782125
 50
165.768509
 51
180.000000
  0
ARC
  8
0
 10
197.918518
 20
108.691460
 40
4.669881
 50
300.677734
 51
306.195282
  0
ARC
  8
0
 10
199.253876
 20
106.723038
 40
2.294338
 50
308.313110
 51
344.410645
  0
ARC
  8
0
 10
199.736389
 20
106.544571
 40
1.782125
 50
345.768494
 51
14.231493
  0
ARC
  8
0
 10
199.253876
 20
106.366104
 40
2.294349
 50
15.589341
 51
51.686901
  0
ARC
  8
0
 10
197.918518
 20
104.397682
 40
4.669886
 50
53.804703
 51
126.195297
  0
ARC
  8
0
 10
196.583160
 20
106.366104
 40
2.294338
 50
128.313095
 51
164.410660
  0
ARC
  8
0
 10
196.100647
 20
106.544571
 40
1.782125
 50
165.768509
 51
194.231491
  0
ARC
  8
0
 10
196.583160
 20
106.723038
 40
2.294349
 50
195.589340
 51
231.686905
  0
ARC
  8
0
 10
197.918518
 20
108.691460
 40
4.669886
 50
233.804703
 51
239.319931
  0
ARC
  8
0
 10
199.450851
 20
106.047913
 40
1.555656
 50
345.893280
 51
14.106712
  0
ARC
  8
0
 10
199.044128
 20
105.898804
 40
1.986977
 50
15.418337
 51
51.389256
  0
ARC
  8
0
 10
197.918518
 20
104.254257
 40
3.977153
 50
53.502899
 51
126.497101
  0
ARC
  8
0
 10
196.792908
 20
105.898804
 40
1.986983
 50
128.610748
 51
164.581665
  0
ARC
  8
0
 10
196.386185
 20
106.047913
 40
1.555656
 50
165.893295
 51
194.106705
  0
ARC
  8
0
 10
196.792908
 20
106.197021
 40
1.986977
 50
195.418335
 51
231.389252
  0
ARC
  8
0
 10
197.918518
 20
107.841568
 40
3.977153
 50
233.502899
 51
306.497101
  0
ARC
  8
0
 10
199.044128
 20
106.197021
 40
1.986983
 50
308.610748
 51
344.581665
  0
ARC
  8
0
 10
199.137421
 20
105.650017
 40
1.237097
 50
346.034729
 51
14.250495
  0
ARC
  8
0
 10
198.814178
 20
105.530594
 40
1.580210
 50
15.562374
 51
51.533913
  0
ARC
  8
0
 10
197.922073
 20
104.220108
 40
3.163377
 50
53.647945
 51
126.637390
  0
ARC
  8
0
 10
197.023437
 20
105.526138
 40
1.580197
 50
128.751053
 51
164.722977
  0
ARC
  8
0
 10
196.699615
 20
105.643944
 40
1.237097
 50
166.034714
 51
194.250488
  0
ARC
  8
0
 10
197.022858
 20
105.763367
 40
1.580210
 50
195.562378
 51
231.533905
  0
ARC
  8
0
 10
197.914963
 20
107.073853
 40
3.163377
 50
233.647949
 51
306.637390
  0
ARC
  8
0
 10
198.813599
 20
105.767822
 40
1.580197
 50
308.751038
 51
344.722961
  0
ARC
  8
0
 10
198.624969
 20
105.265091
 40
0.717052
 50
346.081757
 51
14.297359
  0
ARC
  8
0
 10
198.437683
 20
105.195724
 40
0.915904
 50
15.609082
 51
51.580795
  0
ARC
  8
0
 10
197.921249
 20
104.435783
 40
1.833472
 50
53.694302
 51
126.684929
  0
ARC
  8
0
 10
197.399811
 20
105.192284
 40
0.915909
 50
128.798889
 51
164.770248
  0
ARC
  8
0
 10
197.212067
 20
105.260406
 40
0.717052
 50
166.081741
 51
194.297363
  0
ARC
  8
0
 10
197.399353
 20
105.329773
 40
0.915904
 50
195.609085
 51
231.580795
  0
ARC
  8
0
 10
197.915787
 20
106.089714
 40
1.833472
 50
233.694305
 51
306.684937
  0
ARC
  8
0
 10
198.437225
 20
105.333214
 40
0.915909
 50
308.798889
 51
344.770233
  0
ARC
  8
0
 10
225.613800
 20
124.547920
 40
1.555671
 50
345.893433
 51
14.106575
  0
ARC
  8
0
 10
225.207077
 20
124.398811
 40
1.986992
 50
15.418220
 51
51.389256
  0
ARC
  8
0
 10
224.081467
 20
122.754265
 40
3.977153
 50
53.502899
 51
126.497101
  0
ARC
  8
0
 10
222.955856
 20
124.398811
 40
1.986983
 50
128.610748
 51
164.581787
  0
ARC
  8
0
 10
222.549133
 20
124.547920
 40
1.555671
 50
165.893417
 51
194.106583
  0
ARC
  8
0
 10
222.955856
 20
124.697029
 40
1.986992
 50
195.418213
 51
231.389252
  0
ARC
  8
0
 10
224.081467
 20
126.341576
 40
3.977153
 50
233.502899
 51
306.497101
  0
ARC
  8
0
 10
225.207077
 20
124.697029
 40
1.986983
 50
308.610748
 51
344.581787
  0
ARC
  8
0
 10
225.300369
 20
124.146988
 40
1.237110
 50
345.892456
 51
14.107546
  0
ARC
  8
0
 10
224.976837
 20
124.028374
 40
1.580210
 50
15.419421
 51
51.391602
  0
ARC
  8
0
 10
224.081467
 20
122.720108
 40
3.163380
 50
53.505444
 51
126.494560
  0
ARC
  8
0
 10
223.186096
 20
124.028374
 40
1.580204
 50
128.608398
 51
164.580582
  0
ARC
  8
0
 10
222.862564
 20
124.146988
 40
1.237110
 50
165.892456
 51
194.107544
  0
ARC
  8
0
 10
223.186096
 20
124.265602
 40
1.580210
 50
195.419418
 51
231.391602
  0
ARC
  8
0
 10
224.081467
 20
125.573868
 40
3.163380
 50
233.505447
 51
306.494568
  0
ARC
  8
0
 10
224.976837
 20
124.265602
 40
1.580204
 50
308.608398
 51
344.580566
  0
ARC
  8
0
 10
224.787918
 20
123.762756
 40
0.717060
 50
345.892792
 51
14.107213
  0
ARC
  8
0
 10
224.600403
 20
123.694008
 40
0.915917
 50
15.419163
 51
51.390877
  0
ARC
  8
0
 10
224.081467
 20
122.935791
 40
1.833465
 50
53.504566
 51
126.495438
  0
ARC
  8
0
 10
223.562531
 20
123.694008
 40
0.915913
 50
128.609131
 51
164.580841
  0
ARC
  8
0
 10
223.375015
 20
123.762756
 40
0.717060
 50
165.892792
 51
194.107208
  0
ARC
  8
0
 10
223.562531
 20
123.831505
 40
0.915917
 50
195.419159
 51
231.390869
  0
ARC
  8
0
 10
224.081467
 20
124.589722
 40
1.833465
 50
233.504562
 51
306.495422
  0
ARC
  8
0
 10
224.600403
 20
123.831505
 40
0.915913
 50
308.609131
 51
344.580841
  0
ARC
  8
0
 10
211.000000
 20
107.390488
 40
23.182600
 50
90.594803
 51
126.497765
  0
ARC
  8
0
 10
204.439041
 20
116.976074
 40
11.582401
 50
128.611526
 51
164.582077
  0
ARC
  8
0
 10
202.068329
 20
117.845177
 40
9.068319
 50
165.893555
 51
180.028534
  0
ARC
  8
0
 10
226.562485
 20
127.095169
 40
2.518992
 50
358.277069
 51
14.106447
  0
ARC
  8
0
 10
225.903961
 20
126.853752
 40
3.217332
 50
15.417956
 51
51.388741
  0
ARC
  8
0
 10
224.081467
 20
124.191086
 40
6.439610
 50
53.502342
 51
90.281708
  0
ARC
  8
0
 10
205.541794
 20
117.845177
 40
5.541789
 50
189.181992
 51
194.106461
  0
ARC
  8
0
 10
206.990540
 20
118.376282
 40
7.078150
 50
195.417877
 51
231.388458
  0
ARC
  8
0
 10
211.000000
 20
124.234100
 40
14.167102
 50
233.502167
 51
235.701477
  0
ARC
  8
0
 10
211.000000
 20
105.622726
 40
23.182600
 50
90.594803
 51
126.497765
  0
ARC
  8
0
 10
204.439041
 20
115.208313
 40
11.582401
 50
128.611526
 51
164.582077
  0
ARC
  8
0
 10
202.068329
 20
116.077415
 40
9.068319
 50
165.893555
 51
180.028534
  0
ARC
  8
0
 10
195.437500
 20
106.827408
 40
2.518992
 50
178.277069
 51
194.106445
  0
ARC
  8
0
 10
196.096024
 20
107.068825
 40
3.217332
 50
195.417953
 51
231.388748
  0
ARC
  8
0
 10
197.918518
 20
109.731483
 40
6.439604
 50
233.502304
 51
270.281708
  0
ARC
  8
0
 10
211.000000
 20
126.532104
 40
23.182596
 50
290.103271
 51
306.497772
  0
ARC
  8
0
 10
217.560959
 20
116.946518
 40
11.582401
 50
308.611511
 51
344.582062
  0
ARC
  8
0
 10
219.931671
 20
116.077415
 40
9.068319
 50
345.893555
 51
358.858917
  0
ARC
  8
0
 10
226.562485
 20
125.327408
 40
2.518992
 50
358.277069
 51
14.106447
  0
ARC
  8
0
 10
225.903961
 20
125.085991
 40
3.217332
 50
15.417956
 51
51.388657
  0
ARC
  8
0
 10
224.081467
 20
122.423325
 40
6.439604
 50
53.502300
 51
90.281708
  0
ARC
  8
0
 10
216.458206
 20
116.077423
 40
5.541794
 50
0.000000
 51
14.106454
  0
ARC
  8
0
 10
215.009460
 20
115.546318
 40
7.078150
 50
15.417875
 51
51.388454
  0
ARC
  8
0
 10
211.000000
 20
109.688499
 40
14.167102
 50
53.502171
 51
126.497826
  0
ARC
  8
0
 10
206.990540
 20
115.546318
 40
7.078142
 50
128.611542
 51
164.582123
  0
ARC
  8
0
 10
205.541794
 20
116.077423
 40
5.541795
 50
165.893539
 51
194.106461
  0
ARC
  8
0
 10
206.990540
 20
116.608528
 40
7.078150
 50
195.417877
 51
231.388458
  0
ARC
  8
0
 10
211.000000
 20
122.466347
 40
14.167102
 50
233.502167
 51
235.701477
  0
POLYLINE
  8
0
 66
     1
  0
VERTEX
  8
0
 10
165.500000
 20
82.000000
  0
VERTEX
  8
0
 10
164.665085
 20
81.786491
  0
VERTEX
  8
0
 10
163.861404
 20
81.463776
  0
VERTEX
  8
0
 10
163.118103
 20
81.052849
  0
VERTEX
  8
0
 10
162.478714
 20
80.592453
  0
VERTEX
  8
0
 10
161.923370
 20
80.050018
  0
VERTEX
  8
0
 10
161.496643
 20
79.409973
  0
VERTEX
  8
0
 10
161.233749
 20
78.685562
  0
VERTEX
  8
0
 10
161.115936
 20
77.901779
  0
VERTEX
  8
0
 10
161.076630
 20
77.000412
  0
VERTEX
  8
0
 10
161.065903
 20
76.171761
  0
VERTEX
  8
0
 10
161.076111
 20
75.359375
  0
VERTEX
  8
0
 10
161.113464
 20
74.546066
  0
VERTEX
  8
0
 10
161.184174
 20
73.714645
  0
VERTEX
  8
0
 10
161.295547
 20
72.842148
  0
VERTEX
  8
0
 10
161.443573
 20
71.976692
  0
VERTEX
  8
0
 10
161.628479
 20
71.104019
  0
VERTEX
  8
0
 10
161.850464
 20
70.209839
  0
VERTEX
  8
0
 10
162.128784
 20
69.236893
  0
VERTEX
  8
0
 10
162.445923
 20
68.259079
  0
VERTEX
  8
0
 10
162.782257
 20
67.325684
  0
VERTEX
  8
0
 10
163.118103
 20
66.485977
  0
VERTEX
  8
0
 10
163.513168
 20
65.606743
  0
VERTEX
  8
0
 10
163.941589
 20
64.742989
  0
VERTEX
  8
0
 10
164.365356
 20
63.966896
  0
VERTEX
  8
0
 10
164.724380
 20
63.368465
  0
VERTEX
  8
0
 10
165.102936
 20
62.782280
  0
VERTEX
  8
0
 10
165.500000
 20
62.208668
  0
SEQEND
  0
POLYLINE
  8
0
 66
     1
  0
VERTEX
  8
0
 10
165.500000
 20
-2.000000
  0
VERTEX
  8
0
 10
164.665085
 20
-1.786491
  0
VERTEX
  8
0
 10
163.861404
 20
-1.463772
  0
VERTEX
  8
0
 10
163.118103
 20
-1.052849
  0
VERTEX
  8
0
 10
162.478714
 20
-0.592451
  0
VERTEX
  8
0
 10
161.923370
 20
-0.050017
  0
VERTEX
  8
0
 10
161.496643
 20
0.590031
  0
VERTEX
  8
0
 10
161.233749
 20
1.314442
  0
VERTEX
  8
0
 10
161.115936
 20
2.098222
  0
VERTEX
  8
0
 10
161.076630
 20
2.999588
  0
VERTEX
  8
0
 10
161.065903
 20
3.828241
  0
VERTEX
  8
0
 10
161.076111
 20
4.640623
  0
VERTEX
  8
0
 10
161.113464
 20
5.453928
  0
VERTEX
  8
0
 10
161.184174
 20
6.285351
  0
VERTEX
  8
0
 10
161.295547
 20
7.157852
  0
VERTEX
  8
0
 10
161.443573
 20
8.023303
  0
VERTEX
  8
0
 10
161.628479
 20
8.895981
  0
VERTEX
  8
0
 10
161.850464
 20
9.790161
  0
VERTEX
  8
0
 10
162.128784
 20
10.763110
  0
VERTEX
  8
0
 10
162.445923
 20
11.740923
  0
VERTEX
  8
0
 10
162.782257
 20
12.674320
  0
VERTEX
  8
0
 10
163.118103
 20
13.514023
  0
VERTEX
  8
0
 10
163.513168
 20
14.393254
  0
VERTEX
  8
0
 10
163.941589
 20
15.257011
  0
VERTEX
  8
0
 10
164.365356
 20
16.033106
  0
VERTEX
  8
0
 10
164.724380
 20
16.631536
  0
VERTEX
  8
0
 10
165.102936
 20
17.217722
  0
VERTEX
  8
0
 10
165.500000
 20
17.791332
  0
SEQEND
  0
POLYLINE
  8
0
 66
     1
  0
VERTEX
  8
0
 10
161.045456
 20
112.000000
  0
VERTEX
  8
0
 10
161.347809
 20
111.431564
  0
VERTEX
  8
0
 10
161.662720
 20
110.843742
  0
VERTEX
  8
0
 10
161.994980
 20
110.227577
  0
VERTEX
  8
0
 10
162.374817
 20
109.529434
  0
VERTEX
  8
0
 10
162.740189
 20
108.863297
  0
VERTEX
  8
0
 10
163.107849
 20
108.198418
  0
VERTEX
  8
0
 10
163.464905
 20
107.557983
  0
VERTEX
  8
0
 10
163.792709
 20
106.974792
  0
VERTEX
  8
0
 10
164.122452
 20
106.392700
  0
VERTEX
  8
0
 10
164.457642
 20
105.805573
  0
VERTEX
  8
0
 10
164.803040
 20
105.205299
  0
VERTEX
  8
0
 10
165.150482
 20
104.606216
  0
VERTEX
  8
0
 10
165.500000
 20
104.008331
  0
SEQEND
  0
POLYLINE
  8
0
 66
     1
  0
VERTEX
  8
0
 10
161.045456
 20
-32.000000
  0
VERTEX
  8
0
 10
161.347809
 20
-31.431562
  0
VERTEX
  8
0
 10
161.662720
 20
-30.843742
  0
VERTEX
  8
0
 10
161.994980
 20
-30.227573
  0
VERTEX
  8
0
 10
162.374817
 20
-29.529434
  0
VERTEX
  8
0
 10
162.740189
 20
-28.863293
  0
VERTEX
  8
0
 10
163.107849
 20
-28.198416
  0
VERTEX
  8
0
 10
163.464905
 20
-27.557983
  0
VERTEX
  8
0
 10
163.792709
 20
-26.974796
  0
VERTEX
  8
0
 10
164.122452
 20
-26.392698
  0
VERTEX
  8
0
 10
164.457642
 20
-25.805573
  0
VERTEX
  8
0
 10
164.803040
 20
-25.205297
  0
VERTEX
  8
0
 10
165.150482
 20
-24.606215
  0
VERTEX
  8
0
 10
165.500000
 20
-24.008331
  0
SEQEND
  0
ARC
  8
0
 10
211.000000
 20
124.234100
 40
14.167102
 50
304.302490
 51
306.497833
  0
ARC
  8
0
 10
215.009460
 20
118.376282
 40
7.078142
 50
308.611542
 51
344.582123
  0
ARC
  8
0
 10
216.458206
 20
117.845177
 40
5.541795
 50
345.893555
 51
350.824493
  0
ARC
  8
0
 10
211.000000
 20
122.466347
 40
14.167102
 50
304.302490
 51
306.497833
  0
ARC
  8
0
 10
215.009460
 20
116.608528
 40
7.078142
 50
308.611542
 51
344.582123
  0
ARC
  8
0
 10
216.458206
 20
116.077423
 40
5.541795
 50
345.893555
 51
0.000000
  0
POINT
  8
0
 10
420.000000
 20
270.000000
  0
POINT
  8
0
 10
518.000000
 20
270.000000
  0
LINE
  8
0
 10
382.523346
 20
273.535522
 11
418.585785
 21
309.597961
  0
LINE
  8
0
 10
459.597992
 20
278.485291
 11
444.465881
 21
293.617371
  0
LINE
  8
0
 10
356.269714
 20
226.068726
 11
368.864502
 21
238.663483
  0
LINE
  8
0
 10
340.035919
 20
213.345383
 11
353.824707
 21
224.915558
  0
LINE
  8
0
 10
370.453705
 20
240.734543
 11
378.709229
 21
255.033539
  0
LINE
  8
0
 10
418.585785
 20
309.597992
 11
428.485291
 21
309.597992
  0
LINE
  8
0
 10
423.535522
 20
232.523346
 11
459.597961
 21
268.585785
  0
LINE
  8
0
 10
376.068726
 20
206.269730
 11
388.663483
 21
218.864502
  0
LINE
  8
0
 10
363.345398
 20
190.035919
 11
374.915558
 21
203.824722
  0
LINE
  8
0
 10
390.734558
 20
220.453674
 11
405.033569
 21
228.709198
  0
LINE
  8
0
 10
459.597992
 20
268.585785
 11
459.597992
 21
278.485291
  0
LINE
  8
0
 10
418.585785
 20
248.786804
 11
398.786804
 21
268.585785
  0
LINE
  8
0
 10
421.414215
 20
248.786804
 11
441.213196
 21
268.585785
  0
LINE
  8
0
 10
441.213196
 20
271.414215
 11
421.414215
 21
291.213196
  0
LINE
  8
0
 10
398.786804
 20
271.414215
 11
418.585785
 21
291.213196
  0
LINE
  8
0
 10
398.079681
 20
271.414215
 11
418.585785
 21
291.920319
  0
LINE
  8
0
 10
441.920319
 20
271.414215
 11
432.091522
 21
281.243011
  0
LINE
  8
0
 10
421.414215
 20
248.079697
 11
441.920319
 21
268.585785
  0
LINE
  8
0
 10
418.585785
 20
248.079697
 11
398.079681
 21
268.585785
  0
LINE
  8
0
 10
430.889435
 20
281.737976
 11
443.617371
 21
294.465881
  0
LINE
  8
0
 10
431.737976
 20
280.889435
 11
444.465881
 21
293.617371
  0
LINE
  8
0
 10
431.243011
 20
282.091522
 11
421.414215
 21
291.920319
  0
LINE
  8
0
 10
443.617371
 20
294.465881
 11
423.181976
 21
314.901276
  0
LINE
  8
0
 10
435.273499
 20
284.424988
 11
434.424988
 21
285.273499
  0
LINE
  8
0
 10
442.344574
 20
291.496033
 11
441.496033
 21
292.344574
  0
LINE
  8
0
 10
412.127106
 20
304.553497
 11
422.216064
 21
314.642456
  0
LINE
  8
0
 10
411.868286
 20
303.587585
 11
423.181976
 21
314.901276
  0
LINE
  8
0
 10
423.181976
 20
314.901276
 11
422.216064
 21
314.642456
  0
LINE
  8
0
 10
411.868286
 20
303.587555
 11
412.127106
 21
304.553497
  0
LINE
  8
0
 10
412.221832
 20
303.234009
 11
411.868286
 21
303.587585
  0
LINE
  8
0
 10
367.000305
 20
294.700012
 11
328.060669
 21
333.639679
  0
LINE
  8
0
 10
328.060669
 20
206.360367
 11
367.000305
 21
245.299988
  0
LINE
  8
0
 10
328.060669
 20
206.360367
 11
285.000305
 21
249.420746
  0
LINE
  8
0
 10
285.000305
 20
290.579285
 11
328.060669
 21
333.639679
  0
LINE
  8
0
 10
367.000305
 20
245.299988
 11
367.000305
 21
294.700012
  0
LINE
  8
0
 10
285.000305
 20
249.399704
 11
285.000305
 21
290.600311
  0
LINE
  8
0
 10
338.313721
 20
326.922119
 11
353.375092
 21
341.983490
  0
LINE
  8
0
 10
349.627472
 20
315.608398
 11
364.688843
 21
330.669739
  0
LINE
  8
0
 10
339.029266
 20
213.705841
 11
338.985474
 21
213.749634
  0
LINE
  8
0
 10
348.999451
 20
223.676056
 11
348.955658
 21
223.719833
  0
LINE
  8
0
 10
354.541840
 20
341.806763
 11
355.646301
 21
342.911194
  0
LINE
  8
0
 10
364.512024
 20
331.836548
 11
365.616455
 21
332.940979
  0
LINE
  8
0
 10
364.898041
 20
331.450531
 11
354.155884
 21
342.192688
  0
LINE
  8
0
 10
339.029297
 20
213.705856
 11
348.999481
 21
223.676056
  0
LINE
  8
0
 10
355.646301
 20
342.911163
 11
365.616516
 21
332.940948
  0
LINE
  8
0
 10
364.688812
 20
330.669769
 11
364.898010
 21
331.450500
  0
LINE
  8
0
 10
353.375092
 20
341.983521
 11
354.155853
 21
342.192719
  0
LINE
  8
0
 10
364.688843
 20
330.669769
 11
353.375122
 21
341.983490
  0
LINE
  8
0
 10
331.242645
 20
206.006805
 11
356.698486
 21
231.462646
  0
LINE
  8
0
 10
356.698486
 20
308.537354
 11
331.242645
 21
333.993225
  0
LINE
  8
0
 10
332.220581
 20
206.984726
 11
330.452789
 21
208.752487
  0
LINE
  8
0
 10
355.720581
 20
230.484756
 11
353.952820
 21
232.252518
  0
LINE
  8
0
 10
304.447235
 20
259.535370
 11
305.050720
 21
265.277252
  0
LINE
  8
0
 10
294.502014
 20
260.580658
 11
295.105499
 21
266.322540
  0
LINE
  8
0
 10
304.447266
 20
259.535431
 11
299.172913
 21
257.187134
  0
LINE
  8
0
 10
300.379883
 20
268.670898
 11
295.105530
 21
266.322601
  0
LINE
  8
0
 10
299.172852
 20
257.186951
 11
294.501984
 21
260.580536
  0
LINE
  8
0
 10
305.050720
 20
265.277130
 11
300.379852
 21
268.670715
  0
LINE
  8
0
 10
302.160217
 20
262.175629
 11
297.288086
 21
262.687714
  0
LINE
  8
0
 10
302.264771
 20
263.170166
 11
297.392639
 21
263.682220
  0
LINE
  8
0
 10
302.486938
 20
271.973419
 11
305.546417
 21
276.869598
  0
LINE
  8
0
 10
294.006409
 20
277.272583
 11
297.065918
 21
282.168793
  0
LINE
  8
0
 10
302.486938
 20
271.973389
 11
296.716949
 21
272.174866
  0
LINE
  8
0
 10
302.835907
 20
281.967316
 11
297.065918
 21
282.168793
  0
LINE
  8
0
 10
296.716797
 20
272.174805
 11
294.006317
 21
277.272522
  0
LINE
  8
0
 10
305.546295
 20
276.869537
 11
302.835815
 21
281.967224
  0
LINE
  8
0
 10
301.588745
 20
275.348999
 11
297.434143
 21
277.945068
  0
LINE
  8
0
 10
302.118652
 20
276.197052
 11
297.964111
 21
278.793121
  0
LINE
  8
0
 10
366.445465
 20
260.834839
 11
366.445465
 21
279.165161
  0
LINE
  8
0
 10
343.384338
 20
244.546402
 11
332.976807
 21
252.604538
  0
LINE
  8
0
 10
349.506470
 20
244.546539
 11
359.914001
 21
252.604675
  0
LINE
  8
0
 10
359.914001
 20
287.395325
 11
349.506470
 21
295.453461
  0
LINE
  8
0
 10
343.384399
 20
295.453583
 11
332.976868
 21
287.395447
  0
LINE
  8
0
 10
326.445465
 20
260.834869
 11
326.445465
 21
279.165161
  0
LINE
  8
0
 10
332.457855
 20
206.656342
 11
337.549011
 21
211.747513
  0
LINE
  8
0
 10
332.457825
 20
206.656296
 11
332.174988
 21
206.939148
  0
LINE
  8
0
 10
337.549011
 20
211.747467
 11
337.266144
 21
212.030319
  0
LINE
  8
0
 10
350.957855
 20
225.156342
 11
356.049011
 21
230.247498
  0
LINE
  8
0
 10
350.957825
 20
225.156326
 11
350.674988
 21
225.439163
  0
LINE
  8
0
 10
356.049011
 20
230.247467
 11
355.766174
 21
230.530319
  0
LINE
  8
0
 10
356.049042
 20
309.752502
 11
350.957855
 21
314.843689
  0
LINE
  8
0
 10
356.049011
 20
309.752533
 11
355.766174
 21
309.469666
  0
LINE
  8
0
 10
350.957855
 20
314.843689
 11
350.675018
 21
314.560852
  0
LINE
  8
0
 10
337.549042
 20
328.252502
 11
332.457886
 21
333.343689
  0
LINE
  8
0
 10
337.548981
 20
328.252533
 11
337.266144
 21
327.969696
  0
LINE
  8
0
 10
332.457825
 20
333.343689
 11
332.174988
 21
333.060852
  0
LINE
  8
0
 10
403.000000
 20
210.000000
 11
403.000000
 21
227.535126
  0
LINE
  8
0
 10
329.399994
 20
335.000000
 11
346.391602
 21
335.000000
  0
LINE
  8
0
 10
329.399994
 20
205.000000
 11
346.658325
 21
205.000000
  0
LINE
  8
0
 10
403.000000
 20
300.594116
 11
403.000000
 21
330.000000
  0
LINE
  8
0
 10
403.000000
 20
210.000015
 11
397.999969
 21
205.000000
  0
LINE
  8
0
 10
403.000031
 20
330.000031
 11
398.000031
 21
335.000031
  0
LINE
  8
0
 10
354.930725
 20
306.769592
 11
356.698486
 21
308.537354
  0
LINE
  8
0
 10
329.474884
 20
332.225433
 11
331.242645
 21
333.993195
  0
LINE
  8
0
 10
331.242615
 20
206.006790
 11
329.474854
 21
207.774551
  0
LINE
  8
0
 10
356.698486
 20
231.462646
 11
354.930725
 21
233.230408
  0
LINE
  8
0
 10
329.399963
 20
204.999969
 11
285.000244
 21
249.399673
  0
LINE
  8
0
 10
285.000305
 20
290.600311
 11
329.399994
 21
335.000000
  0
LINE
  8
0
 10
409.857758
 20
359.217590
 11
408.623779
 21
354.612244
  0
LINE
  8
0
 10
430.142212
 20
359.217590
 11
431.376221
 21
354.612244
  0
LINE
  8
0
 10
409.857788
 20
180.782410
 11
408.623779
 21
185.387772
  0
LINE
  8
0
 10
430.142212
 20
180.782410
 11
431.376190
 21
185.387756
  0
LINE
  8
0
 10
487.588196
 20
217.841751
 11
492.193573
 21
216.607742
  0
LINE
  8
0
 10
498.964478
 20
237.545929
 11
502.335785
 21
234.174591
  0
LINE
  8
0
 10
498.964478
 20
302.453949
 11
502.335846
 21
305.825317
  0
LINE
  8
0
 10
487.588318
 20
322.158173
 11
492.193634
 21
323.392181
  0
LINE
  8
0
 10
438.408844
 20
214.932617
 11
437.374176
 21
218.794098
  0
LINE
  8
0
 10
458.485229
 20
226.523727
 11
455.658478
 21
229.350494
  0
LINE
  8
0
 10
476.894165
 20
258.408844
 11
473.032684
 21
259.443512
  0
LINE
  8
0
 10
476.894165
 20
281.591064
 11
473.032745
 21
280.556396
  0
LINE
  8
0
 10
455.658539
 20
310.649414
 11
458.485352
 21
313.476196
  0
LINE
  8
0
 10
437.374298
 20
321.205902
 11
438.408936
 21
325.067322
  0
LINE
  8
0
 10
407.455505
 20
317.500000
 11
432.544647
 21
317.500000
  0
LINE
  8
0
 10
407.455383
 20
222.500000
 11
432.544556
 21
222.500000
  0
LINE
  8
0
 10
454.863892
 20
235.386017
 11
467.408478
 21
257.113892
  0
LINE
  8
0
 10
467.408539
 20
282.886017
 11
454.863983
 21
304.613892
  0
LINE
  8
0
 10
497.500000
 20
241.081451
 11
497.500000
 21
298.918427
  0
LINE
  8
0
 10
483.794189
 20
322.657715
 11
433.705811
 21
351.576233
  0
LINE
  8
0
 10
406.294159
 20
188.423767
 11
377.583313
 21
205.000000
  0
LINE
  8
0
 10
433.705841
 20
188.423752
 11
483.794098
 21
217.342224
  0
LINE
  8
0
 10
377.583282
 20
335.000000
 11
406.294159
 21
351.576233
  0
LINE
  8
0
 10
417.488556
 20
251.015396
 11
401.015381
 21
267.488556
  0
LINE
  8
0
 10
422.511444
 20
251.015396
 11
438.984619
 21
267.488556
  0
LINE
  8
0
 10
401.015381
 20
272.511444
 11
417.488556
 21
288.984619
  0
LINE
  8
0
 10
438.984619
 20
272.511444
 11
422.511444
 21
288.984619
  0
LINE
  8
0
 10
422.511444
 20
288.984619
 11
422.887482
 21
289.739929
  0
LINE
  8
0
 10
417.488556
 20
288.984619
 11
417.112518
 21
289.739929
  0
LINE
  8
0
 10
400.260071
 20
272.887482
 11
401.015381
 21
272.511444
  0
LINE
  8
0
 10
400.260071
 20
267.112518
 11
401.015381
 21
267.488556
  0
LINE
  8
0
 10
417.112518
 20
250.260071
 11
417.488556
 21
251.015396
  0
LINE
  8
0
 10
422.887482
 20
250.260056
 11
422.511444
 21
251.015396
  0
LINE
  8
0
 10
438.984619
 20
267.488556
 11
439.739929
 21
267.112518
  0
LINE
  8
0
 10
439.739929
 20
272.887482
 11
438.984619
 21
272.511414
  0
LINE
  8
0
 10
364.630981
 20
335.000000
 11
398.000000
 21
335.000000
  0
LINE
  8
0
 10
328.060699
 20
238.544662
 11
328.060699
 21
230.744659
  0
LINE
  8
0
 10
324.160706
 20
234.644669
 11
331.960693
 21
234.644669
  0
LINE
  8
0
 10
395.773499
 20
218.050003
 11
393.472961
 21
222.034668
  0
LINE
  8
0
 10
387.113251
 20
213.050003
 11
385.552429
 21
215.753433
  0
LINE
  8
0
 10
392.886749
 20
213.050003
 11
387.113251
 21
213.050003
  0
LINE
  8
0
 10
395.773499
 20
218.050003
 11
392.886749
 21
213.050003
  0
LINE
  8
0
 10
346.445465
 20
249.943390
 11
345.195465
 21
249.221695
  0
LINE
  8
0
 10
345.195465
 20
249.221695
 11
345.195465
 21
247.778320
  0
LINE
  8
0
 10
346.445465
 20
247.056625
 11
345.195465
 21
247.778320
  0
LINE
  8
0
 10
347.695465
 20
247.778320
 11
346.445465
 21
247.056625
  0
LINE
  8
0
 10
347.695465
 20
249.221695
 11
347.695465
 21
247.778320
  0
LINE
  8
0
 10
346.445465
 20
249.943390
 11
347.695465
 21
249.221695
  0
LINE
  8
0
 10
346.445465
 20
292.943390
 11
345.195465
 21
292.221680
  0
LINE
  8
0
 10
345.195465
 20
292.221710
 11
345.195465
 21
290.778320
  0
LINE
  8
0
 10
346.445465
 20
290.056641
 11
345.195465
 21
290.778320
  0
LINE
  8
0
 10
347.695465
 20
290.778320
 11
346.445465
 21
290.056641
  0
LINE
  8
0
 10
347.695465
 20
292.221710
 11
347.695465
 21
290.778320
  0
LINE
  8
0
 10
346.445465
 20
292.943390
 11
347.695465
 21
292.221710
  0
LINE
  8
0
 10
395.773499
 20
321.950012
 11
392.886749
 21
326.950012
  0
LINE
  8
0
 10
392.886749
 20
326.950012
 11
387.113251
 21
326.950012
  0
LINE
  8
0
 10
384.226501
 20
321.950012
 11
387.113251
 21
326.950012
  0
LINE
  8
0
 10
387.113251
 20
316.950012
 11
384.226501
 21
321.950012
  0
LINE
  8
0
 10
392.886749
 20
316.950012
 11
387.113251
 21
316.950012
  0
LINE
  8
0
 10
395.773499
 20
321.950012
 11
392.886749
 21
316.950012
  0
LINE
  8
0
 10
328.060699
 20
309.255341
 11
328.060699
 21
301.455353
  0
LINE
  8
0
 10
324.160706
 20
305.355347
 11
331.960693
 21
305.355347
  0
LINE
  8
0
 10
385.152985
 20
208.454742
 11
386.029633
 21
209.973114
  0
LINE
  8
0
 10
384.113770
 20
209.054749
 11
384.990387
 21
210.573120
  0
LINE
  8
0
 10
384.113770
 20
330.945251
 11
384.990387
 21
329.426880
  0
LINE
  8
0
 10
385.152985
 20
331.545258
 11
386.029633
 21
330.026886
  0
LINE
  8
0
 10
375.213348
 20
205.000000
 11
398.000000
 21
205.000000
  0
ARC
  8
0
 10
420.000000
 20
270.000000
 40
98.000000
 50
215.317642
 51
234.682449
  0
ARC
  8
0
 10
353.441315
 20
228.897156
 40
4.000014
 50
275.500122
 51
315.000000
  0
ARC
  8
0
 10
352.728455
 20
270.033539
 40
29.999977
 50
330.000000
 51
6.703582
  0
ARC
  8
0
 10
361.793427
 20
245.734558
 40
10.000010
 50
315.000000
 51
329.999969
  0
ARC
  8
0
 10
420.033539
 20
202.728439
 40
30.000006
 50
83.296425
 51
119.999939
  0
ARC
  8
0
 10
395.734558
 20
211.793427
 40
9.999994
 50
120.000015
 51
135.000000
  0
ARC
  8
0
 10
378.897156
 20
203.441315
 40
3.999994
 50
135.000153
 51
174.499664
  0
ARC
  8
0
 10
420.000000
 20
250.201004
 40
1.999991
 50
224.999695
 51
315.000305
  0
ARC
  8
0
 10
400.201019
 20
270.000000
 40
2.000002
 50
135.000000
 51
225.000000
  0
ARC
  8
0
 10
420.000000
 20
289.798981
 40
2.000002
 50
45.000000
 51
135.000000
  0
ARC
  8
0
 10
439.798981
 20
270.000000
 40
2.000002
 50
315.000000
 51
45.000000
  0
ARC
  8
0
 10
420.000000
 20
249.493896
 40
1.999991
 50
224.999695
 51
315.000305
  0
ARC
  8
0
 10
399.493896
 20
270.000000
 40
2.000002
 50
135.000000
 51
225.000000
  0
ARC
  8
0
 10
420.000000
 20
290.506104
 40
2.000002
 50
45.000000
 51
135.000000
  0
ARC
  8
0
 10
440.506104
 20
270.000000
 40
2.000002
 50
315.000000
 51
45.000000
  0
CIRCLE
  8
0
 10
328.060699
 20
305.355347
 40
7.500000
  0
CIRCLE
  8
0
 10
346.445465
 20
270.000000
 40
0.500000
  0
CIRCLE
  8
0
 10
346.445465
 20
270.000000
 40
16.250000
  0
ARC
  8
0
 10
332.303345
 20
230.402039
 40
18.000011
 50
291.941742
 51
338.058167
  0
ARC
  8
0
 10
348.920349
 20
326.214996
 40
18.000011
 50
21.941750
 51
68.058212
  0
CIRCLE
  8
0
 10
299.776428
 20
262.928955
 40
2.500000
  0
CIRCLE
  8
0
 10
299.776428
 20
262.928955
 40
2.250000
  0
CIRCLE
  8
0
 10
299.776428
 20
262.928955
 40
5.000000
  0
CIRCLE
  8
0
 10
299.776428
 20
277.071075
 40
2.500000
  0
CIRCLE
  8
0
 10
299.776428
 20
277.071075
 40
2.250000
  0
CIRCLE
  8
0
 10
299.776428
 20
277.071075
 40
5.000000
  0
CIRCLE
  8
0
 10
328.060699
 20
305.355347
 40
7.000000
  0
CIRCLE
  8
0
 10
346.445465
 20
270.000000
 40
17.049999
  0
ARC
  8
0
 10
346.445465
 20
291.500000
 40
5.000003
 50
52.250767
 51
127.749229
  0
ARC
  8
0
 10
346.445465
 20
270.000000
 40
21.999996
 50
127.749207
 51
155.380005
  0
ARC
  8
0
 10
346.445465
 20
270.000000
 40
21.999996
 50
307.749207
 51
335.380005
  0
ARC
  8
0
 10
346.445465
 20
291.500000
 40
5.000003
 50
52.250767
 51
90.000000
  0
ARC
  8
0
 10
346.445465
 20
270.000000
 40
22.000004
 50
204.619995
 51
232.250793
  0
ARC
  8
0
 10
346.445465
 20
270.000000
 40
22.000004
 50
24.620001
 51
52.250797
  0
ARC
  8
0
 10
346.445465
 20
248.500000
 40
5.000003
 50
232.250763
 51
307.749237
  0
ARC
  8
0
 10
333.518982
 20
210.616638
 40
4.100000
 50
255.000015
 51
315.000305
  0
ARC
  8
0
 10
333.588715
 20
210.686340
 40
4.100002
 50
315.000000
 51
14.999986
  0
ARC
  8
0
 10
352.019012
 20
229.116638
 40
4.100000
 50
255.000015
 51
315.000000
  0
ARC
  8
0
 10
352.088715
 20
229.186340
 40
4.100002
 50
315.000000
 51
14.999986
  0
ARC
  8
0
 10
352.088715
 20
310.813660
 40
4.100000
 50
345.000000
 51
45.000000
  0
ARC
  8
0
 10
352.019012
 20
310.883392
 40
4.100002
 50
45.000000
 51
104.999985
  0
ARC
  8
0
 10
333.588745
 20
329.313660
 40
4.099971
 50
344.999908
 51
45.000301
  0
ARC
  8
0
 10
333.519012
 20
329.383392
 40
4.100002
 50
45.000000
 51
104.999985
  0
CIRCLE
  8
0
 10
328.060699
 20
234.644669
 40
7.000000
  0
CIRCLE
  8
0
 10
328.060699
 20
234.644669
 40
7.500000
  0
ARC
  8
0
 10
420.000000
 20
270.000000
 40
34.999996
 50
103.215752
 51
169.047745
  0
ARC
  8
0
 10
420.000000
 20
270.000000
 40
65.000000
 50
70.021080
 51
107.109818
  0
CIRCLE
  8
0
 10
449.999969
 20
218.038452
 40
6.000000
  0
CIRCLE
  8
0
 10
480.000000
 20
269.999939
 40
6.000000
  0
CIRCLE
  8
0
 10
450.000061
 20
321.961487
 40
6.000000
  0
CIRCLE
  8
0
 10
449.999969
 20
218.038452
 40
5.125000
  0
CIRCLE
  8
0
 10
480.000000
 20
269.999939
 40
5.125000
  0
CIRCLE
  8
0
 10
450.000061
 20
321.961487
 40
5.125000
  0
ARC
  8
0
 10
449.999969
 20
218.038452
 40
12.000017
 50
195.000015
 51
45.000053
  0
ARC
  8
0
 10
480.000000
 20
269.999939
 40
12.000017
 50
254.999985
 51
105.000008
  0
ARC
  8
0
 10
450.000061
 20
321.961487
 40
12.000013
 50
315.000000
 51
164.999954
  0
ARC
  8
0
 10
420.000000
 20
356.500000
 40
10.500018
 50
14.999919
 51
165.000031
  0
ARC
  8
0
 10
419.999969
 20
183.500000
 40
10.499992
 50
195.000046
 51
345.000000
  0
ARC
  8
0
 10
494.911194
 20
226.749969
 40
10.500003
 50
255.000061
 51
45.000000
  0
ARC
  8
0
 10
494.911224
 20
313.249939
 40
10.500001
 50
315.000000
 51
104.999916
  0
ARC
  8
0
 10
407.455383
 20
217.500000
 40
5.000000
 50
90.000000
 51
153.008774
  0
ARC
  8
0
 10
432.544556
 20
217.500000
 40
4.999992
 50
15.000055
 51
90.000000
  0
ARC
  8
0
 10
459.194000
 20
232.886017
 40
4.999984
 50
149.999893
 51
225.000000
  0
ARC
  8
0
 10
471.738586
 20
254.613876
 40
5.000007
 50
74.999992
 51
149.999741
  0
ARC
  8
0
 10
471.738647
 20
285.386017
 40
4.999984
 50
210.000107
 51
285.000061
  0
ARC
  8
0
 10
459.194092
 20
307.113861
 40
5.000027
 50
135.000000
 51
209.999924
  0
ARC
  8
0
 10
432.544647
 20
322.500000
 40
5.000000
 50
270.000000
 51
345.000031
  0
ARC
  8
0
 10
407.455505
 20
322.500000
 40
5.000009
 50
206.988251
 51
270.000000
  0
ARC
  8
0
 10
420.000000
 20
270.000000
 40
65.000008
 50
252.890137
 51
289.978760
  0
ARC
  8
0
 10
420.000000
 20
270.000000
 40
65.000008
 50
310.021088
 51
349.978760
  0
ARC
  8
0
 10
420.000000
 20
270.000000
 40
64.999985
 50
10.021097
 51
49.978764
  0
ARC
  8
0
 10
403.794159
 20
355.906342
 40
4.999984
 50
300.000092
 51
344.999939
  0
ARC
  8
0
 10
403.794128
 20
184.093658
 40
4.999992
 50
15.000055
 51
60.000069
  0
ARC
  8
0
 10
436.205841
 20
184.093658
 40
4.999984
 50
120.000107
 51
165.000031
  0
ARC
  8
0
 10
486.294098
 20
213.012131
 40
4.999992
 50
74.999947
 51
120.000015
  0
ARC
  8
0
 10
502.500000
 20
241.081451
 40
5.000000
 50
180.000000
 51
225.000000
  0
ARC
  8
0
 10
502.500000
 20
298.918427
 40
4.999984
 50
135.000000
 51
180.000000
  0
ARC
  8
0
 10
486.294220
 20
326.987823
 40
5.000010
 50
240.000076
 51
284.999969
  0
ARC
  8
0
 10
436.205872
 20
355.906342
 40
5.000022
 50
194.999969
 51
240.000076
  0
ARC
  8
0
 10
420.000000
 20
270.000000
 40
97.999992
 50
234.682388
 51
132.692520
  0
ARC
  8
0
 10
420.000000
 20
270.000000
 40
19.949997
 50
171.678009
 51
188.321991
  0
ARC
  8
0
 10
420.000000
 20
270.000000
 40
19.150017
 50
172.464188
 51
187.535812
  0
ARC
  8
0
 10
420.000000
 20
270.000000
 40
19.149998
 50
262.464264
 51
277.535828
  0
ARC
  8
0
 10
420.000000
 20
270.000000
 40
19.149986
 50
352.464172
 51
7.535718
  0
ARC
  8
0
 10
420.000000
 20
270.000000
 40
19.149986
 50
82.464180
 51
97.535805
  0
ARC
  8
0
 10
420.000000
 20
270.000000
 40
75.999992
 50
238.788803
 51
121.211189
  0
ARC
  8
0
 10
420.000000
 20
270.000000
 40
45.000000
 50
248.928360
 51
112.196144
  0
CIRCLE
  8
0
 10
346.445465
 20
248.500000
 40
3.800000
  0
ARC
  8
0
 10
390.000000
 20
218.050003
 40
9.000001
 50
215.270325
 51
40.981030
  0
ARC
  8
0
 10
390.000000
 20
218.050003
 40
7.799994
 50
213.755447
 51
42.696667
  0
ARC
  8
0
 10
390.000000
 20
218.050003
 40
10.750004
 50
243.199524
 51
39.176434
  0
ARC
  8
0
 10
390.000000
 20
321.950012
 40
10.749978
 50
123.199600
 51
116.800369
  0
CIRCLE
  8
0
 10
390.000000
 20
321.950012
 40
9.000000
  0
CIRCLE
  8
0
 10
390.000000
 20
321.950012
 40
7.800000
  0
CIRCLE
  8
0
 10
346.445465
 20
291.500000
 40
3.800000
  0
ARC
  8
0
 10
420.000000
 20
270.000000
 40
35.000000
 50
280.952271
 51
349.047729
  0
ARC
  8
0
 10
390.000000
 20
218.050003
 40
10.749997
 50
216.866028
 51
236.800446
  0
ARC
  8
0
 10
420.000000
 20
270.000000
 40
19.949997
 50
261.678009
 51
278.321991
  0
ARC
  8
0
 10
420.000000
 20
270.000000
 40
19.949997
 50
351.678009
 51
8.321989
  0
ARC
  8
0
 10
420.000000
 20
270.000000
 40
19.949997
 50
81.678009
 51
98.321991
  0
ENDSEC
  0
EOF
