  0
SECTION
  2
HEADER
  0
ENDSEC
  0
SECTION
  2
TABLES
  0
TABLE
  2
LTYPE
 70
     4
  0
LTYPE
  2
CONTINUOUS
 70
    64
  3
Solid line
 72
    65
 73
     0
 40
0.000000
  0
LTYPE
  2
DASHED
 70
    64
  3
__ __ __ __ __ __ __ __ __ __ __ __ __ __ __
 72
    65
 73
     2
 40
3.500000
 49
2.000000
 49
-1.500000
  0
LTYPE
  2
CENTER
 70
    64
  3
____ _ ____ _ ____ _ ____ _ ____ _ ____ _ ____
 72
    65
 73
     4
 40
17.500000
 49
13.000000
 49
-1.500000
 49
1.500000
 49
-1.500000
  0
LTYPE
  2
PHANTOM
 70
    64
  3
_____ _ _ _____ _ _ _____ _ _ _____ _ _ ____  
 72
    65
 73
     6
 40
15.500000
 49
8.000000
 49
-1.500000
 49
1.500000
 49
-1.500000
 49
1.500000
 49
-1.500000
  0
LTYPE
  2
DASHED1
 70
    64
  3
__ __ __ __ __ __ __ __ __ __ __ __ __ __ __
 72
    65
 73
     2
 40
1.500000
 49
1.000000
 49
-0.500000
  0
LTYPE
  2
DASHED2
 70
    64
  3
__ __ __ __ __ __ __ __ __ __ __ __ __ __ __
 72
    65
 73
     2
 40
3.500000
 49
2.500000
 49
-1.000000
  0
LTYPE
  2
DASHED3
 70
    64
  3
__ __ __ __ __ __ __ __ __ __ __ __ __ __ __
 72
    65
 73
     2
 40
6.000000
 49
4.000000
 49
-2.000000
  0
LTYPE
  2
DASHED4
 70
    64
  3
__ __ __ __ __ __ __ __ __ __ __ __ __ __ __
 72
    65
 73
     2
 40
12.000000
 49
10.000000
 49
-2.000000
  0
LTYPE
  2
DASHED5
 70
    64
  3
__ __ __ __ __ __ __ __ __ __ __ __ __ __ __
 72
    65
 73
     2
 40
17.000000
 49
15.000000
 49
-2.000000
  0
LTYPE
  2
DASHED6
 70
    64
  3
__ __ __ __ __ __ __ __ __ __ __ __ __ __ __
 72
    65
 73
     2
 40
29.000000
 49
27.000000
 49
-2.000000
  0
LTYPE
  2
PHANTOM1
 70
    64
  3
_____ _ _ _____ _ _ _____ _ _ _____ _ _ ____  
 72
    65
 73
     6
 40
31.000000
 49
25.000000
 49
-1.500000
 49
1.000000
 49
-1.000000
 49
1.000000
 49
-1.500000
  0
LTYPE
  2
PHANTOM2
 70
    64
  3
_____ _ _ _____ _ _ _____ _ _ _____ _ _ ____  
 72
    65
 73
     6
 40
36.000000
 49
27.000000
 49
-1.500000
 49
2.500000
 49
-1.000000
 49
2.500000
 49
-1.500000
  0
LTYPE
  2
PHANTOM3
 70
    64
  3
_____ _ _ _____ _ _ _____ _ _ _____ _ _ ____  
 72
    65
 73
     6
 40
78.000000
 49
64.000000
 49
-2.000000
 49
4.000000
 49
-2.000000
 49
4.000000
 49
-2.000000
  0
LTYPE
  2
CENTER1
 70
    64
  3
____ _ ____ _ ____ _ ____ _ ____ _ ____ _ ____
 72
    65
 73
     4
 40
19.000000
 49
14.000000
 49
-1.000000
 49
3.000000
 49
-1.000000
  0
LTYPE
  2
CENTER2
 70
    64
  3
____ _ ____ _ ____ _ ____ _ ____ _ ____ _ ____
 72
    65
 73
     4
 40
28.500000
 49
25.000000
 49
-1.000000
 49
1.500000
 49
-1.000000
  0
LTYPE
  2
CENTER3
 70
    64
  3
____ _ ____ _ ____ _ ____ _ ____ _ ____ _ ____
 72
    65
 73
     4
 40
31.500000
 49
27.000000
 49
-1.000000
 49
2.500000
 49
-1.000000
  0
LTYPE
  2
CENTER4
 70
    64
  3
____ _ ____ _ ____ _ ____ _ ____ _ ____ _ ____
 72
    65
 73
     4
 40
50.000000
 49
45.000000
 49
-1.000000
 49
3.000000
 49
-1.000000
  0
LTYPE
  2
CENTER5
 70
    64
  3
____ _ ____ _ ____ _ ____ _ ____ _ ____ _ ____
 72
    65
 73
     4
 40
100.000000
 49
92.000000
 49
-2.000000
 49
4.000000
 49
-2.000000
  0
LTYPE
  2
SBK1
 70
    64
  3
______ _ _ _ ______ _ _ _ ______ _ _ _ _____  
 72
    65
 73
     8
 40
60.500000
 49
45.000000
 49
-2.000000
 49
2.500000
 49
-2.000000
 49
2.500000
 49
-2.000000
 49
2.500000
 49
-2.000000
  0
LTYPE
  2
SBK2
 70
    64
  3
______ _ _ _ ______ _ _ _ ______ _ _ _ _____  
 72
    65
 73
     8
 40
84.000000
 49
64.000000
 49
-2.000000
 49
4.000000
 49
-2.000000
 49
4.000000
 49
-2.000000
 49
4.000000
 49
-2.000000
  0
LTYPE
  2
STCH
 70
    64
  3
__ __ __ __ __ __ __ __ __ __ __ __ __ __ __
 72
    65
 73
     2
 40
3.000000
 49
1.000000
 49
-2.000000
  0
LTYPE
  2
MTCH
 70
    64
  3
_____ _ _ _____ _ _ _____ _ _ _____ _ _ ____  
 72
    65
 73
     6
 40
80.000000
 49
66.000000
 49
-2.000000
 49
4.000000
 49
-2.000000
 49
4.000000
 49
-2.000000
  0
ENDTAB
  0
TABLE
  2
LAYER
 70
     1
  0
LAYER
  2
0
 70
     0
 62
     7
  6
CONTINUOUS
  0
ENDTAB
  0
TABLE
  2
STYLE
 70
     1
  0
STYLE
  2
STANDARD
 70
     0
 40
0.000000
 41
1.000000
 50
0.000000
 71
     0
 42
0.200000
  3
txt
  4
BIGFONT
  0
ENDTAB
  0
TABLE
  2
VIEW
 70
     0
  0
ENDTAB
  0
ENDSEC
  0
SECTION
  2
BLOCKS
  0
ENDSEC
  0
SECTION
  2
ENTITIES
  0
LINE
  8
0
 10
-181.250000
 20
195.500000
 11
-181.250000
 21
180.500000
  0
LINE
  8
0
 10
182.099976
 20
195.500000
 11
182.099976
 21
180.500000
  0
LINE
  8
0
 10
-281.250000
 20
180.500000
 11
-181.250000
 21
180.500000
  0
LINE
  8
0
 10
182.099976
 20
-175.000000
 11
182.099976
 21
-195.000000
  0
LINE
  8
0
 10
182.099976
 20
180.500000
 11
282.099976
 21
180.500000
  0
LINE
  8
0
 10
182.099976
 20
-175.000000
 11
282.099976
 21
-175.000000
  0
LINE
  8
0
 10
-297.000000
 20
210.000000
 11
297.000000
 21
210.000000
  0
LINE
  8
0
 10
-297.000000
 20
-210.000000
 11
297.000000
 21
-210.000000
  0
LINE
  8
0
 10
297.000000
 20
210.000000
 11
297.000000
 21
-210.000000
  0
LINE
  8
0
 10
-297.000000
 20
210.000000
 11
-297.000000
 21
-210.000000
  0
LINE
  8
0
 10
-281.250000
 20
195.500000
 11
282.099976
 21
195.500000
  0
LINE
  8
0
 10
-281.250000
 20
195.500000
 11
-281.250000
 21
-195.000000
  0
LINE
  8
0
 10
282.099976
 20
195.500000
 11
282.099976
 21
-195.000000
  0
LINE
  8
0
 10
-281.250000
 20
-195.000000
 11
282.099976
 21
-195.000000
  0
LINE
  8
0
 10
-281.250000
 20
-9.750000
 11
282.099976
 21
-9.750000
  0
LINE
  8
0
 10
0.424988
 20
195.500000
 11
0.424988
 21
-195.000000
  0
LINE
  8
0
 10
-159.575012
 20
-185.000000
 11
0.424988
 21
-185.000000
  0
LINE
  8
0
 10
-159.575012
 20
0.250000
 11
0.424988
 21
0.250000
  0
LINE
  8
0
 10
-159.575012
 20
0.250000
 11
-159.575012
 21
-9.750000
  0
LINE
  8
0
 10
122.099976
 20
0.250000
 11
122.099976
 21
-9.750000
  0
LINE
  8
0
 10
122.099976
 20
0.250000
 11
282.099976
 21
0.250000
  0
LINE
  8
0
 10
-159.575012
 20
-185.000000
 11
-159.575012
 21
-195.000000
  0
TEXT
  8
0
 10
188.021667
 20
183.779999
 40
5.800000
  1
DATE: MAY ,1992
 50
0.000000
 41
1.052632
 51
0.000000
  7
STANDARD
  0
TEXT
  8
0
 10
178.000870
 20
-190.300003
 40
7.000000
  1
ＫＯＧＡＮＥＩ，ＣＯＲＰ．
 50
0.000000
 41
0.902367
 51
15.000000
  7
STANDARD
  0
TEXT
  8
0
 10
-275.328308
 20
183.779999
 40
5.800000
  1
ROTARY ACTUATER
 50
0.000000
 41
1.052632
 51
0.000000
  7
STANDARD
  0
TEXT
  8
0
 10
-148.376572
 20
-8.250000
 40
5.000000
  1
SWING ANGLE : 90 DEGREE
 50
0.000000
 41
1.052632
 51
0.000000
  7
STANDARD
  0
TEXT
  8
0
 10
130.798416
 20
-8.250000
 40
5.000000
  1
SWING ANGLE : 180 DEGREE
 50
0.000000
 41
1.052632
 51
0.000000
  7
STANDARD
  0
TEXT
  8
0
 10
-150.876572
 20
-193.500000
 40
5.000000
  1
SWING ANGLE : 270 DEGREE
 50
0.000000
 41
1.052632
 51
0.000000
  7
STANDARD
  0
TEXT
  8
0
 10
89.655609
 20
-109.275002
 40
6.000000
  1
MODEL : RAK50-USK
 50
0.000000
 41
1.052632
 51
0.000000
  7
STANDARD
  0
POINT
  8
0
 10
-230.000000
 20
140.000000
  0
POINT
  8
0
 10
-178.300003
 20
140.000000
  0
LINE
  8
0
 10
-228.800003
 20
174.500000
 11
-228.800003
 21
168.299988
  0
LINE
  8
0
 10
-235.000000
 20
105.500000
 11
-229.350006
 21
105.500000
  0
LINE
  8
0
 10
-235.000015
 20
174.500000
 11
-228.800018
 21
174.500000
  0
LINE
  8
0
 10
-221.550003
 20
104.573952
 11
-214.149994
 21
104.573952
  0
LINE
  8
0
 10
-222.350006
 20
102.594048
 11
-213.350006
 21
102.594048
  0
LINE
  8
0
 10
-222.349991
 20
97.144295
 11
-213.350006
 21
97.144295
  0
LINE
  8
0
 10
-221.550003
 20
96.295769
 11
-214.149994
 21
96.295769
  0
LINE
  8
0
 10
-221.550003
 20
108.958008
 11
-214.149994
 21
108.958008
  0
LINE
  8
0
 10
-213.650009
 20
108.458008
 11
-213.650009
 21
103.659744
  0
LINE
  8
0
 10
-212.850006
 20
107.043793
 11
-212.850006
 21
97.644295
  0
LINE
  8
0
 10
-222.050003
 20
108.458008
 11
-222.050003
 21
103.659737
  0
LINE
  8
0
 10
-222.850006
 20
107.043793
 11
-222.850006
 21
97.644295
  0
LINE
  8
0
 10
-221.550003
 20
103.159737
 11
-214.149994
 21
103.159737
  0
LINE
  8
0
 10
-223.350006
 20
107.543793
 11
-222.050003
 21
107.543793
  0
LINE
  8
0
 10
-222.050003
 20
97.144295
 11
-222.050003
 21
96.795769
  0
LINE
  8
0
 10
-213.650009
 20
97.144295
 11
-213.650009
 21
96.795769
  0
LINE
  8
0
 10
-213.649994
 20
107.543793
 11
-212.350006
 21
107.543793
  0
LINE
  8
0
 10
-229.350006
 20
107.260948
 11
-223.350006
 21
107.260948
  0
LINE
  8
0
 10
-212.350006
 20
107.543793
 11
-212.350006
 21
101.604095
  0
LINE
  8
0
 10
-223.350006
 20
107.543793
 11
-223.350006
 21
101.604095
  0
LINE
  8
0
 10
-212.350006
 20
107.260948
 11
-207.350006
 21
107.260948
  0
LINE
  8
0
 10
-229.350006
 20
101.604095
 11
-223.350006
 21
101.604095
  0
LINE
  8
0
 10
-223.350006
 20
101.886932
 11
-222.850006
 21
101.886932
  0
LINE
  8
0
 10
-212.850006
 20
101.886932
 11
-212.350006
 21
101.886932
  0
LINE
  8
0
 10
-212.350006
 20
101.604095
 11
-207.350006
 21
101.604095
  0
LINE
  8
0
 10
-205.350006
 20
109.053841
 11
-205.350006
 21
104.053841
  0
LINE
  8
0
 10
-207.350006
 20
109.053841
 11
-205.350006
 21
109.053841
  0
LINE
  8
0
 10
-205.350006
 20
108.553841
 11
-180.850006
 21
108.553841
  0
LINE
  8
0
 10
-205.350006
 20
104.553841
 11
-180.850006
 21
104.553841
  0
LINE
  8
0
 10
-207.350006
 20
104.053841
 11
-205.350006
 21
104.053841
  0
LINE
  8
0
 10
-240.799988
 20
119.397911
 11
-239.300003
 21
119.397911
  0
LINE
  8
0
 10
-242.299988
 20
118.326416
 11
-239.300003
 21
118.326416
  0
LINE
  8
0
 10
-242.299988
 20
111.255341
 11
-239.300003
 21
111.255341
  0
LINE
  8
0
 10
-242.299988
 20
121.403114
 11
-242.299988
 21
111.255341
  0
LINE
  8
0
 10
-240.799988
 20
120.255829
 11
-240.799988
 21
119.397911
  0
LINE
  8
0
 10
-239.300003
 20
122.463776
 11
-239.300003
 21
118.326416
  0
LINE
  8
0
 10
-235.300003
 20
122.463776
 11
-235.300003
 21
118.326416
  0
LINE
  8
0
 10
-235.300003
 20
119.397911
 11
-234.350006
 21
119.397911
  0
LINE
  8
0
 10
-239.300003
 20
119.558731
 11
-235.300003
 21
119.558731
  0
LINE
  8
0
 10
-239.300003
 20
110.366341
 11
-235.300003
 21
110.366341
  0
LINE
  8
0
 10
-235.300003
 20
111.255341
 11
-229.350006
 21
111.255341
  0
LINE
  8
0
 10
-235.300003
 20
118.326416
 11
-228.800003
 21
118.326416
  0
LINE
  8
0
 10
-239.300003
 20
111.255341
 11
-239.300003
 21
110.366341
  0
LINE
  8
0
 10
-235.300003
 20
111.255341
 11
-235.300003
 21
110.366341
  0
LINE
  8
0
 10
-235.000000
 20
111.255341
 11
-235.000000
 21
105.500000
  0
LINE
  8
0
 10
-239.300003
 20
122.463776
 11
-235.300003
 21
122.463776
  0
LINE
  8
0
 10
-242.299988
 20
121.403114
 11
-239.300003
 21
121.403114
  0
LINE
  8
0
 10
-242.299988
 20
120.255829
 11
-239.300003
 21
120.255829
  0
LINE
  8
0
 10
-235.300003
 20
121.403114
 11
-235.000000
 21
121.403114
  0
LINE
  8
0
 10
-235.300003
 20
120.255829
 11
-235.000000
 21
120.255829
  0
LINE
  8
0
 10
-235.000000
 20
174.500000
 11
-235.000000
 21
119.397911
  0
LINE
  8
0
 10
-228.800003
 20
111.699997
 11
-224.300003
 21
111.699997
  0
LINE
  8
0
 10
-228.800003
 20
168.299988
 11
-224.300003
 21
168.299988
  0
LINE
  8
0
 10
-224.300003
 20
127.531456
 11
-192.300003
 21
127.531456
  0
LINE
  8
0
 10
-224.300003
 20
152.468994
 11
-192.300003
 21
152.468994
  0
LINE
  8
0
 10
-228.800003
 20
111.699997
 11
-228.800003
 21
168.299988
  0
LINE
  8
0
 10
-224.300003
 20
111.715729
 11
-224.300003
 21
168.284271
  0
LINE
  8
0
 10
-192.300003
 20
111.715729
 11
-192.300003
 21
168.284271
  0
LINE
  8
0
 10
-188.800003
 20
131.518463
 11
-188.800003
 21
138.442444
  0
LINE
  8
0
 10
-183.800003
 20
133.350250
 11
-183.800003
 21
136.750259
  0
LINE
  8
0
 10
-192.300003
 20
130.434265
 11
-189.149994
 21
130.434265
  0
LINE
  8
0
 10
-192.300003
 20
132.602661
 11
-189.149994
 21
132.602661
  0
LINE
  8
0
 10
-192.300003
 20
137.218658
 11
-189.149994
 21
137.218658
  0
LINE
  8
0
 10
-192.300003
 20
139.666245
 11
-189.149994
 21
139.666245
  0
LINE
  8
0
 10
-192.300003
 20
143.522461
 11
-189.149994
 21
143.522461
  0
LINE
  8
0
 10
-192.300003
 20
140.431885
 11
-189.149994
 21
140.431885
  0
LINE
  8
0
 10
-192.300003
 20
148.040329
 11
-189.149994
 21
148.040329
  0
LINE
  8
0
 10
-192.300003
 20
149.467621
 11
-189.149994
 21
149.467621
  0
LINE
  8
0
 10
-188.800003
 20
141.977158
 11
-188.800003
 21
148.753967
  0
LINE
  8
0
 10
-183.800003
 20
143.249741
 11
-183.800003
 21
146.649750
  0
LINE
  8
0
 10
-178.300003
 20
133.799988
 11
-178.300003
 21
146.199997
  0
LINE
  8
0
 10
-188.800003
 20
133.050262
 11
-184.100006
 21
133.050262
  0
LINE
  8
0
 10
-188.800003
 20
137.050262
 11
-184.100006
 21
137.050262
  0
LINE
  8
0
 10
-188.800003
 20
142.949738
 11
-184.100006
 21
142.949738
  0
LINE
  8
0
 10
-188.800003
 20
146.949738
 11
-184.100006
 21
146.949738
  0
LINE
  8
0
 10
-184.100006
 20
133.050247
 11
-184.100006
 21
137.050247
  0
LINE
  8
0
 10
-184.100006
 20
142.949738
 11
-184.100006
 21
146.949738
  0
LINE
  8
0
 10
-188.800003
 20
133.300262
 11
-183.850006
 21
133.300262
  0
LINE
  8
0
 10
-188.800003
 20
136.800262
 11
-183.850006
 21
136.800262
  0
LINE
  8
0
 10
-188.800003
 20
143.199738
 11
-183.850006
 21
143.199738
  0
LINE
  8
0
 10
-188.800003
 20
146.699738
 11
-183.850006
 21
146.699738
  0
LINE
  8
0
 10
-188.800003
 20
132.800003
 11
-179.300003
 21
132.800003
  0
LINE
  8
0
 10
-188.800003
 20
147.199997
 11
-179.300003
 21
147.199997
  0
LINE
  8
0
 10
-224.300003
 20
111.715729
 11
-192.300003
 21
111.715729
  0
LINE
  8
0
 10
-224.300003
 20
168.284271
 11
-192.300003
 21
168.284271
  0
LINE
  8
0
 10
-191.600006
 20
129.830978
 11
-191.600006
 21
130.434265
  0
LINE
  8
0
 10
-191.200012
 20
129.392761
 11
-191.200012
 21
130.434265
  0
LINE
  8
0
 10
-189.750000
 20
129.468552
 11
-189.750000
 21
129.531433
  0
LINE
  8
0
 10
-191.600006
 20
149.467621
 11
-191.600006
 21
150.169022
  0
LINE
  8
0
 10
-191.200012
 20
149.467621
 11
-191.200012
 21
150.607239
  0
LINE
  8
0
 10
-189.750000
 20
150.468552
 11
-189.750000
 21
150.531433
  0
LINE
  8
0
 10
-192.011566
 20
120.804306
 11
-192.300003
 21
120.804306
  0
LINE
  8
0
 10
-192.011566
 20
130.204315
 11
-192.300003
 21
130.204315
  0
LINE
  8
0
 10
-192.011566
 20
130.204300
 11
-192.011566
 21
120.804306
  0
LINE
  8
0
 10
-192.011566
 20
149.795685
 11
-192.300003
 21
149.795685
  0
LINE
  8
0
 10
-192.011566
 20
159.195694
 11
-192.300003
 21
159.195694
  0
LINE
  8
0
 10
-192.011566
 20
159.195679
 11
-192.011566
 21
149.795685
  0
LINE
  8
0
 10
-234.350006
 20
127.510109
 11
-234.350006
 21
119.289894
  0
LINE
  8
0
 10
-234.050003
 20
127.650002
 11
-234.050003
 21
119.150002
  0
LINE
  8
0
 10
-234.050003
 20
127.650002
 11
-229.350006
 21
127.650002
  0
LINE
  8
0
 10
-234.050003
 20
119.150002
 11
-229.350006
 21
119.150002
  0
LINE
  8
0
 10
-234.350006
 20
127.510109
 11
-234.050003
 21
127.650002
  0
LINE
  8
0
 10
-234.350006
 20
119.289871
 11
-234.050003
 21
119.149979
  0
LINE
  8
0
 10
-234.050003
 20
125.650002
 11
-231.679703
 21
125.650002
  0
LINE
  8
0
 10
-234.050003
 20
123.650002
 11
-232.834396
 21
123.650002
  0
LINE
  8
0
 10
-234.050003
 20
121.650002
 11
-233.989105
 21
121.650002
  0
LINE
  8
0
 10
-234.350006
 20
160.710114
 11
-234.350006
 21
152.489899
  0
LINE
  8
0
 10
-234.050003
 20
160.850006
 11
-234.050003
 21
152.350006
  0
LINE
  8
0
 10
-234.050003
 20
160.850006
 11
-229.350006
 21
160.850006
  0
LINE
  8
0
 10
-234.050003
 20
152.350006
 11
-229.350006
 21
152.350006
  0
LINE
  8
0
 10
-234.350006
 20
160.710114
 11
-234.050003
 21
160.850006
  0
LINE
  8
0
 10
-234.350006
 20
152.489899
 11
-234.050003
 21
152.350006
  0
LINE
  8
0
 10
-234.050003
 20
158.850006
 11
-231.679703
 21
158.850006
  0
LINE
  8
0
 10
-234.050003
 20
156.850006
 11
-232.834396
 21
156.850006
  0
LINE
  8
0
 10
-234.050003
 20
154.850006
 11
-233.989105
 21
154.850006
  0
LINE
  8
0
 10
-184.099991
 20
137.050278
 11
-183.799988
 21
136.750275
  0
LINE
  8
0
 10
-184.100006
 20
133.050262
 11
-183.800003
 21
133.350266
  0
LINE
  8
0
 10
-184.099991
 20
146.949753
 11
-183.799988
 21
146.649750
  0
LINE
  8
0
 10
-184.099991
 20
142.949722
 11
-183.799988
 21
143.249725
  0
LINE
  8
0
 10
-228.800003
 20
127.500000
 11
-224.300003
 21
127.500000
  0
LINE
  8
0
 10
-228.800003
 20
152.500000
 11
-224.300003
 21
152.500000
  0
LINE
  8
0
 10
-221.350006
 20
111.715729
 11
-221.350006
 21
108.958008
  0
LINE
  8
0
 10
-214.350006
 20
111.715729
 11
-214.350006
 21
108.958008
  0
LINE
  8
0
 10
-207.350006
 20
111.715729
 11
-207.350006
 21
101.604095
  0
LINE
  8
0
 10
-180.850006
 20
108.553841
 11
-180.850006
 21
104.553841
  0
LINE
  8
0
 10
-180.850006
 20
106.253845
 11
-177.850006
 21
106.253845
  0
LINE
  8
0
 10
-180.850006
 20
106.853836
 11
-177.850006
 21
106.853836
  0
LINE
  8
0
 10
-180.850006
 20
105.253845
 11
-177.850006
 21
105.253845
  0
LINE
  8
0
 10
-180.850006
 20
107.853836
 11
-177.850006
 21
107.853836
  0
LINE
  8
0
 10
-177.850006
 20
107.853836
 11
-177.850006
 21
106.853836
  0
LINE
  8
0
 10
-177.850006
 20
106.253845
 11
-177.850006
 21
105.253845
  0
LINE
  8
0
 10
-177.850006
 20
107.728836
 11
-176.350006
 21
107.728836
  0
LINE
  8
0
 10
-177.850006
 20
107.603836
 11
-176.350006
 21
107.603836
  0
LINE
  8
0
 10
-177.850006
 20
107.478836
 11
-176.350006
 21
107.478836
  0
LINE
  8
0
 10
-177.850006
 20
107.353836
 11
-176.350006
 21
107.353836
  0
LINE
  8
0
 10
-177.850006
 20
107.228836
 11
-176.350006
 21
107.228836
  0
LINE
  8
0
 10
-177.850006
 20
107.103836
 11
-176.350006
 21
107.103836
  0
LINE
  8
0
 10
-177.850006
 20
106.978836
 11
-176.350006
 21
106.978836
  0
LINE
  8
0
 10
-177.850006
 20
106.128845
 11
-176.350006
 21
106.128845
  0
LINE
  8
0
 10
-177.850006
 20
106.003845
 11
-176.350006
 21
106.003845
  0
LINE
  8
0
 10
-177.850006
 20
105.878845
 11
-176.350006
 21
105.878845
  0
LINE
  8
0
 10
-177.850006
 20
105.753845
 11
-176.350006
 21
105.753845
  0
LINE
  8
0
 10
-177.850006
 20
105.628845
 11
-176.350006
 21
105.628845
  0
LINE
  8
0
 10
-177.850006
 20
105.503845
 11
-176.350006
 21
105.503845
  0
LINE
  8
0
 10
-177.850006
 20
105.378845
 11
-176.350006
 21
105.378845
  0
LINE
  8
0
 10
-229.350006
 20
112.707947
 11
-229.350006
 21
101.604095
  0
LINE
  8
0
 10
-229.350006
 20
118.900002
 11
-229.350006
 21
127.900002
  0
LINE
  8
0
 10
-229.350006
 20
127.900002
 11
-228.800003
 21
127.900002
  0
LINE
  8
0
 10
-229.350006
 20
118.900002
 11
-228.800003
 21
118.900002
  0
LINE
  8
0
 10
-229.350006
 20
152.100006
 11
-228.800003
 21
152.100006
  0
LINE
  8
0
 10
-229.350006
 20
161.100006
 11
-228.800003
 21
161.100006
  0
LINE
  8
0
 10
-229.350006
 20
152.100006
 11
-229.350006
 21
161.100006
  0
LINE
  8
0
 10
-212.500000
 20
170.653580
 11
-206.500000
 21
170.653580
  0
LINE
  8
0
 10
-205.500000
 20
169.653580
 11
-205.500000
 21
168.284271
  0
LINE
  8
0
 10
-213.500000
 20
169.653580
 11
-213.500000
 21
168.284271
  0
LINE
  8
0
 10
-244.000000
 20
169.000000
 11
-244.000000
 21
111.000000
  0
LINE
  8
0
 10
-241.176620
 20
165.235504
 11
-235.000000
 21
165.235504
  0
LINE
  8
0
 10
-244.000061
 20
111.000046
 11
-242.300003
 21
113.266800
  0
LINE
  8
0
 10
-244.000061
 20
168.999954
 11
-241.000061
 21
164.999954
  0
LINE
  8
0
 10
-241.000000
 20
158.421844
 11
-241.000000
 21
146.750000
  0
LINE
  8
0
 10
-241.000000
 20
133.250000
 11
-241.000000
 21
121.403114
  0
LINE
  8
0
 10
-240.000000
 20
145.750000
 11
-235.000000
 21
145.750000
  0
LINE
  8
0
 10
-240.000000
 20
134.250000
 11
-235.000000
 21
134.250000
  0
LINE
  8
0
 10
-229.350006
 20
112.707947
 11
-228.800003
 21
112.707947
  0
ARC
  8
0
 10
-221.550003
 20
108.458008
 40
0.500000
 50
90.000000
 51
180.000000
  0
ARC
  8
0
 10
-214.149994
 20
108.458008
 40
0.500000
 50
0.000000
 51
90.000000
  0
ARC
  8
0
 10
-213.350006
 20
107.043793
 40
0.500000
 50
0.000000
 51
90.000000
  0
ARC
  8
0
 10
-222.350006
 20
107.043793
 40
0.500000
 50
89.998253
 51
180.000000
  0
ARC
  8
0
 10
-222.349991
 20
97.644295
 40
0.500000
 50
180.000000
 51
270.000000
  0
ARC
  8
0
 10
-213.350006
 20
97.644295
 40
0.500000
 50
270.000000
 51
0.000000
  0
ARC
  8
0
 10
-214.149994
 20
96.795769
 40
0.500000
 50
270.000000
 51
0.000000
  0
ARC
  8
0
 10
-221.550003
 20
96.795769
 40
0.500000
 50
180.000000
 51
270.000000
  0
ARC
  8
0
 10
-214.149994
 20
103.659744
 40
0.500000
 50
270.000000
 51
0.000000
  0
ARC
  8
0
 10
-221.550003
 20
103.659737
 40
0.500000
 50
180.000000
 51
270.000000
  0
CIRCLE
  8
0
 10
-218.300003
 20
140.000000
 40
1.800000
  0
ARC
  8
0
 10
-190.654266
 20
131.518463
 40
1.854259
 50
324.217712
 51
35.782295
  0
ARC
  8
0
 10
-196.584763
 20
134.910660
 40
7.784755
 50
342.753906
 51
17.245968
  0
ARC
  8
0
 10
-191.114532
 20
138.442444
 40
2.314541
 50
328.079346
 51
31.920660
  0
ARC
  8
0
 10
-192.386307
 20
141.977158
 40
3.586298
 50
334.476166
 51
25.523735
  0
ARC
  8
0
 10
-196.264679
 20
145.781387
 40
7.464668
 50
342.385223
 51
17.614891
  0
ARC
  8
0
 10
-189.702560
 20
148.753967
 40
0.902548
 50
307.749664
 51
52.250156
  0
ARC
  8
0
 10
-179.300003
 20
133.799988
 40
1.000000
 50
270.000000
 51
0.000000
  0
ARC
  8
0
 10
-179.300003
 20
146.199997
 40
1.000000
 50
0.000000
 51
90.000000
  0
ARC
  8
0
 10
-192.750000
 20
129.468552
 40
3.000002
 50
326.386261
 51
0.000000
  0
ARC
  8
0
 10
-192.750000
 20
129.531433
 40
3.000000
 50
0.000000
 51
17.514277
  0
ARC
  8
0
 10
-192.750000
 20
150.468552
 40
2.999997
 50
340.509888
 51
0.000000
  0
ARC
  8
0
 10
-192.750000
 20
150.531433
 40
3.000000
 50
0.000000
 51
33.613850
  0
ARC
  8
0
 10
-195.899994
 20
125.504311
 40
6.100003
 50
309.601898
 51
50.398018
  0
ARC
  8
0
 10
-195.899994
 20
154.495682
 40
6.099997
 50
309.601929
 51
50.398064
  0
ARC
  8
0
 10
-212.500000
 20
169.653580
 40
1.000000
 50
90.000000
 51
180.000000
  0
ARC
  8
0
 10
-206.500000
 20
169.653580
 40
1.000000
 50
0.000000
 51
90.000000
  0
ARC
  8
0
 10
-240.000000
 20
146.750000
 40
1.000000
 50
180.000000
 51
270.000000
  0
ARC
  8
0
 10
-240.000000
 20
133.250000
 40
1.000000
 50
90.000000
 51
180.000000
  0
ARC
  8
0
 10
-218.396759
 20
112.000275
 40
0.965203
 50
197.152908
 51
231.388992
  0
ARC
  8
0
 10
-217.850006
 20
112.799080
 40
1.931886
 50
233.502457
 51
306.497528
  0
ARC
  8
0
 10
-217.303253
 20
112.000275
 40
0.965195
 50
308.610992
 51
342.846405
  0
ARC
  8
0
 10
-238.119705
 20
114.790878
 40
2.130295
 50
176.237045
 51
191.773209
  0
ARC
  8
0
 10
-237.902145
 20
114.857346
 40
2.356930
 50
192.275894
 51
225.305573
  0
ARC
  8
0
 10
-237.300003
 20
115.590446
 40
3.302724
 50
226.824829
 51
313.174988
  0
ARC
  8
0
 10
-236.697861
 20
114.857346
 40
2.356934
 50
314.694183
 51
347.723724
  0
ARC
  8
0
 10
-236.480301
 20
114.790878
 40
2.130298
 50
348.226379
 51
356.237244
  0
ARC
  8
0
 10
-225.631317
 20
104.432526
 40
0.425080
 50
345.893921
 51
14.107077
  0
ARC
  8
0
 10
-225.742447
 20
104.391792
 40
0.542930
 50
15.417746
 51
51.388477
  0
ARC
  8
0
 10
-226.049988
 20
103.942459
 40
1.086690
 50
53.502678
 51
126.497559
  0
ARC
  8
0
 10
-226.357529
 20
104.391785
 40
0.542927
 50
128.611526
 51
164.582260
  0
ARC
  8
0
 10
-226.468658
 20
104.432526
 40
0.425080
 50
165.893921
 51
194.107071
  0
ARC
  8
0
 10
-226.357529
 20
104.473259
 40
0.542930
 50
195.417740
 51
231.388474
  0
ARC
  8
0
 10
-226.049988
 20
104.922592
 40
1.086690
 50
233.502686
 51
306.497559
  0
ARC
  8
0
 10
-225.742447
 20
104.473267
 40
0.542927
 50
308.611511
 51
344.582245
  0
ARC
  8
0
 10
-235.836212
 20
114.790878
 40
1.486211
 50
354.668640
 51
14.106581
  0
ARC
  8
0
 10
-236.224747
 20
114.648445
 40
1.898239
 50
15.417928
 51
51.388382
  0
ARC
  8
0
 10
-237.300003
 20
113.077499
 40
3.799348
 50
53.502098
 51
126.497902
  0
ARC
  8
0
 10
-238.375259
 20
114.648445
 40
1.898234
 50
128.611618
 51
164.582291
  0
ARC
  8
0
 10
-238.763794
 20
114.790878
 40
1.486207
 50
165.893707
 51
185.354126
  0
ARC
  8
0
 10
-237.300018
 20
118.192398
 40
4.532875
 50
245.098007
 51
294.888367
  0
ARC
  8
0
 10
-225.305679
 20
104.432526
 40
0.755698
 50
345.893616
 51
14.106391
  0
ARC
  8
0
 10
-225.503235
 20
104.360100
 40
0.965201
 50
15.417976
 51
51.388996
  0
ARC
  8
0
 10
-226.049988
 20
103.561302
 40
1.931880
 50
53.502323
 51
126.497673
  0
ARC
  8
0
 10
-226.596741
 20
104.360100
 40
0.965195
 50
128.611008
 51
164.582031
  0
ARC
  8
0
 10
-226.794296
 20
104.432526
 40
0.755698
 50
165.893616
 51
194.106384
  0
ARC
  8
0
 10
-226.596741
 20
104.504951
 40
0.965201
 50
195.417969
 51
231.388992
  0
ARC
  8
0
 10
-226.049988
 20
105.303749
 40
1.931880
 50
233.502319
 51
306.497681
  0
ARC
  8
0
 10
-225.503235
 20
104.504951
 40
0.965195
 50
308.610992
 51
344.582031
  0
ARC
  8
0
 10
-218.669693
 20
99.765617
 40
2.130295
 50
176.237045
 51
191.773209
  0
ARC
  8
0
 10
-218.452133
 20
99.832085
 40
2.356930
 50
192.275894
 51
225.305573
  0
ARC
  8
0
 10
-217.849991
 20
100.565186
 40
3.302724
 50
226.824829
 51
313.174988
  0
ARC
  8
0
 10
-217.247849
 20
99.832085
 40
2.356934
 50
314.694183
 51
347.723724
  0
ARC
  8
0
 10
-217.030289
 20
99.765617
 40
2.130298
 50
348.226379
 51
356.237030
  0
ARC
  8
0
 10
-216.386200
 20
99.765610
 40
1.486211
 50
354.668945
 51
14.106581
  0
ARC
  8
0
 10
-216.774734
 20
99.623177
 40
1.898239
 50
15.417928
 51
51.388382
  0
ARC
  8
0
 10
-217.849991
 20
98.052231
 40
3.799348
 50
53.502098
 51
126.497902
  0
ARC
  8
0
 10
-218.925247
 20
99.623177
 40
1.898234
 50
128.611618
 51
164.582291
  0
ARC
  8
0
 10
-219.313782
 20
99.765610
 40
1.486207
 50
165.893707
 51
185.354126
  0
ARC
  8
0
 10
-217.850006
 20
103.167130
 40
4.532875
 50
245.098007
 51
294.888367
  0
ARC
  8
0
 10
-219.707077
 20
116.311920
 40
0.907122
 50
345.895721
 51
14.104265
  0
ARC
  8
0
 10
-219.944077
 20
116.225052
 40
1.158449
 50
15.414836
 51
51.383331
  0
ARC
  8
0
 10
-220.599960
 20
115.266953
 40
2.317961
 50
53.496941
 51
126.503059
  0
ARC
  8
0
 10
-221.255844
 20
116.225052
 40
1.158442
 50
128.616669
 51
164.585159
  0
ARC
  8
0
 10
-221.492844
 20
116.311920
 40
0.907122
 50
165.895737
 51
194.104263
  0
ARC
  8
0
 10
-221.255844
 20
116.398788
 40
1.158449
 50
195.414841
 51
231.383331
  0
ARC
  8
0
 10
-220.599960
 20
117.356888
 40
2.317961
 50
233.496933
 51
306.503052
  0
ARC
  8
0
 10
-219.944077
 20
116.398788
 40
1.158442
 50
308.616669
 51
344.585175
  0
ARC
  8
0
 10
-221.492889
 20
163.688095
 40
0.907122
 50
165.895737
 51
194.104263
  0
ARC
  8
0
 10
-221.255890
 20
163.774963
 40
1.158449
 50
195.414841
 51
231.383331
  0
ARC
  8
0
 10
-220.600006
 20
164.733063
 40
2.317961
 50
233.496933
 51
306.503052
  0
ARC
  8
0
 10
-219.944122
 20
163.774963
 40
1.158442
 50
308.616669
 51
344.585175
  0
ARC
  8
0
 10
-219.707123
 20
163.688095
 40
0.907122
 50
345.895721
 51
14.104265
  0
ARC
  8
0
 10
-219.944122
 20
163.601227
 40
1.158449
 50
15.414836
 51
51.383331
  0
ARC
  8
0
 10
-220.600006
 20
162.643127
 40
2.317961
 50
53.496941
 51
126.503059
  0
ARC
  8
0
 10
-221.255890
 20
163.601227
 40
1.158442
 50
128.616669
 51
164.585159
  0
POLYLINE
  8
0
 66
     1
  0
VERTEX
  8
0
 10
-241.000000
 20
133.250000
  0
VERTEX
  8
0
 10
-240.950134
 20
133.749786
  0
VERTEX
  8
0
 10
-241.000000
 20
134.250000
  0
VERTEX
  8
0
 10
-241.141968
 20
134.708038
  0
VERTEX
  8
0
 10
-241.405502
 20
135.151520
  0
VERTEX
  8
0
 10
-241.873978
 20
135.665482
  0
VERTEX
  8
0
 10
-242.290314
 20
136.112198
  0
VERTEX
  8
0
 10
-242.427673
 20
136.307999
  0
VERTEX
  8
0
 10
-242.613358
 20
136.666656
  0
VERTEX
  8
0
 10
-243.004776
 20
137.583206
  0
VERTEX
  8
0
 10
-243.272202
 20
138.484848
  0
VERTEX
  8
0
 10
-243.389069
 20
139.237106
  0
VERTEX
  8
0
 10
-243.425430
 20
140.000000
  0
VERTEX
  8
0
 10
-243.394501
 20
140.737808
  0
VERTEX
  8
0
 10
-243.272202
 20
141.515152
  0
VERTEX
  8
0
 10
-242.963379
 20
142.514832
  0
VERTEX
  8
0
 10
-242.613358
 20
143.333344
  0
VERTEX
  8
0
 10
-242.488251
 20
143.585922
  0
VERTEX
  8
0
 10
-242.290314
 20
143.887802
  0
VERTEX
  8
0
 10
-241.837433
 20
144.383530
  0
VERTEX
  8
0
 10
-241.405502
 20
144.848480
  0
VERTEX
  8
0
 10
-241.154053
 20
145.275360
  0
VERTEX
  8
0
 10
-241.000000
 20
145.750000
  0
VERTEX
  8
0
 10
-240.949982
 20
146.250916
  0
VERTEX
  8
0
 10
-241.000000
 20
146.750000
  0
SEQEND
  0
POLYLINE
  8
0
 66
     1
  0
VERTEX
  8
0
 10
-241.203735
 20
165.491226
  0
VERTEX
  8
0
 10
-242.048935
 20
165.257584
  0
VERTEX
  8
0
 10
-242.834610
 20
164.871887
  0
VERTEX
  8
0
 10
-243.417755
 20
164.230057
  0
VERTEX
  8
0
 10
-243.526230
 20
163.389465
  0
VERTEX
  8
0
 10
-243.216583
 20
162.410858
  0
VERTEX
  8
0
 10
-242.704926
 20
161.443451
  0
VERTEX
  8
0
 10
-242.207336
 20
160.636414
  0
VERTEX
  8
0
 10
-241.814056
 20
159.972717
  0
VERTEX
  8
0
 10
-241.459198
 20
159.333664
  0
VERTEX
  8
0
 10
-241.203735
 20
158.843903
  0
VERTEX
  8
0
 10
-241.100906
 20
158.633865
  0
VERTEX
  8
0
 10
-241.000000
 20
158.421844
  0
SEQEND
  0
POLYLINE
  8
0
 66
     1
  0
VERTEX
  8
0
 10
-242.299164
 20
119.215736
  0
VERTEX
  8
0
 10
-242.816193
 20
118.296616
  0
VERTEX
  8
0
 10
-243.249222
 20
117.314774
  0
VERTEX
  8
0
 10
-243.486862
 20
116.421967
  0
VERTEX
  8
0
 10
-243.417755
 20
115.769951
  0
VERTEX
  8
0
 10
-242.926117
 20
115.251350
  0
VERTEX
  8
0
 10
-242.299957
 20
114.876472
  0
SEQEND
  0
POINT
  8
0
 10
-205.500000
 20
40.000000
  0
POINT
  8
0
 10
-230.000000
 20
40.000000
  0
LINE
  8
0
 10
-235.000015
 20
5.499985
 11
-235.000015
 21
11.255341
  0
LINE
  8
0
 10
-235.000000
 20
74.500008
 11
-229.350006
 21
74.500008
  0
LINE
  8
0
 10
-235.000031
 20
5.500000
 11
-229.350006
 21
5.500000
  0
LINE
  8
0
 10
-221.550003
 20
75.425835
 11
-214.149994
 21
75.425835
  0
LINE
  8
0
 10
-222.350006
 20
77.405739
 11
-213.350006
 21
77.405739
  0
LINE
  8
0
 10
-222.350006
 20
82.855484
 11
-213.350006
 21
82.855484
  0
LINE
  8
0
 10
-221.550003
 20
83.704018
 11
-214.149994
 21
83.704018
  0
LINE
  8
0
 10
-221.550003
 20
71.041779
 11
-214.149994
 21
71.041779
  0
LINE
  8
0
 10
-213.649994
 20
71.541763
 11
-213.649994
 21
76.340034
  0
LINE
  8
0
 10
-212.850006
 20
72.955978
 11
-212.850006
 21
82.355476
  0
LINE
  8
0
 10
-222.050003
 20
71.541771
 11
-222.050003
 21
76.340034
  0
LINE
  8
0
 10
-222.850006
 20
72.955978
 11
-222.850006
 21
82.355476
  0
LINE
  8
0
 10
-221.550003
 20
76.840042
 11
-214.149994
 21
76.840042
  0
LINE
  8
0
 10
-223.350006
 20
72.455986
 11
-222.050003
 21
72.455986
  0
LINE
  8
0
 10
-222.050003
 20
82.855476
 11
-222.050003
 21
83.204010
  0
LINE
  8
0
 10
-213.649994
 20
82.855476
 11
-213.649994
 21
83.204010
  0
LINE
  8
0
 10
-213.649994
 20
72.455986
 11
-212.350006
 21
72.455986
  0
LINE
  8
0
 10
-229.350006
 20
72.738831
 11
-223.350006
 21
72.738831
  0
LINE
  8
0
 10
-212.350006
 20
72.455986
 11
-212.350006
 21
78.395676
  0
LINE
  8
0
 10
-223.350006
 20
72.455986
 11
-223.350006
 21
78.395676
  0
LINE
  8
0
 10
-214.350006
 20
65.243492
 11
-214.350006
 21
71.041763
  0
LINE
  8
0
 10
-221.350006
 20
65.243492
 11
-221.350006
 21
71.041771
  0
LINE
  8
0
 10
-212.350006
 20
72.738831
 11
-207.350006
 21
72.738831
  0
LINE
  8
0
 10
-216.349945
 20
68.071915
 11
-216.349945
 21
65.243492
  0
LINE
  8
0
 10
-219.350006
 20
68.071922
 11
-219.350006
 21
65.243492
  0
LINE
  8
0
 10
-207.350006
 20
67.294098
 11
-207.350006
 21
78.395676
  0
LINE
  8
0
 10
-229.350006
 20
78.395683
 11
-223.350006
 21
78.395683
  0
LINE
  8
0
 10
-223.350006
 20
78.112846
 11
-222.850006
 21
78.112846
  0
LINE
  8
0
 10
-212.850006
 20
78.112846
 11
-212.350006
 21
78.112846
  0
LINE
  8
0
 10
-212.350006
 20
78.395683
 11
-207.350006
 21
78.395683
  0
LINE
  8
0
 10
-229.350006
 20
67.294106
 11
-221.350006
 21
67.294106
  0
LINE
  8
0
 10
-224.800034
 20
66.869843
 11
-221.350006
 21
66.869843
  0
LINE
  8
0
 10
-224.799973
 20
65.809189
 11
-221.350006
 21
65.809189
  0
LINE
  8
0
 10
-219.350006
 20
67.294106
 11
-216.350006
 21
67.294106
  0
LINE
  8
0
 10
-214.350006
 20
67.294106
 11
-207.350006
 21
67.294106
  0
LINE
  8
0
 10
-214.350006
 20
66.869843
 11
-207.500000
 21
66.869843
  0
LINE
  8
0
 10
-214.350006
 20
65.809189
 11
-207.500000
 21
65.809189
  0
LINE
  8
0
 10
-225.800018
 20
66.162735
 11
-224.800034
 21
66.869835
  0
LINE
  8
0
 10
-225.800003
 20
65.102066
 11
-224.800018
 21
65.809166
  0
LINE
  8
0
 10
-227.300018
 20
66.162712
 11
-225.800018
 21
66.162712
  0
LINE
  8
0
 10
-225.800018
 20
65.102051
 11
-225.800018
 21
66.162704
  0
LINE
  8
0
 10
-205.350006
 20
70.945930
 11
-205.350006
 21
75.945930
  0
LINE
  8
0
 10
-207.350006
 20
70.945938
 11
-205.350006
 21
70.945938
  0
LINE
  8
0
 10
-205.350006
 20
71.445938
 11
-180.850006
 21
71.445938
  0
LINE
  8
0
 10
-205.350006
 20
75.445938
 11
-180.850006
 21
75.445938
  0
LINE
  8
0
 10
-207.350006
 20
75.945938
 11
-205.350006
 21
75.945938
  0
LINE
  8
0
 10
-240.800003
 20
60.602097
 11
-239.300018
 21
60.602097
  0
LINE
  8
0
 10
-242.300003
 20
61.673592
 11
-239.300018
 21
61.673592
  0
LINE
  8
0
 10
-242.300003
 20
68.744659
 11
-239.300018
 21
68.744659
  0
LINE
  8
0
 10
-242.300003
 20
58.596886
 11
-242.300003
 21
68.744652
  0
LINE
  8
0
 10
-240.800003
 20
59.744171
 11
-240.800003
 21
60.602089
  0
LINE
  8
0
 10
-239.300018
 20
57.536224
 11
-239.300018
 21
61.673584
  0
LINE
  8
0
 10
-235.300018
 20
57.536224
 11
-235.300018
 21
61.673584
  0
LINE
  8
0
 10
-235.300018
 20
60.602097
 11
-228.800018
 21
60.602097
  0
LINE
  8
0
 10
-239.300018
 20
60.441277
 11
-235.300018
 21
60.441277
  0
LINE
  8
0
 10
-239.300018
 20
69.633667
 11
-235.300018
 21
69.633667
  0
LINE
  8
0
 10
-235.300018
 20
68.744659
 11
-229.350006
 21
68.744659
  0
LINE
  8
0
 10
-235.300018
 20
61.673592
 11
-227.300018
 21
61.673592
  0
LINE
  8
0
 10
-239.300018
 20
68.744652
 11
-239.300018
 21
69.633659
  0
LINE
  8
0
 10
-235.300018
 20
68.744652
 11
-235.300018
 21
69.633659
  0
LINE
  8
0
 10
-235.000015
 20
68.744652
 11
-235.000015
 21
74.500000
  0
LINE
  8
0
 10
-239.300018
 20
57.536232
 11
-235.300018
 21
57.536232
  0
LINE
  8
0
 10
-242.300003
 20
58.596893
 11
-239.300018
 21
58.596893
  0
LINE
  8
0
 10
-242.300003
 20
59.744179
 11
-239.300018
 21
59.744179
  0
LINE
  8
0
 10
-227.300018
 20
67.294106
 11
-227.300018
 21
59.535500
  0
LINE
  8
0
 10
-225.800018
 20
65.102051
 11
-225.800018
 21
59.531227
  0
LINE
  8
0
 10
-205.500000
 20
62.734520
 11
-205.500000
 21
9.054062
  0
LINE
  8
0
 10
-213.500000
 20
64.183060
 11
-213.500000
 21
40.707115
  0
LINE
  8
0
 10
-224.000000
 20
45.099998
 11
-224.000000
 21
34.050003
  0
LINE
  8
0
 10
-223.500000
 20
40.000008
 11
-216.500000
 21
40.000008
  0
LINE
  8
0
 10
-223.500000
 20
37.171585
 11
-218.500000
 21
37.171585
  0
LINE
  8
0
 10
-223.500000
 20
28.686295
 11
-218.500000
 21
28.686295
  0
LINE
  8
0
 10
-216.800018
 20
54.990669
 11
-215.345306
 21
54.990669
  0
LINE
  8
0
 10
-216.800018
 20
52.162247
 11
-215.345306
 21
52.162247
  0
LINE
  8
0
 10
-215.345291
 20
52.162247
 11
-214.190598
 21
53.576462
  0
LINE
  8
0
 10
-214.190582
 20
53.576431
 11
-215.345276
 21
54.990646
  0
LINE
  8
0
 10
-216.800018
 20
53.222900
 11
-215.345306
 21
53.222900
  0
LINE
  8
0
 10
-214.912262
 20
52.692574
 11
-215.345261
 21
53.222889
  0
LINE
  8
0
 10
-215.345306
 20
54.990662
 11
-215.345306
 21
53.222893
  0
LINE
  8
0
 10
-206.500000
 20
55.900368
 11
-212.500000
 21
55.900368
  0
LINE
  8
0
 10
-206.500000
 20
17.028580
 11
-212.500000
 21
17.028580
  0
LINE
  8
0
 10
-205.500000
 20
26.687851
 11
-213.997253
 21
26.687851
  0
LINE
  8
0
 10
-205.500000
 20
39.170029
 11
-213.997253
 21
39.170029
  0
LINE
  8
0
 10
-213.500000
 20
25.158661
 11
-213.500000
 21
14.190811
  0
LINE
  8
0
 10
-214.000000
 20
59.798996
 11
-222.700012
 21
59.798996
  0
LINE
  8
0
 10
-215.200012
 20
60.647522
 11
-221.500000
 21
60.647522
  0
LINE
  8
0
 10
-206.100006
 20
64.183060
 11
-213.399994
 21
64.183060
  0
LINE
  8
0
 10
-206.100006
 20
63.334534
 11
-212.900009
 21
63.334534
  0
LINE
  8
0
 10
-204.300018
 20
57.091888
 11
-205.500000
 21
57.091888
  0
LINE
  8
0
 10
-203.320984
 20
67.188080
 11
-204.300018
 21
67.188080
  0
LINE
  8
0
 10
-203.320984
 20
60.188080
 11
-204.300018
 21
60.188080
  0
LINE
  8
0
 10
-214.000000
 20
59.798996
 11
-214.000000
 21
63.583046
  0
LINE
  8
0
 10
-228.800018
 20
94.005005
 11
-228.800018
 21
78.395683
  0
LINE
  8
0
 10
-224.300018
 20
94.005005
 11
-224.300018
 21
78.395683
  0
LINE
  8
0
 10
-222.800018
 20
57.000328
 11
-213.500000
 21
57.000328
  0
LINE
  8
0
 10
-224.300003
 20
94.000320
 11
-192.300018
 21
94.000320
  0
LINE
  8
0
 10
-192.300018
 20
93.994995
 11
-192.300018
 21
75.445938
  0
LINE
  8
0
 10
-192.300018
 20
87.212509
 11
-189.150024
 21
87.212509
  0
LINE
  8
0
 10
-192.300018
 20
87.051315
 11
-189.150024
 21
87.051315
  0
LINE
  8
0
 10
-192.300018
 20
79.056183
 11
-189.150024
 21
79.056183
  0
LINE
  8
0
 10
-192.300018
 20
82.973152
 11
-189.150024
 21
82.973152
  0
LINE
  8
0
 10
-188.800018
 20
87.131897
 11
-188.800018
 21
81.014656
  0
LINE
  8
0
 10
-183.800018
 20
84.834335
 11
-183.800018
 21
81.434334
  0
LINE
  8
0
 10
-188.800018
 20
85.134346
 11
-184.100006
 21
85.134346
  0
LINE
  8
0
 10
-188.800018
 20
81.134346
 11
-184.100006
 21
81.134346
  0
LINE
  8
0
 10
-184.100006
 20
85.134331
 11
-183.800003
 21
84.834335
  0
LINE
  8
0
 10
-183.800018
 20
81.434326
 11
-184.100021
 21
81.134338
  0
LINE
  8
0
 10
-184.100006
 20
85.134338
 11
-184.100006
 21
81.134346
  0
LINE
  8
0
 10
-188.800018
 20
84.884346
 11
-183.850006
 21
84.884346
  0
LINE
  8
0
 10
-188.800018
 20
81.384346
 11
-183.850006
 21
81.384346
  0
LINE
  8
0
 10
-178.300018
 20
72.145935
 11
-178.300018
 21
59.963783
  0
LINE
  8
0
 10
-192.300018
 20
58.963783
 11
-179.300018
 21
58.963783
  0
LINE
  8
0
 10
-192.300018
 20
57.000328
 11
-192.300018
 21
71.445938
  0
LINE
  8
0
 10
-192.011566
 20
68.888405
 11
-192.300018
 21
68.888405
  0
LINE
  8
0
 10
-192.011566
 20
78.288406
 11
-192.300018
 21
78.288406
  0
LINE
  8
0
 10
-192.011566
 20
78.288399
 11
-192.011566
 21
75.445938
  0
LINE
  8
0
 10
-191.600006
 20
62.663780
 11
-191.600006
 21
69.261734
  0
LINE
  8
0
 10
-191.200012
 20
63.563774
 11
-191.200012
 21
68.763771
  0
LINE
  8
0
 10
-189.750000
 20
66.132332
 11
-189.750000
 21
66.195213
  0
LINE
  8
0
 10
-191.200012
 20
68.763779
 11
-191.600006
 21
68.763779
  0
LINE
  8
0
 10
-191.200012
 20
63.563782
 11
-191.600006
 21
63.563782
  0
LINE
  8
0
 10
-191.600006
 20
62.663788
 11
-192.300018
 21
62.663788
  0
LINE
  8
0
 10
-228.800003
 20
94.000320
 11
-224.300003
 21
94.000320
  0
LINE
  8
0
 10
-228.800018
 20
44.000328
 11
-226.346008
 21
44.000328
  0
LINE
  8
0
 10
-234.350006
 20
88.310425
 11
-234.350006
 21
80.090210
  0
LINE
  8
0
 10
-234.050003
 20
88.450317
 11
-234.050003
 21
79.950317
  0
LINE
  8
0
 10
-234.050003
 20
88.450325
 11
-229.350006
 21
88.450325
  0
LINE
  8
0
 10
-234.050003
 20
79.950325
 11
-229.350006
 21
79.950325
  0
LINE
  8
0
 10
-234.350021
 20
88.310432
 11
-234.050018
 21
88.450325
  0
LINE
  8
0
 10
-234.350021
 20
80.090218
 11
-234.050018
 21
79.950325
  0
LINE
  8
0
 10
-234.050003
 20
86.450325
 11
-231.679718
 21
86.450325
  0
LINE
  8
0
 10
-234.050003
 20
84.450325
 11
-232.834412
 21
84.450325
  0
LINE
  8
0
 10
-192.011566
 20
71.445938
 11
-192.011566
 21
68.888397
  0
LINE
  8
0
 10
-207.350006
 20
78.184601
 11
-192.300018
 21
78.184601
  0
LINE
  8
0
 10
-205.500000
 20
57.000328
 11
-192.300018
 21
57.000328
  0
LINE
  8
0
 10
-224.300018
 20
65.809189
 11
-224.300018
 21
44.000320
  0
LINE
  8
0
 10
-226.346008
 20
44.000328
 11
-224.300018
 21
44.000328
  0
LINE
  8
0
 10
-222.700012
 20
65.809189
 11
-222.700012
 21
59.798988
  0
LINE
  8
0
 10
-221.500000
 20
65.183060
 11
-221.500000
 21
60.647514
  0
LINE
  8
0
 10
-215.200012
 20
65.183060
 11
-215.200012
 21
60.647514
  0
LINE
  8
0
 10
-204.300018
 20
71.445938
 11
-204.300018
 21
57.091881
  0
LINE
  8
0
 10
-205.500000
 20
63.583046
 11
-205.500000
 21
62.734520
  0
LINE
  8
0
 10
-180.850006
 20
75.445938
 11
-180.850006
 21
71.445938
  0
LINE
  8
0
 10
-180.850006
 20
73.145935
 11
-177.850006
 21
73.145935
  0
LINE
  8
0
 10
-180.850006
 20
73.745941
 11
-177.850006
 21
73.745941
  0
LINE
  8
0
 10
-180.850006
 20
72.145935
 11
-177.850006
 21
72.145935
  0
LINE
  8
0
 10
-180.850006
 20
74.745941
 11
-177.850006
 21
74.745941
  0
LINE
  8
0
 10
-177.850006
 20
74.745941
 11
-177.850006
 21
73.745941
  0
LINE
  8
0
 10
-177.850006
 20
73.145935
 11
-177.850006
 21
72.145935
  0
LINE
  8
0
 10
-177.850006
 20
74.620941
 11
-176.350006
 21
74.620941
  0
LINE
  8
0
 10
-177.850006
 20
74.495941
 11
-176.350006
 21
74.495941
  0
LINE
  8
0
 10
-177.850006
 20
74.370941
 11
-176.350006
 21
74.370941
  0
LINE
  8
0
 10
-177.850006
 20
74.245941
 11
-176.350006
 21
74.245941
  0
LINE
  8
0
 10
-177.850006
 20
74.120941
 11
-176.350006
 21
74.120941
  0
LINE
  8
0
 10
-177.850006
 20
73.995941
 11
-176.350006
 21
73.995941
  0
LINE
  8
0
 10
-177.850006
 20
73.870941
 11
-176.350006
 21
73.870941
  0
LINE
  8
0
 10
-177.850006
 20
73.020935
 11
-176.350006
 21
73.020935
  0
LINE
  8
0
 10
-177.850006
 20
72.895935
 11
-176.350006
 21
72.895935
  0
LINE
  8
0
 10
-177.850006
 20
72.770935
 11
-176.350006
 21
72.770935
  0
LINE
  8
0
 10
-177.850006
 20
72.645935
 11
-176.350006
 21
72.645935
  0
LINE
  8
0
 10
-177.850006
 20
72.520935
 11
-176.350006
 21
72.520935
  0
LINE
  8
0
 10
-177.850006
 20
72.395935
 11
-176.350006
 21
72.395935
  0
LINE
  8
0
 10
-177.850006
 20
72.270935
 11
-176.350006
 21
72.270935
  0
LINE
  8
0
 10
-222.800018
 20
46.200001
 11
-217.400009
 21
46.200001
  0
LINE
  8
0
 10
-222.800018
 20
56.200001
 11
-217.400009
 21
56.200001
  0
LINE
  8
0
 10
-216.800018
 20
55.599998
 11
-216.800018
 21
46.799999
  0
LINE
  8
0
 10
-229.350006
 20
67.294106
 11
-229.350006
 21
78.395676
  0
LINE
  8
0
 10
-204.300018
 20
65.183060
 11
-222.700012
 21
65.183060
  0
LINE
  8
0
 10
-205.350006
 20
8.554062
 11
-180.850006
 21
8.554062
  0
LINE
  8
0
 10
-205.350006
 20
4.554062
 11
-180.850006
 21
4.554062
  0
LINE
  8
0
 10
-177.850006
 20
7.104061
 11
-176.350006
 21
7.104061
  0
LINE
  8
0
 10
-177.850006
 20
7.229061
 11
-176.350006
 21
7.229061
  0
LINE
  8
0
 10
-177.850006
 20
7.479061
 11
-176.350006
 21
7.479061
  0
LINE
  8
0
 10
-177.850006
 20
7.729061
 11
-176.350006
 21
7.729061
  0
LINE
  8
0
 10
-177.850006
 20
7.354061
 11
-176.350006
 21
7.354061
  0
LINE
  8
0
 10
-177.850006
 20
7.604061
 11
-176.350006
 21
7.604061
  0
LINE
  8
0
 10
-180.850006
 20
4.554062
 11
-180.850006
 21
8.554062
  0
LINE
  8
0
 10
-180.850006
 20
6.854061
 11
-177.850006
 21
6.854061
  0
LINE
  8
0
 10
-180.850006
 20
6.254063
 11
-177.850006
 21
6.254063
  0
LINE
  8
0
 10
-180.850006
 20
7.854061
 11
-177.850006
 21
7.854061
  0
LINE
  8
0
 10
-180.850006
 20
5.254063
 11
-177.850006
 21
5.254063
  0
LINE
  8
0
 10
-177.850006
 20
5.254063
 11
-177.850006
 21
6.254063
  0
LINE
  8
0
 10
-177.850006
 20
6.854061
 11
-177.850006
 21
7.854061
  0
LINE
  8
0
 10
-177.850006
 20
5.379063
 11
-176.350006
 21
5.379063
  0
LINE
  8
0
 10
-177.850006
 20
5.504063
 11
-176.350006
 21
5.504063
  0
LINE
  8
0
 10
-177.850006
 20
5.629063
 11
-176.350006
 21
5.629063
  0
LINE
  8
0
 10
-177.850006
 20
5.754063
 11
-176.350006
 21
5.754063
  0
LINE
  8
0
 10
-177.850006
 20
5.879063
 11
-176.350006
 21
5.879063
  0
LINE
  8
0
 10
-177.850006
 20
6.004063
 11
-176.350006
 21
6.004063
  0
LINE
  8
0
 10
-177.850006
 20
6.129063
 11
-176.350006
 21
6.129063
  0
LINE
  8
0
 10
-177.850006
 20
6.979061
 11
-176.350006
 21
6.979061
  0
LINE
  8
0
 10
-205.350006
 20
9.054070
 11
-205.350006
 21
4.054070
  0
LINE
  8
0
 10
-207.350006
 20
4.054062
 11
-205.350006
 21
4.054062
  0
LINE
  8
0
 10
-207.350006
 20
9.054062
 11
-205.350006
 21
9.054062
  0
LINE
  8
0
 10
-207.350006
 20
12.705902
 11
-207.350006
 21
1.604324
  0
LINE
  8
0
 10
-214.350006
 20
12.705894
 11
-207.350006
 21
12.705894
  0
LINE
  8
0
 10
-212.350006
 20
7.261169
 11
-207.350006
 21
7.261169
  0
LINE
  8
0
 10
-212.350006
 20
1.604317
 11
-207.350006
 21
1.604317
  0
LINE
  8
0
 10
-212.850006
 20
7.044022
 11
-212.850006
 21
-2.355476
  0
LINE
  8
0
 10
-212.350006
 20
7.544014
 11
-212.350006
 21
1.604324
  0
LINE
  8
0
 10
-212.850006
 20
1.887154
 11
-212.350006
 21
1.887154
  0
LINE
  8
0
 10
-214.350006
 20
13.130157
 11
-207.500000
 21
13.130157
  0
LINE
  8
0
 10
-216.350006
 20
14.756500
 11
-214.350006
 21
14.756500
  0
LINE
  8
0
 10
-214.350006
 20
14.190811
 11
-207.500000
 21
14.190811
  0
LINE
  8
0
 10
-216.349945
 20
11.928085
 11
-216.349945
 21
14.756508
  0
LINE
  8
0
 10
-219.350006
 20
14.190811
 11
-216.350006
 21
14.190811
  0
LINE
  8
0
 10
-219.350006
 20
13.130157
 11
-216.350006
 21
13.130157
  0
LINE
  8
0
 10
-219.350006
 20
12.705894
 11
-216.350006
 21
12.705894
  0
LINE
  8
0
 10
-214.350006
 20
14.756508
 11
-214.350006
 21
8.958237
  0
LINE
  8
0
 10
-219.350006
 20
11.928078
 11
-219.350006
 21
14.756508
  0
LINE
  8
0
 10
-221.350006
 20
14.756500
 11
-219.350006
 21
14.756500
  0
LINE
  8
0
 10
-221.350006
 20
14.756508
 11
-221.350006
 21
8.958229
  0
LINE
  8
0
 10
-221.550003
 20
8.958221
 11
-214.149994
 21
8.958221
  0
LINE
  8
0
 10
-213.649994
 20
7.544014
 11
-212.350006
 21
7.544014
  0
LINE
  8
0
 10
-213.649994
 20
8.458237
 11
-213.649994
 21
3.659966
  0
LINE
  8
0
 10
-221.550003
 20
4.574165
 11
-214.149994
 21
4.574165
  0
LINE
  8
0
 10
-221.550003
 20
3.159958
 11
-214.149994
 21
3.159958
  0
LINE
  8
0
 10
-222.350006
 20
2.594261
 11
-213.350006
 21
2.594261
  0
LINE
  8
0
 10
-222.350006
 20
-2.855484
 11
-213.350006
 21
-2.855484
  0
LINE
  8
0
 10
-213.649994
 20
-2.855476
 11
-213.649994
 21
-3.204010
  0
LINE
  8
0
 10
-221.550003
 20
-3.704018
 11
-214.149994
 21
-3.704018
  0
LINE
  8
0
 10
-222.050003
 20
-2.855476
 11
-222.050003
 21
-3.204010
  0
LINE
  8
0
 10
-222.850006
 20
7.044022
 11
-222.850006
 21
-2.355476
  0
LINE
  8
0
 10
-222.050003
 20
8.458229
 11
-222.050003
 21
3.659966
  0
LINE
  8
0
 10
-223.350006
 20
7.544014
 11
-223.350006
 21
1.604324
  0
LINE
  8
0
 10
-223.350006
 20
7.544014
 11
-222.050003
 21
7.544014
  0
LINE
  8
0
 10
-223.350006
 20
1.887154
 11
-222.850006
 21
1.887154
  0
LINE
  8
0
 10
-229.350006
 20
1.604317
 11
-223.350006
 21
1.604317
  0
LINE
  8
0
 10
-229.350006
 20
7.261169
 11
-223.350006
 21
7.261169
  0
LINE
  8
0
 10
-229.350006
 20
12.705894
 11
-221.350006
 21
12.705894
  0
LINE
  8
0
 10
-225.800003
 20
13.837267
 11
-224.800018
 21
13.130167
  0
LINE
  8
0
 10
-225.799988
 20
14.897936
 11
-224.800003
 21
14.190836
  0
LINE
  8
0
 10
-225.800018
 20
14.897949
 11
-225.800018
 21
13.837296
  0
LINE
  8
0
 10
-225.800018
 20
14.897949
 11
-225.800018
 21
20.468773
  0
LINE
  8
0
 10
-227.300018
 20
12.705894
 11
-227.300018
 21
20.464500
  0
LINE
  8
0
 10
-235.300018
 20
18.326408
 11
-227.300018
 21
18.326408
  0
LINE
  8
0
 10
-229.350006
 20
12.705894
 11
-229.350006
 21
1.604324
  0
LINE
  8
0
 10
-235.300018
 20
11.255341
 11
-229.350006
 21
11.255341
  0
LINE
  8
0
 10
-235.300018
 20
19.397903
 11
-228.800018
 21
19.397903
  0
LINE
  8
0
 10
-239.300018
 20
22.463768
 11
-235.300018
 21
22.463768
  0
LINE
  8
0
 10
-235.300018
 20
22.463776
 11
-235.300018
 21
18.326416
  0
LINE
  8
0
 10
-239.300018
 20
19.558723
 11
-235.300018
 21
19.558723
  0
LINE
  8
0
 10
-239.300018
 20
22.463776
 11
-239.300018
 21
18.326416
  0
LINE
  8
0
 10
-242.300003
 20
21.403107
 11
-239.300018
 21
21.403107
  0
LINE
  8
0
 10
-242.300003
 20
20.255821
 11
-239.300018
 21
20.255821
  0
LINE
  8
0
 10
-240.800003
 20
20.255829
 11
-240.800003
 21
19.397911
  0
LINE
  8
0
 10
-240.800003
 20
19.397903
 11
-239.300018
 21
19.397903
  0
LINE
  8
0
 10
-242.300003
 20
18.326408
 11
-239.300018
 21
18.326408
  0
LINE
  8
0
 10
-242.300003
 20
21.403114
 11
-242.300003
 21
11.255348
  0
LINE
  8
0
 10
-235.300018
 20
11.255348
 11
-235.300018
 21
10.366341
  0
LINE
  8
0
 10
-239.300018
 20
10.366333
 11
-235.300018
 21
10.366333
  0
LINE
  8
0
 10
-242.300003
 20
11.255341
 11
-239.300018
 21
11.255341
  0
LINE
  8
0
 10
-239.300018
 20
11.255348
 11
-239.300018
 21
10.366341
  0
LINE
  8
0
 10
-235.000015
 20
19.397903
 11
-235.000015
 21
60.602089
  0
LINE
  8
0
 10
-228.800018
 20
19.397903
 11
-228.800018
 21
60.602089
  0
LINE
  8
0
 10
-217.400009
 20
56.200001
 11
-217.400009
 21
46.200001
  0
LINE
  8
0
 10
-217.400009
 20
46.200001
 11
-216.800018
 21
46.799999
  0
LINE
  8
0
 10
-217.400009
 20
56.200005
 11
-216.800003
 21
55.600002
  0
LINE
  8
0
 10
-229.350006
 20
88.700325
 11
-229.350006
 21
79.700325
  0
LINE
  8
0
 10
-229.350006
 20
79.700325
 11
-228.800018
 21
79.700325
  0
LINE
  8
0
 10
-229.350006
 20
88.700325
 11
-228.800018
 21
88.700325
  0
LINE
  8
0
 10
-222.800018
 20
57.299999
 11
-222.800018
 21
45.099998
  0
LINE
  8
0
 10
-224.300018
 20
57.299999
 11
-222.800018
 21
57.299999
  0
LINE
  8
0
 10
-224.300018
 20
45.099998
 11
-222.800018
 21
45.099998
  0
LINE
  8
0
 10
-224.300018
 20
50.333977
 11
-222.800018
 21
51.200001
  0
LINE
  8
0
 10
-224.300018
 20
50.911324
 11
-222.800018
 21
51.777351
  0
LINE
  8
0
 10
-244.000000
 20
69.000000
 11
-244.000000
 21
11.000000
  0
LINE
  8
0
 10
-243.437500
 20
11.750000
 11
-242.300003
 21
11.750000
  0
LINE
  8
0
 10
-240.999985
 20
23.000000
 11
-235.000015
 21
23.000000
  0
LINE
  8
0
 10
-240.999985
 20
57.000000
 11
-235.000015
 21
57.000000
  0
LINE
  8
0
 10
-243.437500
 20
68.250000
 11
-242.300003
 21
68.250000
  0
LINE
  8
0
 10
-244.000046
 20
11.000038
 11
-242.300003
 21
13.266771
  0
LINE
  8
0
 10
-244.000046
 20
68.999962
 11
-242.300003
 21
66.733231
  0
LINE
  8
0
 10
-240.999985
 20
21.403107
 11
-240.999985
 21
23.000008
  0
LINE
  8
0
 10
-240.999985
 20
57.000008
 11
-240.999985
 21
58.596893
  0
LINE
  8
0
 10
-240.999985
 20
32.496590
 11
-240.999985
 21
47.503418
  0
LINE
  8
0
 10
-207.500000
 20
65.809189
 11
-207.500000
 21
67.294106
  0
LINE
  8
0
 10
-219.350006
 20
65.809189
 11
-216.349945
 21
65.809189
  0
LINE
  8
0
 10
-219.350006
 20
66.869843
 11
-216.349945
 21
66.869843
  0
LINE
  8
0
 10
-224.800034
 20
66.869843
 11
-224.800034
 21
65.809189
  0
LINE
  8
0
 10
-207.500000
 20
14.190811
 11
-207.500000
 21
12.705894
  0
LINE
  8
0
 10
-224.800003
 20
14.190836
 11
-221.350006
 21
14.190836
  0
LINE
  8
0
 10
-224.800018
 20
13.130165
 11
-221.350006
 21
13.130165
  0
LINE
  8
0
 10
-224.800003
 20
14.190836
 11
-224.800018
 21
13.130165
  0
LINE
  8
0
 10
-227.500000
 20
44.000328
 11
-227.500000
 21
27.800003
  0
LINE
  8
0
 10
-228.800018
 20
27.500000
 11
-227.800018
 21
27.500000
  0
LINE
  8
0
 10
-227.799973
 20
27.499981
 11
-227.499985
 21
27.799976
  0
LINE
  8
0
 10
-227.500000
 20
34.000000
 11
-224.050018
 21
34.000000
  0
LINE
  8
0
 10
-224.000000
 20
45.099998
 11
-224.000000
 21
34.049995
  0
LINE
  8
0
 10
-224.000000
 20
34.050003
 11
-223.500000
 21
34.050003
  0
LINE
  8
0
 10
-224.050064
 20
33.999992
 11
-224.000061
 21
34.049988
  0
LINE
  8
0
 10
-223.500000
 20
45.099998
 11
-223.500000
 21
28.686295
  0
LINE
  8
0
 10
-225.800018
 20
13.837296
 11
-227.300018
 21
13.837296
  0
ARC
  8
0
 10
-221.549988
 20
71.541771
 40
0.500000
 50
180.000000
 51
270.000000
  0
ARC
  8
0
 10
-214.149994
 20
71.541763
 40
0.500000
 50
270.000000
 51
0.000000
  0
ARC
  8
0
 10
-213.350006
 20
72.955978
 40
0.500000
 50
270.000000
 51
0.000000
  0
ARC
  8
0
 10
-222.349976
 20
72.955978
 40
0.500000
 50
180.000000
 51
270.000000
  0
ARC
  8
0
 10
-222.349976
 20
82.355476
 40
0.500000
 50
90.000000
 51
180.000000
  0
ARC
  8
0
 10
-213.350006
 20
82.355476
 40
0.500000
 50
0.000000
 51
90.000000
  0
ARC
  8
0
 10
-214.149994
 20
83.204010
 40
0.500000
 50
0.000000
 51
90.000000
  0
ARC
  8
0
 10
-221.549988
 20
83.204010
 40
0.500000
 50
90.000000
 51
180.000000
  0
ARC
  8
0
 10
-214.149994
 20
76.340027
 40
0.500000
 50
0.000000
 51
89.998253
  0
ARC
  8
0
 10
-221.549988
 20
76.340034
 40
0.500000
 50
90.000000
 51
180.000000
  0
ARC
  8
0
 10
-227.300003
 20
59.531227
 40
1.500000
 50
180.000000
 51
0.000000
  0
ARC
  8
0
 10
-206.100006
 20
63.583046
 40
0.600006
 50
0.000000
 51
90.000000
  0
ARC
  8
0
 10
-212.899994
 20
62.734520
 40
0.599998
 50
90.000000
 51
180.000000
  0
ARC
  8
0
 10
-206.100006
 20
62.734520
 40
0.600006
 50
0.000000
 51
90.000000
  0
ARC
  8
0
 10
-203.320984
 20
65.888077
 40
1.300010
 50
16.601463
 51
90.000000
  0
ARC
  8
0
 10
-210.699997
 20
63.688072
 40
8.999998
 50
343.398468
 51
16.601585
  0
ARC
  8
0
 10
-203.320984
 20
61.488075
 40
1.299999
 50
270.000000
 51
343.398529
  0
ARC
  8
0
 10
-213.399994
 20
63.583046
 40
0.599998
 50
90.000000
 51
180.000000
  0
ARC
  8
0
 10
-194.454529
 20
81.014664
 40
5.654532
 50
339.735413
 51
20.264589
  0
ARC
  8
0
 10
-194.914795
 20
85.012222
 40
6.114799
 50
340.520721
 51
19.479351
  0
CIRCLE
  8
0
 10
-211.850006
 20
67.990944
 40
0.010000
  0
CIRCLE
  8
0
 10
-200.026733
 20
72.392853
 40
0.010000
  0
CIRCLE
  8
0
 10
-216.073273
 20
62.575226
 40
0.010000
  0
ARC
  8
0
 10
-179.300018
 20
59.963776
 40
1.000000
 50
270.000000
 51
0.000000
  0
ARC
  8
0
 10
-195.899994
 20
73.588394
 40
6.099997
 50
309.601929
 51
339.437836
  0
ARC
  8
0
 10
-192.750000
 20
66.132332
 40
2.999992
 50
301.108734
 51
0.000000
  0
ARC
  8
0
 10
-192.750000
 20
66.195213
 40
3.000000
 50
0.000000
 51
58.891254
  0
ARC
  8
0
 10
-195.899994
 20
73.588394
 40
6.099993
 50
17.729034
 51
50.398064
  0
ARC
  8
0
 10
-213.350006
 20
7.044022
 40
0.500000
 50
0.000000
 51
90.000000
  0
ARC
  8
0
 10
-214.149994
 20
8.458237
 40
0.500000
 50
0.000000
 51
90.000000
  0
ARC
  8
0
 10
-214.149994
 20
3.659973
 40
0.500000
 50
270.001740
 51
0.000000
  0
ARC
  8
0
 10
-213.350006
 20
-2.355476
 40
0.500000
 50
270.000000
 51
0.000000
  0
ARC
  8
0
 10
-214.149994
 20
-3.204010
 40
0.500000
 50
270.000000
 51
0.000000
  0
ARC
  8
0
 10
-221.549988
 20
-3.204010
 40
0.500000
 50
180.000000
 51
270.000000
  0
ARC
  8
0
 10
-222.349976
 20
-2.355476
 40
0.500000
 50
180.000000
 51
270.000000
  0
ARC
  8
0
 10
-221.549988
 20
3.659966
 40
0.500000
 50
180.000000
 51
270.000000
  0
ARC
  8
0
 10
-221.549988
 20
8.458229
 40
0.500000
 50
90.000000
 51
180.000000
  0
ARC
  8
0
 10
-222.349976
 20
7.044022
 40
0.500000
 50
90.000000
 51
180.000000
  0
ARC
  8
0
 10
-227.300003
 20
20.468773
 40
1.500000
 50
0.000000
 51
180.000000
  0
ARC
  8
0
 10
-217.105682
 20
68.071922
 40
0.755692
 50
0.000578
 51
14.106391
  0
ARC
  8
0
 10
-217.303238
 20
67.999496
 40
0.965201
 50
15.417976
 51
51.388996
  0
ARC
  8
0
 10
-217.849991
 20
67.200691
 40
1.931886
 50
53.502457
 51
126.497543
  0
ARC
  8
0
 10
-218.396744
 20
67.999496
 40
0.965195
 50
128.611008
 51
164.582031
  0
ARC
  8
0
 10
-218.594299
 20
68.071922
 40
0.755698
 50
165.893616
 51
180.000580
  0
ARC
  8
0
 10
-236.480286
 20
65.209122
 40
2.130294
 50
3.762753
 51
11.773009
  0
ARC
  8
0
 10
-236.697845
 20
65.142654
 40
2.356929
 50
12.275719
 51
45.305569
  0
ARC
  8
0
 10
-237.299988
 20
64.409554
 40
3.302724
 50
46.824829
 51
133.174988
  0
ARC
  8
0
 10
-237.902130
 20
65.142654
 40
2.356934
 50
134.694168
 51
167.723557
  0
ARC
  8
0
 10
-238.119690
 20
65.209122
 40
2.130300
 50
168.226181
 51
183.762955
  0
ARC
  8
0
 10
-225.631317
 20
75.567245
 40
0.425082
 50
345.892914
 51
14.106079
  0
ARC
  8
0
 10
-225.742447
 20
75.526505
 40
0.542930
 50
15.417746
 51
51.388477
  0
ARC
  8
0
 10
-226.049988
 20
75.077179
 40
1.086684
 50
53.502438
 51
126.497322
  0
ARC
  8
0
 10
-226.357529
 20
75.526512
 40
0.542927
 50
128.611526
 51
164.582260
  0
ARC
  8
0
 10
-226.468658
 20
75.567245
 40
0.425082
 50
165.892929
 51
194.106079
  0
ARC
  8
0
 10
-226.357529
 20
75.607986
 40
0.542930
 50
195.417740
 51
231.388474
  0
ARC
  8
0
 10
-226.049988
 20
76.057312
 40
1.086684
 50
233.502441
 51
306.497314
  0
ARC
  8
0
 10
-225.742447
 20
75.607979
 40
0.542927
 50
308.611511
 51
344.582245
  0
ARC
  8
0
 10
-238.763779
 20
65.209122
 40
1.486205
 50
174.646164
 51
194.106293
  0
ARC
  8
0
 10
-238.375244
 20
65.351555
 40
1.898237
 50
195.417709
 51
231.388382
  0
ARC
  8
0
 10
-237.299988
 20
66.922501
 40
3.799348
 50
233.502106
 51
306.497894
  0
ARC
  8
0
 10
-236.224731
 20
65.351555
 40
1.898234
 50
308.611603
 51
344.582062
  0
ARC
  8
0
 10
-235.836197
 20
65.209122
 40
1.486209
 50
345.893433
 51
5.331355
  0
ARC
  8
0
 10
-237.300018
 20
61.807610
 40
4.532872
 50
65.111595
 51
114.901993
  0
ARC
  8
0
 10
-225.305679
 20
75.567245
 40
0.755696
 50
345.894165
 51
14.106952
  0
ARC
  8
0
 10
-225.503235
 20
75.494827
 40
0.965201
 50
15.417976
 51
51.388996
  0
ARC
  8
0
 10
-226.049988
 20
74.696022
 40
1.931886
 50
53.502457
 51
126.498177
  0
ARC
  8
0
 10
-226.596741
 20
75.494820
 40
0.965198
 50
128.612000
 51
164.582458
  0
ARC
  8
0
 10
-226.794296
 20
75.567245
 40
0.755696
 50
165.894165
 51
194.106949
  0
ARC
  8
0
 10
-226.596741
 20
75.639664
 40
0.965201
 50
195.417969
 51
231.388992
  0
ARC
  8
0
 10
-226.049988
 20
76.438469
 40
1.931886
 50
233.502457
 51
306.498169
  0
ARC
  8
0
 10
-225.503235
 20
75.639671
 40
0.965198
 50
308.612000
 51
344.582458
  0
ARC
  8
0
 10
-217.030273
 20
80.234161
 40
2.130294
 50
3.762753
 51
11.773211
  0
ARC
  8
0
 10
-217.247833
 20
80.167694
 40
2.356930
 50
12.275900
 51
45.305569
  0
ARC
  8
0
 10
-217.849976
 20
79.434593
 40
3.302724
 50
46.824829
 51
133.174988
  0
ARC
  8
0
 10
-218.452118
 20
80.167694
 40
2.356934
 50
134.694168
 51
167.723740
  0
ARC
  8
0
 10
-218.669678
 20
80.234161
 40
2.130298
 50
168.226395
 51
183.762955
  0
ARC
  8
0
 10
-219.313766
 20
80.234161
 40
1.486205
 50
174.645874
 51
194.106293
  0
ARC
  8
0
 10
-218.925232
 20
80.376595
 40
1.898237
 50
195.417709
 51
231.388245
  0
ARC
  8
0
 10
-217.849976
 20
81.947540
 40
3.799341
 50
233.502029
 51
306.497833
  0
ARC
  8
0
 10
-216.774719
 20
80.376595
 40
1.898240
 50
308.611481
 51
344.582062
  0
ARC
  8
0
 10
-216.386185
 20
80.234161
 40
1.486209
 50
345.893433
 51
5.331355
  0
ARC
  8
0
 10
-217.850006
 20
76.832642
 40
4.532878
 50
65.111641
 51
114.901779
  0
ARC
  8
0
 10
-216.500000
 20
50.754436
 40
5.473663
 50
56.881840
 51
99.095993
  0
ARC
  8
0
 10
-216.499985
 20
55.541893
 40
4.358278
 50
266.056122
 51
306.497406
  0
ARC
  8
0
 10
-215.266556
 20
53.739826
 40
2.177473
 50
308.611084
 51
324.269257
  0
ARC
  8
0
 10
-218.500000
 20
43.611183
 40
6.439602
 50
270.000000
 51
306.497864
  0
ARC
  8
0
 10
-216.677521
 20
40.948532
 40
3.217347
 50
308.611725
 51
344.582184
  0
ARC
  8
0
 10
-216.018997
 20
40.707119
 40
2.519000
 50
345.893646
 51
359.999908
  0
ARC
  8
0
 10
-216.018967
 20
25.150751
 40
2.518982
 50
359.999969
 51
14.106489
  0
ARC
  8
0
 10
-216.677490
 20
24.909336
 40
3.217332
 50
15.417956
 51
51.388699
  0
ARC
  8
0
 10
-218.499985
 20
22.246677
 40
6.439601
 50
53.502281
 51
90.000000
  0
ARC
  8
0
 10
-216.500000
 20
51.995480
 40
3.863750
 50
265.557648
 51
306.497742
  0
ARC
  8
0
 10
-215.406509
 20
50.397892
 40
1.930399
 50
308.611359
 51
344.582031
  0
ARC
  8
0
 10
-215.011398
 20
50.253044
 40
1.511398
 50
345.893463
 51
0.000000
  0
ARC
  8
0
 10
-216.500000
 20
43.863766
 40
3.863750
 50
270.000000
 51
306.497742
  0
ARC
  8
0
 10
-215.406509
 20
42.266178
 40
1.930399
 50
308.611359
 51
344.582031
  0
ARC
  8
0
 10
-215.011398
 20
42.121330
 40
1.511398
 50
345.893463
 51
0.000000
  0
ARC
  8
0
 10
-189.148163
 20
88.315742
 40
1.264345
 50
269.917023
 51
282.154480
  0
ARC
  8
0
 10
-188.908188
 20
87.229935
 40
0.152465
 50
279.906342
 51
312.424500
  0
ARC
  8
0
 10
-188.821030
 20
87.131386
 40
0.021036
 50
318.278442
 51
41.573120
  0
ARC
  8
0
 10
-188.908493
 20
87.033112
 40
0.152461
 50
47.401134
 51
79.919273
  0
ARC
  8
0
 10
-189.151825
 20
85.948051
 40
1.264346
 50
77.668671
 51
89.917023
  0
ARC
  8
0
 10
-200.026733
 20
71.373497
 40
4.507536
 50
64.054459
 51
113.047798
  0
ARC
  8
0
 10
-198.751129
 20
73.732048
 40
2.252262
 50
49.620506
 51
51.386749
  0
ARC
  8
0
 10
-200.026733
 20
71.868477
 40
4.507535
 50
53.500504
 51
126.499496
  0
ARC
  8
0
 10
-201.302338
 20
73.732048
 40
2.252263
 50
128.613251
 51
130.392166
  0
ARC
  8
0
 10
-200.026733
 20
75.438576
 40
4.507532
 50
246.956207
 51
298.150482
  0
ARC
  8
0
 10
-200.026733
 20
74.365204
 40
3.089060
 50
274.213440
 51
289.721863
  0
ARC
  8
0
 10
-200.026718
 20
74.633255
 40
3.348552
 50
251.540115
 51
288.459045
  0
ARC
  8
0
 10
-208.300003
 20
74.190735
 40
11.527024
 50
304.530365
 51
306.497253
  0
ARC
  8
0
 10
-205.037643
 20
69.424355
 40
5.758924
 50
308.610931
 51
344.581787
  0
ARC
  8
0
 10
-203.858856
 20
68.992203
 40
4.508849
 50
345.893341
 51
14.106644
  0
ARC
  8
0
 10
-205.037643
 20
68.560051
 40
5.758924
 50
15.418210
 51
24.330647
  0
ARC
  8
0
 10
-216.500000
 20
55.691349
 40
5.473663
 50
266.861023
 51
303.136658
  0
ARC
  8
0
 10
-218.594299
 20
11.928079
 40
0.755692
 50
179.999786
 51
194.106323
  0
ARC
  8
0
 10
-218.396744
 20
12.000503
 40
0.965201
 50
195.417816
 51
231.388931
  0
ARC
  8
0
 10
-217.849991
 20
12.799305
 40
1.931882
 50
233.502380
 51
306.497589
  0
ARC
  8
0
 10
-217.303238
 20
12.000502
 40
0.965195
 50
308.610992
 51
344.582031
  0
ARC
  8
0
 10
-217.105682
 20
11.928077
 40
0.755699
 50
345.893524
 51
359.999786
  0
ARC
  8
0
 10
-216.386185
 20
-0.234154
 40
1.486212
 50
354.668457
 51
14.106566
  0
ARC
  8
0
 10
-216.774719
 20
-0.376588
 40
1.898239
 50
15.417931
 51
51.388405
  0
ARC
  8
0
 10
-217.849976
 20
-1.947536
 40
3.799351
 50
53.502132
 51
126.497963
  0
ARC
  8
0
 10
-218.925232
 20
-0.376593
 40
1.898231
 50
128.611710
 51
164.582336
  0
ARC
  8
0
 10
-219.313766
 20
-0.234161
 40
1.486207
 50
165.893692
 51
185.354019
  0
ARC
  8
0
 10
-218.669678
 20
-0.234164
 40
2.130295
 50
176.236938
 51
191.773605
  0
ARC
  8
0
 10
-218.452118
 20
-0.167696
 40
2.356934
 50
192.276291
 51
225.305817
  0
ARC
  8
0
 10
-217.849976
 20
0.565406
 40
3.302735
 50
226.825012
 51
313.175171
  0
ARC
  8
0
 10
-217.247833
 20
-0.167691
 40
2.356925
 50
314.694397
 51
347.724091
  0
ARC
  8
0
 10
-217.030273
 20
-0.234158
 40
2.130295
 50
348.226776
 51
356.237000
  0
ARC
  8
0
 10
-217.850006
 20
3.167351
 40
4.532880
 50
245.098038
 51
294.888367
  0
ARC
  8
0
 10
-225.631317
 20
4.432758
 40
0.425080
 50
345.893982
 51
14.106827
  0
ARC
  8
0
 10
-225.742447
 20
4.392018
 40
0.542931
 50
15.418230
 51
51.388634
  0
ARC
  8
0
 10
-226.049988
 20
3.942690
 40
1.086687
 50
53.502575
 51
126.497742
  0
ARC
  8
0
 10
-226.357529
 20
4.392013
 40
0.542924
 50
128.611710
 51
164.582596
  0
ARC
  8
0
 10
-226.468658
 20
4.432751
 40
0.425080
 50
165.893982
 51
194.106827
  0
ARC
  8
0
 10
-226.357529
 20
4.473491
 40
0.542931
 50
195.418228
 51
231.388626
  0
ARC
  8
0
 10
-226.049988
 20
4.922819
 40
1.086687
 50
233.502579
 51
306.497742
  0
ARC
  8
0
 10
-225.742447
 20
4.473496
 40
0.542924
 50
308.611725
 51
344.582581
  0
ARC
  8
0
 10
-225.305679
 20
4.432751
 40
0.755699
 50
345.893280
 51
14.106145
  0
ARC
  8
0
 10
-225.503235
 20
4.360328
 40
0.965200
 50
15.417648
 51
51.388165
  0
ARC
  8
0
 10
-226.049988
 20
3.561531
 40
1.931885
 50
53.501884
 51
126.497559
  0
ARC
  8
0
 10
-226.596741
 20
4.360333
 40
0.965197
 50
128.610916
 51
164.581833
  0
ARC
  8
0
 10
-226.794296
 20
4.432758
 40
0.755699
 50
165.893295
 51
194.106140
  0
ARC
  8
0
 10
-226.596741
 20
4.505181
 40
0.965200
 50
195.417648
 51
231.388168
  0
ARC
  8
0
 10
-226.049988
 20
5.303978
 40
1.931885
 50
233.501877
 51
306.497559
  0
ARC
  8
0
 10
-225.503235
 20
4.505176
 40
0.965197
 50
308.610901
 51
344.581818
  0
ARC
  8
0
 10
-235.836197
 20
14.790882
 40
1.486211
 50
354.668640
 51
14.106474
  0
ARC
  8
0
 10
-236.224731
 20
14.648450
 40
1.898238
 50
15.417817
 51
51.388367
  0
ARC
  8
0
 10
-237.299988
 20
13.077503
 40
3.799348
 50
53.502098
 51
126.497917
  0
ARC
  8
0
 10
-238.375244
 20
14.648449
 40
1.898233
 50
128.611649
 51
164.582214
  0
ARC
  8
0
 10
-238.763779
 20
14.790882
 40
1.486208
 50
165.893600
 51
185.354080
  0
ARC
  8
0
 10
-237.300018
 20
18.192390
 40
4.532871
 50
245.097992
 51
294.888397
  0
ARC
  8
0
 10
-238.119690
 20
14.790878
 40
2.130295
 50
176.236969
 51
191.773666
  0
ARC
  8
0
 10
-237.902130
 20
14.857347
 40
2.356935
 50
192.276352
 51
225.305847
  0
ARC
  8
0
 10
-237.299988
 20
15.590449
 40
3.302737
 50
226.825027
 51
313.175201
  0
ARC
  8
0
 10
-236.697845
 20
14.857353
 40
2.356924
 50
314.694427
 51
347.724152
  0
ARC
  8
0
 10
-236.480286
 20
14.790886
 40
2.130295
 50
348.226837
 51
356.237000
  0
POLYLINE
  8
0
 66
     1
  0
VERTEX
  8
0
 10
-240.999985
 20
23.000008
  0
VERTEX
  8
0
 10
-241.884598
 20
23.156660
  0
VERTEX
  8
0
 10
-242.679993
 20
23.645721
  0
VERTEX
  8
0
 10
-243.069656
 20
24.328779
  0
VERTEX
  8
0
 10
-243.191772
 20
25.183485
  0
VERTEX
  8
0
 10
-243.159988
 20
26.146538
  0
VERTEX
  8
0
 10
-243.093704
 20
26.915266
  0
VERTEX
  8
0
 10
-242.998550
 20
27.634499
  0
VERTEX
  8
0
 10
-242.857452
 20
28.350286
  0
VERTEX
  8
0
 10
-242.653320
 20
29.108673
  0
VERTEX
  8
0
 10
-242.344513
 20
29.990437
  0
VERTEX
  8
0
 10
-241.960632
 20
30.857603
  0
VERTEX
  8
0
 10
-241.509766
 20
31.697283
  0
VERTEX
  8
0
 10
-240.999985
 20
32.496590
  0
SEQEND
  0
POLYLINE
  8
0
 66
     1
  0
VERTEX
  8
0
 10
-240.999985
 20
47.503418
  0
VERTEX
  8
0
 10
-241.514877
 20
48.319550
  0
VERTEX
  8
0
 10
-241.974258
 20
49.187271
  0
VERTEX
  8
0
 10
-242.359848
 20
50.060043
  0
VERTEX
  8
0
 10
-242.653320
 20
50.891335
  0
VERTEX
  8
0
 10
-242.842957
 20
51.610821
  0
VERTEX
  8
0
 10
-242.987137
 20
52.351505
  0
VERTEX
  8
0
 10
-243.091080
 20
53.102638
  0
VERTEX
  8
0
 10
-243.160004
 20
53.853470
  0
VERTEX
  8
0
 10
-243.170898
 20
54.798714
  0
VERTEX
  8
0
 10
-243.031784
 20
55.690479
  0
VERTEX
  8
0
 10
-242.679993
 20
56.354286
  0
VERTEX
  8
0
 10
-241.915466
 20
56.811676
  0
VERTEX
  8
0
 10
-241.000000
 20
57.000008
  0
SEQEND
  0
ARC
  8
0
 10
-215.266556
 20
53.413055
 40
2.177480
 50
35.779751
 51
51.388035
  0
ARC
  8
0
 10
-216.500015
 20
51.611008
 40
4.358280
 50
53.501694
 51
98.287712
  0
POINT
  8
0
 10
-45.499996
 20
140.000000
  0
POINT
  8
0
 10
-85.000000
 20
140.000000
  0
LINE
  8
0
 10
-47.947624
 20
97.290985
 11
-59.190617
 21
108.533974
  0
LINE
  8
0
 10
-42.290733
 20
102.947845
 11
-53.533730
 21
114.190842
  0
LINE
  8
0
 10
-46.604076
 20
107.261162
 11
-52.260933
 21
101.604309
  0
LINE
  8
0
 10
-53.533737
 20
114.756485
 11
-59.756279
 21
108.533943
  0
LINE
  8
0
 10
-52.826637
 20
101.604324
 11
-59.756287
 21
108.533981
  0
LINE
  8
0
 10
-46.604084
 20
107.826874
 11
-53.533726
 21
114.756516
  0
LINE
  8
0
 10
-52.048820
 20
112.705887
 11
-57.705669
 21
107.049034
  0
LINE
  8
0
 10
-45.472721
 20
108.958221
 11
-46.886936
 21
107.544006
  0
LINE
  8
0
 10
-41.442196
 20
104.220581
 11
-42.502857
 21
103.159920
  0
LINE
  8
0
 10
-52.543789
 20
101.887154
 11
-53.958004
 21
100.472946
  0
LINE
  8
0
 10
-49.927509
 20
96.442459
 11
-53.958019
 21
100.472969
  0
LINE
  8
0
 10
-41.442226
 20
104.927734
 11
-45.472733
 21
108.958244
  0
LINE
  8
0
 10
-48.159714
 20
97.503067
 11
-49.220371
 21
96.442406
  0
LINE
  8
0
 10
-52.826653
 20
112.776642
 11
-52.119545
 21
112.776642
  0
LINE
  8
0
 10
-57.776398
 20
107.826874
 11
-57.776398
 21
107.119766
  0
LINE
  8
0
 10
-53.533745
 20
114.190796
 11
-59.190598
 21
108.533951
  0
LINE
  8
0
 10
-52.473087
 20
113.130142
 11
-58.129932
 21
107.473297
  0
LINE
  8
0
 10
-56.362194
 20
105.705551
 11
-50.705341
 21
111.362404
  0
LINE
  8
0
 10
-64.558739
 20
110.366318
 11
-65.637917
 21
111.445496
  0
LINE
  8
0
 10
-58.837166
 20
106.766075
 11
-66.968788
 21
114.897697
  0
LINE
  8
0
 10
-58.412781
 20
107.190445
 11
-58.837040
 21
106.766190
  0
LINE
  8
0
 10
-59.473442
 20
108.251106
 11
-59.897705
 21
107.826843
  0
LINE
  8
0
 10
-52.826633
 20
114.897911
 11
-53.250896
 21
114.473648
  0
LINE
  8
0
 10
-55.366352
 20
119.558716
 11
-56.445526
 21
120.637894
  0
LINE
  8
0
 10
-47.240479
 20
97.290939
 11
-42.290737
 21
102.240685
  0
LINE
  8
0
 10
-66.968781
 20
114.897697
 11
-59.897713
 21
121.968773
  0
LINE
  8
0
 10
-127.709023
 20
102.947601
 11
-116.466026
 21
114.190598
  0
LINE
  8
0
 10
-122.052155
 20
97.290733
 11
-110.809158
 21
108.533730
  0
LINE
  8
0
 10
-117.738831
 20
101.604073
 11
-123.395691
 21
107.260925
  0
LINE
  8
0
 10
-110.243507
 20
108.533745
 11
-116.466049
 21
114.756287
  0
LINE
  8
0
 10
-123.395660
 20
107.826630
 11
-116.466011
 21
114.756271
  0
LINE
  8
0
 10
-117.173119
 20
101.604080
 11
-110.243477
 21
108.533722
  0
LINE
  8
0
 10
-112.294121
 20
107.048828
 11
-117.950974
 21
112.705681
  0
LINE
  8
0
 10
-116.041779
 20
100.472725
 11
-117.455994
 21
101.886940
  0
LINE
  8
0
 10
-120.779419
 20
96.442200
 11
-121.840073
 21
97.502861
  0
LINE
  8
0
 10
-123.112839
 20
107.543793
 11
-124.527054
 21
108.958008
  0
LINE
  8
0
 10
-128.557556
 20
104.927490
 11
-124.527039
 21
108.958008
  0
LINE
  8
0
 10
-120.072250
 20
96.442215
 11
-116.041748
 21
100.472717
  0
LINE
  8
0
 10
-127.496933
 20
103.159714
 11
-128.557587
 21
104.220375
  0
LINE
  8
0
 10
-112.223358
 20
107.826653
 11
-112.223358
 21
107.119545
  0
LINE
  8
0
 10
-117.173134
 20
112.776398
 11
-117.880241
 21
112.776398
  0
LINE
  8
0
 10
-110.809204
 20
108.533745
 11
-116.466049
 21
114.190598
  0
LINE
  8
0
 10
-111.869865
 20
107.473099
 11
-117.526703
 21
113.129944
  0
LINE
  8
0
 10
-119.294449
 20
111.362198
 11
-113.637596
 21
105.705353
  0
LINE
  8
0
 10
-117.809555
 20
113.412796
 11
-117.973267
 21
113.576500
  0
LINE
  8
0
 10
-116.748894
 20
114.473442
 11
-116.804794
 21
114.529343
  0
LINE
  8
0
 10
-110.102097
 20
107.826630
 11
-110.526352
 21
108.250900
  0
LINE
  8
0
 10
-111.162849
 20
106.766083
 11
-100.900360
 21
117.028564
  0
LINE
  8
0
 10
-111.162750
 20
106.765991
 11
-111.587021
 21
107.190247
  0
LINE
  8
0
 10
-105.441284
 20
110.366341
 11
-104.362106
 21
111.445511
  0
LINE
  8
0
 10
-127.709061
 20
102.240494
 11
-122.759308
 21
97.290749
  0
LINE
  8
0
 10
-102.000328
 20
147.100006
 11
-123.200180
 21
168.299850
  0
LINE
  8
0
 10
-123.200180
 20
111.700142
 11
-102.000320
 21
132.899994
  0
LINE
  8
0
 10
-123.184448
 20
111.715561
 11
-139.000320
 21
127.531441
  0
LINE
  8
0
 10
-139.000336
 20
152.468552
 11
-123.184448
 21
168.284424
  0
LINE
  8
0
 10
-102.000320
 20
132.899994
 11
-102.000320
 21
147.100006
  0
LINE
  8
0
 10
-139.000320
 20
127.500290
 11
-139.000320
 21
152.499710
  0
LINE
  8
0
 10
-116.325661
 20
162.415298
 11
-112.577995
 21
166.162964
  0
LINE
  8
0
 10
-111.163788
 20
156.263458
 11
-106.921143
 21
160.506104
  0
LINE
  8
0
 10
-115.642181
 20
118.244720
 11
-116.148888
 21
118.751427
  0
LINE
  8
0
 10
-111.328835
 20
122.558067
 11
-111.835541
 21
123.064774
  0
LINE
  8
0
 10
-111.552689
 20
165.844757
 11
-110.986580
 21
166.410873
  0
LINE
  8
0
 10
-107.239342
 20
161.531418
 11
-106.673233
 21
162.097519
  0
LINE
  8
0
 10
-106.771706
 20
161.063782
 11
-112.020309
 21
166.312393
  0
LINE
  8
0
 10
-115.642159
 20
118.244720
 11
-111.328812
 21
122.558075
  0
LINE
  8
0
 10
-110.986572
 20
166.410858
 11
-106.673218
 21
162.097504
  0
LINE
  8
0
 10
-106.921127
 20
160.506104
 11
-106.771698
 21
161.063782
  0
LINE
  8
0
 10
-112.577988
 20
166.162949
 11
-112.020302
 21
166.312378
  0
LINE
  8
0
 10
-106.921120
 20
160.506104
 11
-112.577972
 21
166.162964
  0
LINE
  8
0
 10
-127.826248
 20
130.526062
 11
-124.203064
 21
132.790085
  0
LINE
  8
0
 10
-132.065613
 20
137.310440
 11
-128.442429
 21
139.574463
  0
LINE
  8
0
 10
-128.126083
 20
130.515579
 11
-131.898392
 21
132.521347
  0
LINE
  8
0
 10
-124.370316
 20
137.579147
 11
-128.142609
 21
139.584915
  0
LINE
  8
0
 10
-132.057449
 20
132.775757
 11
-132.206543
 21
137.045547
  0
LINE
  8
0
 10
-124.062317
 20
133.054947
 11
-124.211418
 21
137.324753
  0
LINE
  8
0
 10
-127.435150
 20
133.176468
 11
-129.511993
 21
136.500122
  0
LINE
  8
0
 10
-126.756699
 20
133.600403
 11
-128.833557
 21
136.924057
  0
LINE
  8
0
 10
-124.665924
 20
142.028595
 11
-123.777649
 21
146.207626
  0
LINE
  8
0
 10
-132.491119
 20
143.691895
 11
-131.602844
 21
147.870926
  0
LINE
  8
0
 10
-124.866631
 20
141.805649
 11
-128.929916
 21
140.485413
  0
LINE
  8
0
 10
-127.338768
 20
149.414108
 11
-131.402054
 21
148.093872
  0
LINE
  8
0
 10
-129.223389
 20
140.547745
 11
-132.398392
 21
143.406540
  0
LINE
  8
0
 10
-123.870331
 20
146.492905
 11
-127.045334
 21
149.351700
  0
LINE
  8
0
 10
-126.300735
 20
144.151062
 11
-130.134277
 21
144.965912
  0
LINE
  8
0
 10
-126.134399
 20
144.933578
 11
-129.967926
 21
145.748428
  0
LINE
  8
0
 10
-89.000000
 20
116.314560
 11
-89.000000
 21
123.899261
  0
LINE
  8
0
 10
-89.000000
 20
153.435028
 11
-89.000000
 21
163.685440
  0
LINE
  8
0
 10
-123.200027
 20
111.699989
 11
-139.000031
 21
127.499992
  0
LINE
  8
0
 10
-139.000015
 20
152.500031
 11
-123.200012
 21
168.300018
  0
LINE
  8
0
 10
-120.880920
 20
113.029457
 11
-115.931168
 21
117.979202
  0
LINE
  8
0
 10
-119.961670
 20
113.383011
 11
-116.284721
 21
117.059967
  0
LINE
  8
0
 10
-117.120117
 20
114.173935
 11
-117.075653
 21
114.218399
  0
LINE
  8
0
 10
-116.284729
 20
117.059959
 11
-116.567566
 21
117.342804
  0
LINE
  8
0
 10
-119.961685
 20
113.383003
 11
-120.244522
 21
113.665848
  0
LINE
  8
0
 10
-115.931175
 20
117.979210
 11
-116.426147
 21
118.474182
  0
LINE
  8
0
 10
-120.880920
 20
113.029449
 11
-121.375893
 21
113.524422
  0
LINE
  8
0
 10
-111.063293
 20
122.847076
 11
-106.113548
 21
127.796829
  0
LINE
  8
0
 10
-110.144051
 20
123.200630
 11
-106.467102
 21
126.877586
  0
LINE
  8
0
 10
-107.302498
 20
123.991562
 11
-107.258034
 21
124.036018
  0
LINE
  8
0
 10
-106.467102
 20
126.877579
 11
-106.749947
 21
127.160416
  0
LINE
  8
0
 10
-110.144058
 20
123.200623
 11
-110.426903
 21
123.483467
  0
LINE
  8
0
 10
-106.113556
 20
127.796829
 11
-106.608528
 21
128.291794
  0
LINE
  8
0
 10
-106.113541
 20
152.203186
 11
-110.668793
 21
156.758438
  0
LINE
  8
0
 10
-106.467094
 20
153.122421
 11
-110.144043
 21
156.799377
  0
LINE
  8
0
 10
-107.258026
 20
155.963974
 11
-107.302490
 21
156.008438
  0
LINE
  8
0
 10
-110.144043
 20
156.799393
 11
-110.426895
 21
156.516541
  0
LINE
  8
0
 10
-106.467087
 20
153.122437
 11
-106.749931
 21
152.839584
  0
LINE
  8
0
 10
-106.113548
 20
152.203186
 11
-106.608521
 21
151.708206
  0
LINE
  8
0
 10
-115.931160
 20
162.020813
 11
-120.880905
 21
166.970551
  0
LINE
  8
0
 10
-116.284714
 20
162.940033
 11
-119.961670
 21
166.616989
  0
LINE
  8
0
 10
-119.961685
 20
166.617004
 11
-120.244522
 21
166.334152
  0
LINE
  8
0
 10
-116.284706
 20
162.940048
 11
-116.567551
 21
162.657196
  0
LINE
  8
0
 10
-120.880920
 20
166.970566
 11
-121.375885
 21
166.475586
  0
LINE
  8
0
 10
-115.931160
 20
162.020798
 11
-116.426132
 21
161.525833
  0
LINE
  8
0
 10
-84.170021
 20
126.687859
 11
-71.687851
 21
139.170029
  0
LINE
  8
0
 10
-98.435028
 20
144.949753
 11
-94.616653
 21
148.768127
  0
LINE
  8
0
 10
-115.653595
 20
117.542084
 11
-107.993156
 21
123.969963
  0
LINE
  8
0
 10
-98.435028
 20
142.121323
 11
-98.435028
 21
144.949753
  0
LINE
  8
0
 10
-85.707100
 20
133.636032
 11
-91.363953
 21
139.292892
  0
LINE
  8
0
 10
-84.292900
 20
133.636047
 11
-78.636040
 21
139.292892
  0
LINE
  8
0
 10
-78.636040
 20
140.707108
 11
-84.292900
 21
146.363953
  0
LINE
  8
0
 10
-91.363953
 20
140.707108
 11
-90.816154
 21
141.254913
  0
LINE
  8
0
 10
-92.071060
 20
140.707108
 11
-89.313339
 21
143.464828
  0
LINE
  8
0
 10
-77.928932
 20
140.707108
 11
-84.292900
 21
147.071060
  0
LINE
  8
0
 10
-84.292900
 20
132.928940
 11
-77.928932
 21
139.292892
  0
LINE
  8
0
 10
-85.707100
 20
132.928925
 11
-92.071060
 21
139.292892
  0
LINE
  8
0
 10
-88.959801
 20
143.111267
 11
-94.616653
 21
148.768127
  0
LINE
  8
0
 10
-88.111275
 20
143.959793
 11
-93.768127
 21
149.616653
  0
LINE
  8
0
 10
-88.111259
 20
143.959793
 11
-85.707100
 21
146.363968
  0
LINE
  8
0
 10
-88.464813
 20
144.313354
 11
-85.707100
 21
147.071075
  0
LINE
  8
0
 10
-55.454857
 20
162.474091
 11
-62.028580
 21
155.900360
  0
LINE
  8
0
 10
-62.542091
 20
170.653580
 11
-68.969963
 21
162.993149
  0
LINE
  8
0
 10
-87.121323
 20
153.435028
 11
-89.949745
 21
153.435028
  0
LINE
  8
0
 10
-89.949753
 20
153.435028
 11
-93.768127
 21
149.616653
  0
LINE
  8
0
 10
-93.202446
 20
147.353912
 11
-92.353920
 21
148.202454
  0
LINE
  8
0
 10
-89.666901
 20
143.818375
 11
-88.818375
 21
144.666901
  0
LINE
  8
0
 10
-101.228096
 20
141.803116
 11
-98.435028
 21
144.596191
  0
LINE
  8
0
 10
-101.228104
 20
141.803116
 11
-100.969284
 21
140.837204
  0
LINE
  8
0
 10
-97.397995
 20
137.265915
 11
-100.969284
 21
140.837204
  0
LINE
  8
0
 10
-97.450943
 20
138.025970
 11
-101.228104
 21
141.803116
  0
LINE
  8
0
 10
-100.900368
 20
117.028580
 11
-84.170021
 21
126.687859
  0
LINE
  8
0
 10
-62.028587
 20
155.900360
 11
-71.687859
 21
139.170029
  0
LINE
  8
0
 10
-106.920303
 20
122.322327
 11
-102.677658
 21
118.079689
  0
LINE
  8
0
 10
-116.254128
 20
115.816940
 11
-109.183060
 21
108.745865
  0
LINE
  8
0
 10
-116.254112
 20
115.816948
 11
-109.748726
 21
122.322334
  0
LINE
  8
0
 10
-110.788078
 20
116.311920
 11
-106.588074
 21
116.311920
  0
LINE
  8
0
 10
-108.688072
 20
118.411926
 11
-108.688072
 21
114.211922
  0
LINE
  8
0
 10
-51.766087
 20
113.837143
 11
-52.190239
 21
113.412987
  0
LINE
  8
0
 10
-51.766090
 20
113.837143
 11
-59.897720
 21
121.968781
  0
LINE
  8
0
 10
-111.558266
 20
123.342049
 11
-111.063293
 21
122.847076
  0
LINE
  8
0
 10
-93.313255
 20
120.500000
 11
-93.706863
 21
121.181755
  0
LINE
  8
0
 10
-97.643379
 20
118.000000
 11
-98.036987
 21
118.681755
  0
LINE
  8
0
 10
-94.756630
 20
118.000000
 11
-97.643379
 21
118.000000
  0
LINE
  8
0
 10
-93.313255
 20
120.500000
 11
-94.756630
 21
118.000000
  0
LINE
  8
0
 10
-93.313248
 20
159.500000
 11
-94.756622
 21
162.000000
  0
LINE
  8
0
 10
-94.756622
 20
162.000000
 11
-97.643372
 21
162.000000
  0
LINE
  8
0
 10
-99.086746
 20
159.500000
 11
-97.643372
 21
162.000000
  0
LINE
  8
0
 10
-97.643372
 20
157.000000
 11
-99.086746
 21
159.500000
  0
LINE
  8
0
 10
-94.756622
 20
157.000000
 11
-97.643372
 21
157.000000
  0
LINE
  8
0
 10
-93.313248
 20
159.500000
 11
-94.756622
 21
157.000000
  0
LINE
  8
0
 10
-99.030937
 20
115.096680
 11
-98.480370
 21
116.050285
  0
LINE
  8
0
 10
-99.463951
 20
115.346680
 11
-98.913383
 21
116.300285
  0
LINE
  8
0
 10
-99.463943
 20
164.653320
 11
-98.913376
 21
163.699707
  0
LINE
  8
0
 10
-99.030930
 20
164.903320
 11
-98.480362
 21
163.949707
  0
LINE
  8
0
 10
-118.588402
 20
127.654312
 11
-118.588402
 21
123.354317
  0
LINE
  8
0
 10
-120.738403
 20
125.504318
 11
-116.438400
 21
125.504318
  0
LINE
  8
0
 10
-118.588402
 20
156.645691
 11
-118.588402
 21
152.345703
  0
LINE
  8
0
 10
-120.738403
 20
154.495697
 11
-116.438400
 21
154.495697
  0
LINE
  8
0
 10
-111.163780
 20
130.654709
 11
-112.163780
 21
130.077347
  0
LINE
  8
0
 10
-112.163780
 20
130.077347
 11
-112.163780
 21
128.922653
  0
LINE
  8
0
 10
-111.163780
 20
128.345306
 11
-112.163780
 21
128.922653
  0
LINE
  8
0
 10
-110.163780
 20
128.922653
 11
-111.163780
 21
128.345306
  0
LINE
  8
0
 10
-110.163780
 20
130.077347
 11
-110.163780
 21
128.922653
  0
LINE
  8
0
 10
-111.163780
 20
130.654709
 11
-110.163780
 21
130.077362
  0
LINE
  8
0
 10
-111.163780
 20
151.654709
 11
-112.163780
 21
151.077362
  0
LINE
  8
0
 10
-112.163780
 20
151.077362
 11
-112.163780
 21
149.922653
  0
LINE
  8
0
 10
-111.163780
 20
149.345306
 11
-112.163780
 21
149.922653
  0
LINE
  8
0
 10
-110.163780
 20
149.922653
 11
-111.163780
 21
149.345306
  0
LINE
  8
0
 10
-110.163780
 20
151.077362
 11
-110.163780
 21
149.922653
  0
LINE
  8
0
 10
-111.163780
 20
151.654709
 11
-110.163780
 21
151.077362
  0
LINE
  8
0
 10
-116.284729
 20
117.059959
 11
-116.567566
 21
117.342804
  0
LINE
  8
0
 10
-89.829636
 20
175.294098
 11
-90.145821
 21
174.114090
  0
LINE
  8
0
 10
-80.170372
 20
175.294098
 11
-79.854187
 21
174.114075
  0
LINE
  8
0
 10
-89.829620
 20
104.705910
 11
-90.145798
 21
105.885910
  0
LINE
  8
0
 10
-52.883434
 20
127.399368
 11
-52.019604
 21
126.535538
  0
LINE
  8
0
 10
-52.883427
 20
152.600632
 11
-52.019592
 21
153.464462
  0
LINE
  8
0
 10
-83.745087
 20
145.816162
 11
-79.183838
 21
141.254913
  0
LINE
  8
0
 10
-83.992012
 20
145.355972
 11
-79.644028
 21
141.007980
  0
LINE
  8
0
 10
-79.183838
 20
141.254898
 11
-79.644020
 21
141.007980
  0
LINE
  8
0
 10
-83.745087
 20
145.816162
 11
-83.992012
 21
145.355972
  0
LINE
  8
0
 10
-86.254906
 20
145.816162
 11
-86.007980
 21
145.355972
  0
LINE
  8
0
 10
-90.816162
 20
141.254913
 11
-86.254906
 21
145.816162
  0
LINE
  8
0
 10
-90.816162
 20
141.254913
 11
-90.355972
 21
141.007980
  0
LINE
  8
0
 10
-90.355972
 20
141.007996
 11
-86.007988
 21
145.355972
  0
LINE
  8
0
 10
-90.816162
 20
138.745087
 11
-90.355972
 21
138.992020
  0
LINE
  8
0
 10
-86.254913
 20
134.183838
 11
-90.816162
 21
138.745087
  0
LINE
  8
0
 10
-86.254913
 20
134.183838
 11
-86.007988
 21
134.644028
  0
LINE
  8
0
 10
-86.007988
 20
134.644028
 11
-90.355972
 21
138.992020
  0
LINE
  8
0
 10
-83.745094
 20
134.183838
 11
-83.992020
 21
134.644028
  0
LINE
  8
0
 10
-79.183838
 20
138.745087
 11
-83.745094
 21
134.183838
  0
LINE
  8
0
 10
-79.183838
 20
138.745087
 11
-79.644028
 21
138.992004
  0
LINE
  8
0
 10
-79.644028
 20
138.992004
 11
-83.992012
 21
134.644028
  0
LINE
  8
0
 10
-80.170380
 20
104.705910
 11
-79.854202
 21
105.885918
  0
ARC
  8
0
 10
-85.000000
 20
140.000000
 40
34.500004
 50
233.333054
 51
306.666901
  0
CIRCLE
  8
0
 10
-73.750008
 20
159.485580
 40
3.300000
  0
CIRCLE
  8
0
 10
-51.553856
 20
106.554077
 40
2.500000
  0
CIRCLE
  8
0
 10
-51.553856
 20
106.554077
 40
2.000000
  0
ARC
  8
0
 10
-42.644310
 20
102.594269
 40
0.499995
 50
315.000610
 51
45.000618
  0
ARC
  8
0
 10
-47.594063
 20
97.644524
 40
0.500001
 50
225.000000
 51
315.000000
  0
ARC
  8
0
 10
-49.573952
 20
96.795998
 40
0.500001
 50
225.000000
 51
315.000000
  0
ARC
  8
0
 10
-41.795784
 20
104.574173
 40
0.500006
 50
314.999390
 51
44.999382
  0
ARC
  8
0
 10
-46.322319
 20
101.322525
 40
3.501482
 50
263.957001
 51
6.042940
  0
ARC
  8
0
 10
-85.000000
 20
140.000000
 40
36.000000
 50
304.597839
 51
307.016388
  0
ARC
  8
0
 10
-85.000000
 20
140.000000
 40
36.000000
 50
322.983521
 51
325.402100
  0
ARC
  8
0
 10
-85.000000
 20
140.000000
 40
35.999996
 50
232.983521
 51
235.402100
  0
CIRCLE
  8
0
 10
-118.445930
 20
106.553856
 40
2.500000
  0
CIRCLE
  8
0
 10
-118.445930
 20
106.553856
 40
2.000000
  0
ARC
  8
0
 10
-122.405731
 20
97.644318
 40
0.500006
 50
225.000626
 51
314.999390
  0
ARC
  8
0
 10
-127.355476
 20
102.594063
 40
0.500001
 50
135.000000
 51
225.000000
  0
ARC
  8
0
 10
-128.204010
 20
104.573959
 40
0.499995
 50
134.999374
 51
225.000626
  0
ARC
  8
0
 10
-120.425835
 20
96.795784
 40
0.500001
 50
225.000000
 51
315.000000
  0
ARC
  8
0
 10
-123.677475
 20
101.322319
 40
3.501483
 50
173.956818
 51
276.043060
  0
CIRCLE
  8
0
 10
-118.588402
 20
125.504318
 40
5.000000
  0
CIRCLE
  8
0
 10
-118.588402
 20
154.495697
 40
5.000000
  0
CIRCLE
  8
0
 10
-111.163780
 20
140.000000
 40
0.750000
  0
CIRCLE
  8
0
 10
-111.163780
 20
140.000000
 40
7.200000
  0
ARC
  8
0
 10
-111.163780
 20
140.000000
 40
8.000008
 50
105.358856
 51
254.641068
  0
ARC
  8
0
 10
-117.940689
 20
124.856598
 40
6.999995
 50
289.169312
 51
340.830719
  0
ARC
  8
0
 10
-113.285095
 20
159.798996
 40
6.999997
 50
19.169167
 51
70.830696
  0
CIRCLE
  8
0
 10
-128.134338
 20
135.050262
 40
2.000000
  0
CIRCLE
  8
0
 10
-128.134338
 20
135.050262
 40
1.750000
  0
CIRCLE
  8
0
 10
-128.134338
 20
135.050262
 40
4.000000
  0
ARC
  8
0
 10
-131.757538
 20
132.786240
 40
0.300003
 50
182.002457
 51
242.001221
  0
ARC
  8
0
 10
-127.985237
 20
130.780472
 40
0.300002
 50
242.002518
 51
301.998596
  0
ARC
  8
0
 10
-124.362038
 20
133.044495
 40
0.300008
 50
301.998596
 51
1.999590
  0
ARC
  8
0
 10
-124.511147
 20
137.314285
 40
0.299995
 50
1.999590
 51
61.999855
  0
ARC
  8
0
 10
-128.283447
 20
139.320038
 40
0.300006
 50
62.001225
 51
121.999825
  0
ARC
  8
0
 10
-131.906631
 20
137.056030
 40
0.299999
 50
122.001366
 51
182.002457
  0
CIRCLE
  8
0
 10
-128.134338
 20
144.949753
 40
2.000000
  0
CIRCLE
  8
0
 10
-128.134338
 20
144.949753
 40
1.750000
  0
CIRCLE
  8
0
 10
-128.134338
 20
144.949753
 40
4.000000
  0
ARC
  8
0
 10
-129.022614
 20
140.770721
 40
0.300006
 50
227.999573
 51
287.999023
  0
ARC
  8
0
 10
-124.959335
 20
142.090958
 40
0.299992
 50
288.000427
 51
348.001923
  0
ARC
  8
0
 10
-124.071053
 20
146.269989
 40
0.300006
 50
347.999390
 51
48.000656
  0
ARC
  8
0
 10
-127.246063
 20
149.128784
 40
0.300006
 50
47.999573
 51
108.000420
  0
ARC
  8
0
 10
-131.309357
 20
147.808548
 40
0.299990
 50
107.999031
 51
168.001923
  0
ARC
  8
0
 10
-132.197632
 20
143.629517
 40
0.299995
 50
168.001923
 51
228.001740
  0
ARC
  8
0
 10
-111.163780
 20
140.000000
 40
7.999993
 50
285.358887
 51
74.641144
  0
ARC
  8
0
 10
-85.000000
 20
140.000000
 40
12.499995
 50
132.248795
 51
137.751297
  0
ARC
  8
0
 10
-85.000000
 20
140.000000
 40
29.000004
 50
108.662918
 51
142.181396
  0
ARC
  8
0
 10
-85.000000
 20
140.000000
 40
28.999996
 50
234.928177
 51
251.337097
  0
ARC
  8
0
 10
-93.000000
 20
116.314560
 40
4.000002
 50
251.337097
 51
0.000000
  0
ARC
  8
0
 10
-93.000000
 20
163.685440
 40
4.000000
 50
0.000000
 51
108.662895
  0
ARC
  8
0
 10
-110.278603
 20
120.378769
 40
3.000003
 50
65.297462
 51
66.614098
  0
ARC
  8
0
 10
-110.278595
 20
159.621231
 40
2.999998
 50
293.385895
 51
322.181335
  0
CIRCLE
  8
0
 10
-118.588402
 20
125.504318
 40
4.700000
  0
CIRCLE
  8
0
 10
-118.588402
 20
154.495697
 40
4.700000
  0
CIRCLE
  8
0
 10
-111.163780
 20
129.500000
 40
2.600000
  0
CIRCLE
  8
0
 10
-111.163780
 20
129.500000
 40
3.500000
  0
CIRCLE
  8
0
 10
-111.163780
 20
150.500000
 40
2.600000
  0
CIRCLE
  8
0
 10
-111.163780
 20
150.500000
 40
3.500000
  0
ARC
  8
0
 10
-119.241440
 20
116.295265
 40
3.000000
 50
256.108948
 51
315.000092
  0
ARC
  8
0
 10
-119.196976
 20
116.339729
 40
2.999998
 50
315.000092
 51
13.891067
  0
ARC
  8
0
 10
-109.423820
 20
126.112885
 40
3.000000
 50
256.108948
 51
278.619659
  0
ARC
  8
0
 10
-109.379356
 20
126.157349
 40
3.000001
 50
308.811462
 51
13.891067
  0
ARC
  8
0
 10
-109.379356
 20
153.842651
 40
3.000000
 50
346.108948
 51
45.000000
  0
ARC
  8
0
 10
-109.423820
 20
153.887115
 40
3.000003
 50
45.000000
 51
103.891068
  0
ARC
  8
0
 10
-119.196968
 20
163.660278
 40
3.000000
 50
346.108948
 51
45.000000
  0
ARC
  8
0
 10
-119.241432
 20
163.704742
 40
2.999998
 50
45.000103
 51
103.891068
  0
ARC
  8
0
 10
-85.000000
 20
140.000000
 40
37.999996
 50
216.227859
 51
217.439148
  0
ARC
  8
0
 10
-112.383369
 20
136.603729
 40
14.999999
 50
307.518250
 51
21.582382
  0
ARC
  8
0
 10
-106.293236
 20
128.672119
 40
4.999995
 50
250.124252
 51
307.518280
  0
ARC
  8
0
 10
-90.656853
 20
140.000000
 40
1.000001
 50
135.000000
 51
225.000000
  0
ARC
  8
0
 10
-85.000000
 20
134.343140
 40
1.000001
 50
225.000000
 51
315.000000
  0
ARC
  8
0
 10
-79.343147
 20
140.000000
 40
1.000001
 50
315.000000
 51
45.000000
  0
ARC
  8
0
 10
-85.000000
 20
145.656860
 40
1.000001
 50
45.000000
 51
135.000000
  0
ARC
  8
0
 10
-85.000000
 20
146.363968
 40
1.000001
 50
45.000000
 51
135.000626
  0
ARC
  8
0
 10
-91.363960
 20
140.000000
 40
1.000001
 50
135.000000
 51
225.000000
  0
ARC
  8
0
 10
-85.000000
 20
133.636032
 40
1.000001
 50
225.000000
 51
315.000000
  0
ARC
  8
0
 10
-78.636040
 20
140.000000
 40
1.000001
 50
315.000000
 51
45.000000
  0
ARC
  8
0
 10
-56.161964
 20
163.181183
 40
1.000001
 50
315.000000
 51
38.794025
  0
ARC
  8
0
 10
-85.000000
 20
140.000000
 40
38.000000
 50
38.793678
 51
52.560837
  0
ARC
  8
0
 10
-73.672127
 20
161.293228
 40
4.999993
 50
322.481842
 51
19.875711
  0
ARC
  8
0
 10
-81.603729
 20
167.383362
 40
14.999995
 50
248.417557
 51
322.481750
  0
ARC
  8
0
 10
-108.334526
 20
120.908119
 40
2.000002
 50
45.000000
 51
135.000153
  0
ARC
  8
0
 10
-104.091881
 20
116.665474
 40
1.999997
 50
315.000153
 51
45.000000
  0
CIRCLE
  8
0
 10
-108.688072
 20
116.311920
 40
3.500000
  0
ARC
  8
0
 10
-85.000000
 20
140.000000
 40
37.999992
 50
52.560837
 51
53.772121
  0
ARC
  8
0
 10
-85.000000
 20
140.000000
 40
34.500004
 50
54.155491
 51
133.367981
  0
ARC
  8
0
 10
-85.000000
 20
140.000000
 40
34.500000
 50
323.333069
 51
36.666927
  0
ARC
  8
0
 10
-96.200005
 20
120.500000
 40
5.000001
 50
217.540787
 51
22.459269
  0
CIRCLE
  8
0
 10
-96.199997
 20
159.500000
 40
5.000000
  0
CIRCLE
  8
0
 10
-96.199997
 20
159.500000
 40
4.400000
  0
ARC
  8
0
 10
-96.200005
 20
120.500000
 40
4.400004
 50
218.576340
 51
21.423748
  0
ARC
  8
0
 10
-96.200005
 20
120.500000
 40
6.100005
 50
216.809998
 51
237.651154
  0
ARC
  8
0
 10
-96.199997
 20
159.500000
 40
6.100005
 50
122.348846
 51
117.651154
  0
ARC
  8
0
 10
-96.200005
 20
120.500000
 40
6.100004
 50
242.348846
 51
23.824978
  0
ARC
  8
0
 10
-85.000000
 20
140.000000
 40
12.500004
 50
278.130035
 51
351.869995
  0
ARC
  8
0
 10
-85.000000
 20
174.000000
 40
5.000007
 50
15.000010
 51
164.999969
  0
ARC
  8
0
 10
-85.000000
 20
106.000000
 40
5.000000
 50
195.000031
 51
344.999969
  0
ARC
  8
0
 10
-55.555138
 20
123.000000
 40
5.000000
 50
265.538330
 51
45.000031
  0
ARC
  8
0
 10
-55.555130
 20
157.000000
 40
5.000000
 50
314.999939
 51
94.461769
  0
ARC
  8
0
 10
-85.000000
 20
140.000000
 40
39.500000
 50
232.272110
 51
307.727844
  0
ARC
  8
0
 10
-85.000000
 20
140.000000
 40
5.950004
 50
167.824341
 51
192.175522
  0
ARC
  8
0
 10
-85.000000
 20
140.000000
 40
5.449996
 50
349.341736
 51
10.658412
  0
ARC
  8
0
 10
-85.000000
 20
174.000000
 40
2.100004
 50
12.061711
 51
167.938248
  0
ARC
  8
0
 10
-85.000000
 20
106.000000
 40
2.100004
 50
192.061707
 51
347.938232
  0
ARC
  8
0
 10
-55.555138
 20
123.000000
 40
2.099994
 50
252.061615
 51
47.938457
  0
ARC
  8
0
 10
-55.555134
 20
157.000000
 40
2.100002
 50
312.061462
 51
107.938583
  0
ARC
  8
0
 10
-85.000000
 20
140.000000
 40
5.449998
 50
79.341667
 51
100.658333
  0
ARC
  8
0
 10
-85.000000
 20
140.000000
 40
5.449996
 50
169.341751
 51
190.658249
  0
ARC
  8
0
 10
-85.000000
 20
140.000000
 40
5.449998
 50
259.341675
 51
280.658325
  0
ARC
  8
0
 10
-85.000000
 20
140.000000
 40
39.500004
 50
322.272125
 51
142.270370
  0
ARC
  8
0
 10
-85.000000
 20
140.000000
 40
5.950004
 50
257.824341
 51
282.175598
  0
ARC
  8
0
 10
-85.000000
 20
140.000000
 40
5.950004
 50
347.824341
 51
12.175522
  0
ARC
  8
0
 10
-85.000000
 20
140.000000
 40
5.950004
 50
77.824333
 51
102.175591
  0
POINT
  8
0
 10
51.674988
 20
135.250000
  0
POINT
  8
0
 10
103.374985
 20
135.250000
  0
LINE
  8
0
 10
52.874985
 20
169.750000
 11
52.874985
 21
163.549988
  0
LINE
  8
0
 10
46.674988
 20
100.750000
 11
52.324982
 21
100.750000
  0
LINE
  8
0
 10
46.674973
 20
169.750000
 11
52.874977
 21
169.750000
  0
LINE
  8
0
 10
60.124985
 20
99.823952
 11
67.524986
 21
99.823952
  0
LINE
  8
0
 10
59.324989
 20
97.844048
 11
68.324982
 21
97.844048
  0
LINE
  8
0
 10
59.324989
 20
92.394295
 11
68.324982
 21
92.394295
  0
LINE
  8
0
 10
60.124985
 20
91.545769
 11
67.524986
 21
91.545769
  0
LINE
  8
0
 10
60.124985
 20
104.208008
 11
67.524986
 21
104.208008
  0
LINE
  8
0
 10
68.024986
 20
103.708008
 11
68.024986
 21
98.909744
  0
LINE
  8
0
 10
68.824982
 20
102.293793
 11
68.824982
 21
92.894295
  0
LINE
  8
0
 10
59.624985
 20
103.708008
 11
59.624985
 21
98.909737
  0
LINE
  8
0
 10
58.824989
 20
102.293793
 11
58.824989
 21
92.894295
  0
LINE
  8
0
 10
60.124985
 20
98.409737
 11
67.524986
 21
98.409737
  0
LINE
  8
0
 10
58.324982
 20
102.793793
 11
59.624985
 21
102.793793
  0
LINE
  8
0
 10
59.624985
 20
92.394295
 11
59.624985
 21
92.045769
  0
LINE
  8
0
 10
68.024986
 20
92.394295
 11
68.024986
 21
92.045769
  0
LINE
  8
0
 10
68.024986
 20
102.793793
 11
69.324989
 21
102.793793
  0
LINE
  8
0
 10
52.324982
 20
102.510948
 11
58.324982
 21
102.510948
  0
LINE
  8
0
 10
69.324989
 20
102.793793
 11
69.324989
 21
96.854095
  0
LINE
  8
0
 10
58.324982
 20
102.793793
 11
58.324982
 21
96.854095
  0
LINE
  8
0
 10
69.324989
 20
102.510948
 11
74.324989
 21
102.510948
  0
LINE
  8
0
 10
52.324982
 20
96.854095
 11
58.324982
 21
96.854095
  0
LINE
  8
0
 10
58.324982
 20
97.136932
 11
58.824989
 21
97.136932
  0
LINE
  8
0
 10
68.824982
 20
97.136932
 11
69.324989
 21
97.136932
  0
LINE
  8
0
 10
69.324989
 20
96.854095
 11
74.324989
 21
96.854095
  0
LINE
  8
0
 10
76.324982
 20
171.195923
 11
76.324982
 21
166.195923
  0
LINE
  8
0
 10
74.324989
 20
171.195923
 11
76.324982
 21
171.195923
  0
LINE
  8
0
 10
76.324982
 20
170.695923
 11
100.824982
 21
170.695923
  0
LINE
  8
0
 10
76.324982
 20
166.695923
 11
100.824982
 21
166.695923
  0
LINE
  8
0
 10
74.324989
 20
166.195923
 11
76.324982
 21
166.195923
  0
LINE
  8
0
 10
40.874992
 20
114.647911
 11
42.374985
 21
114.647911
  0
LINE
  8
0
 10
39.374992
 20
113.576416
 11
42.374985
 21
113.576416
  0
LINE
  8
0
 10
39.374992
 20
106.505341
 11
42.374985
 21
106.505341
  0
LINE
  8
0
 10
39.374992
 20
116.653114
 11
39.374992
 21
106.505341
  0
LINE
  8
0
 10
40.874992
 20
115.505829
 11
40.874992
 21
114.647911
  0
LINE
  8
0
 10
42.374985
 20
117.713776
 11
42.374985
 21
113.576416
  0
LINE
  8
0
 10
46.374985
 20
117.713776
 11
46.374985
 21
113.576416
  0
LINE
  8
0
 10
46.374985
 20
114.647911
 11
47.324986
 21
114.647911
  0
LINE
  8
0
 10
42.374985
 20
114.808731
 11
46.374985
 21
114.808731
  0
LINE
  8
0
 10
42.374985
 20
105.616341
 11
46.374985
 21
105.616341
  0
LINE
  8
0
 10
46.374985
 20
106.505341
 11
52.324982
 21
106.505341
  0
LINE
  8
0
 10
46.374985
 20
113.576416
 11
52.874985
 21
113.576416
  0
LINE
  8
0
 10
42.374985
 20
106.505341
 11
42.374985
 21
105.616341
  0
LINE
  8
0
 10
46.374985
 20
106.505341
 11
46.374985
 21
105.616341
  0
LINE
  8
0
 10
46.674980
 20
106.505341
 11
46.674980
 21
100.750000
  0
LINE
  8
0
 10
42.374985
 20
117.713776
 11
46.374985
 21
117.713776
  0
LINE
  8
0
 10
39.374992
 20
116.653114
 11
42.374985
 21
116.653114
  0
LINE
  8
0
 10
39.374992
 20
115.505829
 11
42.374985
 21
115.505829
  0
LINE
  8
0
 10
46.374985
 20
116.653114
 11
46.674980
 21
116.653114
  0
LINE
  8
0
 10
46.374985
 20
115.505829
 11
46.674980
 21
115.505829
  0
LINE
  8
0
 10
46.674980
 20
169.750000
 11
46.674980
 21
114.647911
  0
LINE
  8
0
 10
52.874985
 20
106.949997
 11
57.374985
 21
106.949997
  0
LINE
  8
0
 10
52.874985
 20
163.549988
 11
57.374985
 21
163.549988
  0
LINE
  8
0
 10
57.374985
 20
122.781456
 11
89.374985
 21
122.781456
  0
LINE
  8
0
 10
57.374985
 20
147.718994
 11
89.374985
 21
147.718994
  0
LINE
  8
0
 10
52.874985
 20
106.949997
 11
52.874985
 21
163.549988
  0
LINE
  8
0
 10
57.374985
 20
106.965729
 11
57.374985
 21
163.534271
  0
LINE
  8
0
 10
89.374985
 20
106.965729
 11
89.374985
 21
163.534271
  0
LINE
  8
0
 10
92.874985
 20
126.768463
 11
92.874985
 21
133.692444
  0
LINE
  8
0
 10
97.874985
 20
128.600250
 11
97.874985
 21
132.000259
  0
LINE
  8
0
 10
89.374985
 20
125.684265
 11
92.524986
 21
125.684265
  0
LINE
  8
0
 10
89.374985
 20
127.852661
 11
92.524986
 21
127.852661
  0
LINE
  8
0
 10
89.374985
 20
132.468658
 11
92.524986
 21
132.468658
  0
LINE
  8
0
 10
89.374985
 20
134.916245
 11
92.524986
 21
134.916245
  0
LINE
  8
0
 10
89.374985
 20
138.772461
 11
92.524986
 21
138.772461
  0
LINE
  8
0
 10
89.374985
 20
135.681885
 11
92.524986
 21
135.681885
  0
LINE
  8
0
 10
89.374985
 20
143.290329
 11
92.524986
 21
143.290329
  0
LINE
  8
0
 10
89.374985
 20
144.717621
 11
92.524986
 21
144.717621
  0
LINE
  8
0
 10
92.874985
 20
137.227158
 11
92.874985
 21
144.003967
  0
LINE
  8
0
 10
97.874985
 20
138.499741
 11
97.874985
 21
141.899750
  0
LINE
  8
0
 10
103.374985
 20
129.049988
 11
103.374985
 21
141.449997
  0
LINE
  8
0
 10
92.874985
 20
128.300262
 11
97.574982
 21
128.300262
  0
LINE
  8
0
 10
92.874985
 20
132.300262
 11
97.574982
 21
132.300262
  0
LINE
  8
0
 10
92.874985
 20
138.199738
 11
97.574982
 21
138.199738
  0
LINE
  8
0
 10
92.874985
 20
142.199738
 11
97.574982
 21
142.199738
  0
LINE
  8
0
 10
97.574982
 20
128.300247
 11
97.574982
 21
132.300247
  0
LINE
  8
0
 10
97.574982
 20
138.199738
 11
97.574982
 21
142.199738
  0
LINE
  8
0
 10
92.874985
 20
128.550262
 11
97.824982
 21
128.550262
  0
LINE
  8
0
 10
92.874985
 20
132.050262
 11
97.824982
 21
132.050262
  0
LINE
  8
0
 10
92.874985
 20
138.449738
 11
97.824982
 21
138.449738
  0
LINE
  8
0
 10
92.874985
 20
141.949738
 11
97.824982
 21
141.949738
  0
LINE
  8
0
 10
92.874985
 20
128.050003
 11
102.374985
 21
128.050003
  0
LINE
  8
0
 10
92.874985
 20
142.449997
 11
102.374985
 21
142.449997
  0
LINE
  8
0
 10
57.374985
 20
106.965729
 11
89.374985
 21
106.965729
  0
LINE
  8
0
 10
57.374985
 20
163.534271
 11
89.374985
 21
163.534271
  0
LINE
  8
0
 10
90.074982
 20
125.080971
 11
90.074982
 21
125.684265
  0
LINE
  8
0
 10
90.474983
 20
124.642754
 11
90.474983
 21
125.684265
  0
LINE
  8
0
 10
91.924988
 20
124.718559
 11
91.924988
 21
124.781441
  0
LINE
  8
0
 10
90.074982
 20
144.717621
 11
90.074982
 21
145.419022
  0
LINE
  8
0
 10
90.474983
 20
144.717621
 11
90.474983
 21
145.857239
  0
LINE
  8
0
 10
91.924988
 20
145.718552
 11
91.924988
 21
145.781433
  0
LINE
  8
0
 10
89.663429
 20
116.054306
 11
89.374985
 21
116.054306
  0
LINE
  8
0
 10
89.663429
 20
125.454308
 11
89.374985
 21
125.454308
  0
LINE
  8
0
 10
89.663429
 20
125.454308
 11
89.663429
 21
116.054306
  0
LINE
  8
0
 10
89.663429
 20
145.045685
 11
89.374985
 21
145.045685
  0
LINE
  8
0
 10
89.663429
 20
154.445694
 11
89.374985
 21
154.445694
  0
LINE
  8
0
 10
89.663429
 20
154.445679
 11
89.663429
 21
145.045685
  0
LINE
  8
0
 10
47.324986
 20
122.760109
 11
47.324986
 21
114.539894
  0
LINE
  8
0
 10
47.624989
 20
122.900002
 11
47.624989
 21
114.400002
  0
LINE
  8
0
 10
47.624985
 20
122.900002
 11
52.324986
 21
122.900002
  0
LINE
  8
0
 10
47.624989
 20
114.400002
 11
52.324986
 21
114.400002
  0
LINE
  8
0
 10
47.324982
 20
122.760109
 11
47.624981
 21
122.900002
  0
LINE
  8
0
 10
47.324974
 20
114.539871
 11
47.624977
 21
114.399979
  0
LINE
  8
0
 10
47.624989
 20
120.900002
 11
49.995277
 21
120.900002
  0
LINE
  8
0
 10
47.624985
 20
118.900002
 11
48.840584
 21
118.900002
  0
LINE
  8
0
 10
47.324986
 20
155.960114
 11
47.324986
 21
147.739899
  0
LINE
  8
0
 10
47.624989
 20
156.100006
 11
47.624989
 21
147.600006
  0
LINE
  8
0
 10
47.624989
 20
156.100006
 11
52.324986
 21
156.100006
  0
LINE
  8
0
 10
47.624989
 20
147.600006
 11
52.324986
 21
147.600006
  0
LINE
  8
0
 10
47.324982
 20
155.960114
 11
47.624981
 21
156.100006
  0
LINE
  8
0
 10
47.324989
 20
147.739899
 11
47.624992
 21
147.600006
  0
LINE
  8
0
 10
47.624989
 20
154.100006
 11
49.995281
 21
154.100006
  0
LINE
  8
0
 10
47.624989
 20
152.100006
 11
48.840588
 21
152.100006
  0
LINE
  8
0
 10
97.575005
 20
132.300278
 11
97.875000
 21
132.000275
  0
LINE
  8
0
 10
97.574989
 20
128.300262
 11
97.874985
 21
128.600266
  0
LINE
  8
0
 10
97.574997
 20
142.199753
 11
97.875000
 21
141.899750
  0
LINE
  8
0
 10
97.575005
 20
138.199722
 11
97.875000
 21
138.499725
  0
LINE
  8
0
 10
52.874985
 20
122.750000
 11
57.374985
 21
122.750000
  0
LINE
  8
0
 10
52.874985
 20
147.750000
 11
57.374985
 21
147.750000
  0
LINE
  8
0
 10
60.324989
 20
106.965729
 11
60.324989
 21
104.208008
  0
LINE
  8
0
 10
52.324982
 20
107.955650
 11
52.324982
 21
96.854095
  0
LINE
  8
0
 10
67.324989
 20
106.965729
 11
67.324989
 21
104.208008
  0
LINE
  8
0
 10
74.324989
 20
106.965729
 11
74.324989
 21
96.854095
  0
LINE
  8
0
 10
100.824982
 20
170.695923
 11
100.824982
 21
166.695923
  0
LINE
  8
0
 10
100.824982
 20
168.395935
 11
103.824982
 21
168.395935
  0
LINE
  8
0
 10
100.824982
 20
168.995926
 11
103.824982
 21
168.995926
  0
LINE
  8
0
 10
100.824982
 20
167.395935
 11
103.824982
 21
167.395935
  0
LINE
  8
0
 10
100.824982
 20
169.995926
 11
103.824982
 21
169.995926
  0
LINE
  8
0
 10
103.824982
 20
169.995926
 11
103.824982
 21
168.995926
  0
LINE
  8
0
 10
103.824982
 20
168.395935
 11
103.824982
 21
167.395935
  0
LINE
  8
0
 10
103.824982
 20
169.870926
 11
105.324982
 21
169.870926
  0
LINE
  8
0
 10
103.824982
 20
169.745926
 11
105.324982
 21
169.745926
  0
LINE
  8
0
 10
103.824982
 20
169.620926
 11
105.324982
 21
169.620926
  0
LINE
  8
0
 10
103.824982
 20
169.495926
 11
105.324982
 21
169.495926
  0
LINE
  8
0
 10
103.824982
 20
169.370926
 11
105.324982
 21
169.370926
  0
LINE
  8
0
 10
103.824982
 20
169.245926
 11
105.324982
 21
169.245926
  0
LINE
  8
0
 10
103.824982
 20
169.120926
 11
105.324982
 21
169.120926
  0
LINE
  8
0
 10
103.824982
 20
168.270935
 11
105.324982
 21
168.270935
  0
LINE
  8
0
 10
103.824982
 20
168.145935
 11
105.324982
 21
168.145935
  0
LINE
  8
0
 10
103.824982
 20
168.020935
 11
105.324982
 21
168.020935
  0
LINE
  8
0
 10
103.824982
 20
167.895935
 11
105.324982
 21
167.895935
  0
LINE
  8
0
 10
103.824982
 20
167.770935
 11
105.324982
 21
167.770935
  0
LINE
  8
0
 10
103.824982
 20
167.645935
 11
105.324982
 21
167.645935
  0
LINE
  8
0
 10
103.824982
 20
167.520935
 11
105.324982
 21
167.520935
  0
LINE
  8
0
 10
65.325035
 20
169.544449
 11
65.325035
 21
163.534271
  0
LINE
  8
0
 10
62.324982
 20
169.544464
 11
62.324982
 21
163.534271
  0
LINE
  8
0
 10
60.124977
 20
178.953995
 11
67.524979
 21
178.953995
  0
LINE
  8
0
 10
59.324982
 20
178.105469
 11
59.624977
 21
178.105469
  0
LINE
  8
0
 10
60.124977
 20
174.777039
 11
67.524979
 21
174.777039
  0
LINE
  8
0
 10
58.324974
 20
173.362823
 11
60.324982
 21
173.362823
  0
LINE
  8
0
 10
59.624985
 20
178.453995
 11
59.624985
 21
173.362823
  0
LINE
  8
0
 10
68.024986
 20
178.454010
 11
68.024986
 21
173.362823
  0
LINE
  8
0
 10
68.824982
 20
177.605469
 11
68.824982
 21
173.362823
  0
LINE
  8
0
 10
58.824989
 20
177.605469
 11
58.824989
 21
173.362823
  0
LINE
  8
0
 10
58.324982
 20
173.645676
 11
58.324982
 21
173.645660
  0
LINE
  8
0
 10
69.324989
 20
173.645676
 11
69.324989
 21
173.362823
  0
LINE
  8
0
 10
52.324974
 20
173.645660
 11
58.324974
 21
173.645660
  0
LINE
  8
0
 10
69.324982
 20
173.645660
 11
74.324989
 21
173.645660
  0
LINE
  8
0
 10
68.024979
 20
178.105469
 11
68.324974
 21
178.105469
  0
LINE
  8
0
 10
67.524979
 20
174.352783
 11
67.524979
 21
173.362823
  0
LINE
  8
0
 10
60.124985
 20
174.352783
 11
60.124985
 21
173.362823
  0
LINE
  8
0
 10
60.124977
 20
174.352768
 11
67.524971
 21
174.352768
  0
LINE
  8
0
 10
62.324982
 20
166.716019
 11
65.325035
 21
166.716019
  0
LINE
  8
0
 10
60.324989
 20
174.352783
 11
60.324989
 21
163.534271
  0
LINE
  8
0
 10
67.324997
 20
174.352768
 11
67.324997
 21
163.534271
  0
LINE
  8
0
 10
67.324989
 20
173.362823
 11
69.324982
 21
173.362823
  0
LINE
  8
0
 10
52.324982
 20
173.645676
 11
52.324982
 21
169.750000
  0
LINE
  8
0
 10
74.324989
 20
173.645676
 11
74.324989
 21
163.534271
  0
LINE
  8
0
 10
52.874985
 20
168.200943
 11
54.424587
 21
168.200943
  0
LINE
  8
0
 10
62.324982
 20
167.776672
 11
65.325035
 21
167.776672
  0
LINE
  8
0
 10
67.324997
 20
167.776672
 11
74.175003
 21
167.776672
  0
LINE
  8
0
 10
67.324989
 20
168.200943
 11
74.324982
 21
168.200943
  0
LINE
  8
0
 10
59.324986
 20
167.423141
 11
60.324978
 21
166.716049
  0
LINE
  8
0
 10
59.324997
 20
168.483810
 11
60.325001
 21
167.776703
  0
LINE
  8
0
 10
54.874985
 20
168.483810
 11
59.324989
 21
168.483810
  0
LINE
  8
0
 10
56.174984
 20
167.423141
 11
59.324974
 21
167.423141
  0
LINE
  8
0
 10
59.324974
 20
167.423157
 11
59.324989
 21
168.483810
  0
LINE
  8
0
 10
39.374992
 20
163.994659
 11
42.374985
 21
163.994659
  0
LINE
  8
0
 10
40.875000
 20
162.923157
 11
42.374985
 21
162.923157
  0
LINE
  8
0
 10
39.374992
 20
162.065247
 11
42.374985
 21
162.065247
  0
LINE
  8
0
 10
39.374992
 20
160.917953
 11
46.674980
 21
160.917953
  0
LINE
  8
0
 10
39.374996
 20
163.994659
 11
39.374996
 21
153.846893
  0
LINE
  8
0
 10
40.875004
 20
162.923157
 11
40.875004
 21
162.065247
  0
LINE
  8
0
 10
42.374989
 20
164.883667
 11
42.374989
 21
160.917953
  0
LINE
  8
0
 10
46.374996
 20
164.883667
 11
46.374996
 21
160.917953
  0
LINE
  8
0
 10
46.374992
 20
162.923157
 11
46.674980
 21
162.923157
  0
LINE
  8
0
 10
46.374996
 20
163.994659
 11
46.674980
 21
163.994659
  0
LINE
  8
0
 10
46.374992
 20
162.065247
 11
46.674980
 21
162.065247
  0
LINE
  8
0
 10
42.374985
 20
161.978607
 11
46.374992
 21
161.978607
  0
LINE
  8
0
 10
42.374985
 20
164.883652
 11
46.374992
 21
164.883652
  0
LINE
  8
0
 10
42.374989
 20
153.846893
 11
42.374989
 21
152.786240
  0
LINE
  8
0
 10
46.374996
 20
153.846893
 11
46.374996
 21
152.786240
  0
LINE
  8
0
 10
42.374985
 20
152.786224
 11
46.374992
 21
152.786224
  0
LINE
  8
0
 10
39.374992
 20
153.846878
 11
43.322495
 21
153.846878
  0
LINE
  8
0
 10
42.374996
 20
157.382416
 11
42.374996
 21
155.048965
  0
LINE
  8
0
 10
46.374996
 20
157.382431
 11
46.374996
 21
155.048965
  0
LINE
  8
0
 10
45.428741
 20
153.846878
 11
46.674980
 21
153.846878
  0
LINE
  8
0
 10
55.874985
 20
167.123138
 11
55.874985
 21
163.549988
  0
LINE
  8
0
 10
54.374985
 20
167.983810
 11
54.374985
 21
163.549988
  0
LINE
  8
0
 10
52.874985
 20
163.994659
 11
53.574986
 21
163.994659
  0
LINE
  8
0
 10
52.324986
 20
114.150002
 11
52.324986
 21
123.150002
  0
LINE
  8
0
 10
52.324986
 20
114.150002
 11
52.874985
 21
114.150002
  0
LINE
  8
0
 10
52.324986
 20
123.150002
 11
52.874985
 21
123.150002
  0
LINE
  8
0
 10
52.324986
 20
156.350006
 11
52.874985
 21
156.350006
  0
LINE
  8
0
 10
52.324986
 20
147.350006
 11
52.874985
 21
147.350006
  0
LINE
  8
0
 10
52.324986
 20
147.350006
 11
52.324986
 21
156.350006
  0
LINE
  8
0
 10
103.824982
 20
100.628845
 11
105.324982
 21
100.628845
  0
LINE
  8
0
 10
76.324982
 20
104.303841
 11
76.324982
 21
99.303841
  0
LINE
  8
0
 10
74.324989
 20
104.303841
 11
76.324982
 21
104.303841
  0
LINE
  8
0
 10
76.324982
 20
103.803841
 11
100.824982
 21
103.803841
  0
LINE
  8
0
 10
76.324982
 20
99.803841
 11
100.824982
 21
99.803841
  0
LINE
  8
0
 10
74.324989
 20
99.303841
 11
76.324982
 21
99.303841
  0
LINE
  8
0
 10
100.824982
 20
103.803841
 11
100.824982
 21
99.803841
  0
LINE
  8
0
 10
100.824982
 20
101.503845
 11
103.824982
 21
101.503845
  0
LINE
  8
0
 10
100.824982
 20
102.103836
 11
103.824982
 21
102.103836
  0
LINE
  8
0
 10
100.824982
 20
100.503845
 11
103.824982
 21
100.503845
  0
LINE
  8
0
 10
100.824982
 20
103.103836
 11
103.824982
 21
103.103836
  0
LINE
  8
0
 10
103.824982
 20
103.103836
 11
103.824982
 21
102.103836
  0
LINE
  8
0
 10
103.824982
 20
101.503845
 11
103.824982
 21
100.503845
  0
LINE
  8
0
 10
103.824982
 20
102.978836
 11
105.324982
 21
102.978836
  0
LINE
  8
0
 10
103.824982
 20
102.853836
 11
105.324982
 21
102.853836
  0
LINE
  8
0
 10
103.824982
 20
102.728836
 11
105.324982
 21
102.728836
  0
LINE
  8
0
 10
103.824982
 20
102.603836
 11
105.324982
 21
102.603836
  0
LINE
  8
0
 10
103.824982
 20
102.478836
 11
105.324982
 21
102.478836
  0
LINE
  8
0
 10
103.824982
 20
102.353836
 11
105.324982
 21
102.353836
  0
LINE
  8
0
 10
103.824982
 20
102.228836
 11
105.324982
 21
102.228836
  0
LINE
  8
0
 10
103.824982
 20
101.378845
 11
105.324982
 21
101.378845
  0
LINE
  8
0
 10
103.824982
 20
101.253845
 11
105.324982
 21
101.253845
  0
LINE
  8
0
 10
103.824982
 20
101.128845
 11
105.324982
 21
101.128845
  0
LINE
  8
0
 10
103.824982
 20
101.003845
 11
105.324982
 21
101.003845
  0
LINE
  8
0
 10
103.824982
 20
100.878845
 11
105.324982
 21
100.878845
  0
LINE
  8
0
 10
103.824982
 20
100.753845
 11
105.324982
 21
100.753845
  0
LINE
  8
0
 10
58.324974
 20
173.645660
 11
58.324974
 21
173.362823
  0
LINE
  8
0
 10
37.674988
 20
164.250000
 11
37.674988
 21
106.250000
  0
LINE
  8
0
 10
37.674919
 20
106.250046
 11
39.374992
 21
108.516800
  0
LINE
  8
0
 10
37.674988
 20
164.249878
 11
39.374996
 21
161.983200
  0
LINE
  8
0
 10
40.674988
 20
153.671844
 11
40.674988
 21
142.000000
  0
LINE
  8
0
 10
40.674988
 20
128.500000
 11
40.674988
 21
116.828148
  0
LINE
  8
0
 10
41.674988
 20
141.000000
 11
46.674980
 21
141.000000
  0
LINE
  8
0
 10
41.674988
 20
129.500000
 11
46.674980
 21
129.500000
  0
LINE
  8
0
 10
67.324997
 20
166.716019
 11
74.175003
 21
166.716019
  0
LINE
  8
0
 10
74.175003
 20
167.776688
 11
74.175003
 21
163.534271
  0
LINE
  8
0
 10
59.725048
 20
168.200943
 11
60.324989
 21
168.200943
  0
LINE
  8
0
 10
62.324982
 20
168.200943
 11
65.325035
 21
168.200943
  0
LINE
  8
0
 10
52.324982
 20
107.955650
 11
52.874985
 21
107.955650
  0
ARC
  8
0
 10
60.124985
 20
103.708008
 40
0.500000
 50
90.000000
 51
180.000000
  0
ARC
  8
0
 10
67.524986
 20
103.708008
 40
0.500000
 50
0.000000
 51
90.000000
  0
ARC
  8
0
 10
68.324982
 20
102.293793
 40
0.500000
 50
0.000000
 51
90.000000
  0
ARC
  8
0
 10
59.324989
 20
102.293793
 40
0.500000
 50
90.000000
 51
180.000000
  0
ARC
  8
0
 10
59.324989
 20
92.894295
 40
0.500000
 50
180.000000
 51
270.000000
  0
ARC
  8
0
 10
68.324982
 20
92.894295
 40
0.500000
 50
270.000000
 51
0.000000
  0
ARC
  8
0
 10
67.524986
 20
92.045769
 40
0.500000
 50
270.000000
 51
0.000000
  0
ARC
  8
0
 10
60.124985
 20
92.045769
 40
0.500000
 50
180.000000
 51
270.000000
  0
ARC
  8
0
 10
67.524986
 20
98.909744
 40
0.500000
 50
270.000000
 51
0.000000
  0
ARC
  8
0
 10
60.124985
 20
98.909737
 40
0.500000
 50
180.000000
 51
270.000000
  0
CIRCLE
  8
0
 10
63.374985
 20
135.250000
 40
1.800000
  0
ARC
  8
0
 10
91.020721
 20
126.768463
 40
1.854259
 50
324.217712
 51
35.782295
  0
ARC
  8
0
 10
85.090225
 20
130.160660
 40
7.784758
 50
342.753845
 51
17.245985
  0
ARC
  8
0
 10
90.560448
 20
133.692444
 40
2.314541
 50
328.079346
 51
31.920660
  0
ARC
  8
0
 10
89.288681
 20
137.227158
 40
3.586298
 50
334.476166
 51
25.523788
  0
ARC
  8
0
 10
85.410301
 20
141.031387
 40
7.464676
 50
342.385223
 51
17.614874
  0
ARC
  8
0
 10
91.972427
 20
144.003967
 40
0.902548
 50
307.749664
 51
52.250538
  0
ARC
  8
0
 10
102.374985
 20
129.049988
 40
1.000000
 50
270.000000
 51
0.000000
  0
ARC
  8
0
 10
102.374985
 20
141.449997
 40
1.000000
 50
0.000000
 51
90.000000
  0
ARC
  8
0
 10
88.924988
 20
124.718559
 40
3.000006
 50
326.386139
 51
359.999847
  0
ARC
  8
0
 10
88.924988
 20
124.781441
 40
3.000000
 50
359.999847
 51
17.514137
  0
ARC
  8
0
 10
88.924988
 20
145.718552
 40
2.999997
 50
340.509888
 51
0.000000
  0
ARC
  8
0
 10
88.924988
 20
145.781433
 40
3.000000
 50
0.000000
 51
33.613850
  0
ARC
  8
0
 10
85.774986
 20
120.754311
 40
6.100008
 50
309.601959
 51
50.397964
  0
ARC
  8
0
 10
85.774986
 20
149.745682
 40
6.100002
 50
309.601990
 51
50.398010
  0
ARC
  8
0
 10
60.124977
 20
178.453995
 40
0.500000
 50
90.000000
 51
180.000000
  0
ARC
  8
0
 10
67.524979
 20
178.454010
 40
0.500000
 50
0.000000
 51
90.000000
  0
ARC
  8
0
 10
67.524979
 20
174.277039
 40
0.500000
 50
0.000000
 51
90.000000
  0
ARC
  8
0
 10
60.124977
 20
174.277039
 40
0.500000
 50
90.000000
 51
180.000000
  0
ARC
  8
0
 10
68.324974
 20
177.605469
 40
0.500000
 50
0.000000
 51
90.000000
  0
ARC
  8
0
 10
59.324982
 20
177.605469
 40
0.500000
 50
90.000000
 51
180.000000
  0
ARC
  8
0
 10
54.874985
 20
167.983810
 40
0.500000
 50
90.000000
 51
180.000000
  0
ARC
  8
0
 10
56.174984
 20
167.123138
 40
0.300003
 50
90.000000
 51
180.000000
  0
ARC
  8
0
 10
53.574986
 20
163.194656
 40
0.799995
 50
26.370047
 51
90.000000
  0
ARC
  8
0
 10
41.674988
 20
142.000000
 40
1.000000
 50
180.000000
 51
270.000000
  0
ARC
  8
0
 10
41.674988
 20
128.500000
 40
1.000000
 50
90.000000
 51
180.000000
  0
ARC
  8
0
 10
63.278240
 20
107.250275
 40
0.965201
 50
197.152481
 51
231.388458
  0
ARC
  8
0
 10
63.824989
 20
108.049080
 40
1.931890
 50
233.502274
 51
306.497711
  0
ARC
  8
0
 10
64.371742
 20
107.250275
 40
0.965200
 50
308.611359
 51
342.846527
  0
ARC
  8
0
 10
43.555275
 20
110.040878
 40
2.130287
 50
176.237030
 51
191.773270
  0
ARC
  8
0
 10
43.772846
 20
110.107346
 40
2.356930
 50
192.275894
 51
225.305435
  0
ARC
  8
0
 10
44.374985
 20
110.840446
 40
3.302727
 50
226.824783
 51
313.174927
  0
ARC
  8
0
 10
44.977123
 20
110.107346
 40
2.356934
 50
314.694183
 51
347.723724
  0
ARC
  8
0
 10
45.194695
 20
110.040878
 40
2.130287
 50
348.226318
 51
356.237244
  0
ARC
  8
0
 10
56.043663
 20
99.682526
 40
0.425080
 50
345.893921
 51
14.107077
  0
ARC
  8
0
 10
55.932537
 20
99.641792
 40
0.542926
 50
15.417852
 51
51.388790
  0
ARC
  8
0
 10
55.624996
 20
99.192459
 40
1.086688
 50
53.502842
 51
126.498047
  0
ARC
  8
0
 10
55.317448
 20
99.641785
 40
0.542929
 50
128.611832
 51
164.582153
  0
ARC
  8
0
 10
55.206322
 20
99.682526
 40
0.425080
 50
165.893921
 51
194.107071
  0
ARC
  8
0
 10
55.317448
 20
99.723259
 40
0.542926
 50
195.417847
 51
231.388794
  0
ARC
  8
0
 10
55.624989
 20
100.172592
 40
1.086688
 50
233.502838
 51
306.498047
  0
ARC
  8
0
 10
55.932537
 20
99.723267
 40
0.542929
 50
308.611847
 51
344.582153
  0
ARC
  8
0
 10
45.838768
 20
110.040878
 40
1.486211
 50
354.668945
 51
14.106544
  0
ARC
  8
0
 10
45.450241
 20
109.898445
 40
1.898235
 50
15.417959
 51
51.388382
  0
ARC
  8
0
 10
44.374985
 20
108.327499
 40
3.799348
 50
53.502098
 51
126.497902
  0
ARC
  8
0
 10
43.299728
 20
109.898445
 40
1.898234
 50
128.611618
 51
164.582260
  0
ARC
  8
0
 10
42.911201
 20
110.040878
 40
1.486211
 50
165.893738
 51
185.354095
  0
ARC
  8
0
 10
44.374962
 20
113.442398
 40
4.532881
 50
245.098053
 51
294.888397
  0
ARC
  8
0
 10
56.369297
 20
99.682526
 40
0.755698
 50
345.893616
 51
14.106391
  0
ARC
  8
0
 10
56.171741
 20
99.610100
 40
0.965201
 50
15.417976
 51
51.388641
  0
ARC
  8
0
 10
55.624992
 20
98.811302
 40
1.931882
 50
53.502232
 51
126.497765
  0
ARC
  8
0
 10
55.078243
 20
99.610100
 40
0.965200
 50
128.611359
 51
164.582031
  0
ARC
  8
0
 10
54.880688
 20
99.682526
 40
0.755698
 50
165.893616
 51
194.106384
  0
ARC
  8
0
 10
55.078243
 20
99.754951
 40
0.965201
 50
195.417969
 51
231.388641
  0
ARC
  8
0
 10
55.624992
 20
100.553749
 40
1.931882
 50
233.502228
 51
306.497772
  0
ARC
  8
0
 10
56.171741
 20
99.754951
 40
0.965200
 50
308.611359
 51
344.582031
  0
ARC
  8
0
 10
63.005287
 20
95.015617
 40
2.130287
 50
176.237030
 51
191.773270
  0
ARC
  8
0
 10
63.222858
 20
95.082085
 40
2.356930
 50
192.275894
 51
225.305435
  0
ARC
  8
0
 10
63.824997
 20
95.815186
 40
3.302727
 50
226.824783
 51
313.174988
  0
ARC
  8
0
 10
64.427132
 20
95.082085
 40
2.356939
 50
314.694305
 51
347.723724
  0
ARC
  8
0
 10
64.644707
 20
95.015617
 40
2.130283
 50
348.226318
 51
356.237030
  0
ARC
  8
0
 10
65.288780
 20
95.015610
 40
1.486211
 50
354.668945
 51
14.106581
  0
ARC
  8
0
 10
64.900253
 20
94.873177
 40
1.898232
 50
15.417990
 51
51.388382
  0
ARC
  8
0
 10
63.824997
 20
93.302231
 40
3.799348
 50
53.502098
 51
126.497902
  0
ARC
  8
0
 10
62.749741
 20
94.873177
 40
1.898234
 50
128.611618
 51
164.582260
  0
ARC
  8
0
 10
62.361214
 20
95.015610
 40
1.486211
 50
165.893738
 51
185.354095
  0
ARC
  8
0
 10
63.824974
 20
98.417130
 40
4.532873
 50
245.098053
 51
294.888275
  0
ARC
  8
0
 10
61.967911
 20
111.561920
 40
0.907118
 50
345.895691
 51
14.104323
  0
ARC
  8
0
 10
61.730915
 20
111.475052
 40
1.158442
 50
15.414936
 51
51.383183
  0
ARC
  8
0
 10
61.075027
 20
110.516953
 40
2.317966
 50
53.496788
 51
126.503212
  0
ARC
  8
0
 10
60.419140
 20
111.475052
 40
1.158445
 50
128.616821
 51
164.585068
  0
ARC
  8
0
 10
60.182144
 20
111.561920
 40
0.907118
 50
165.895676
 51
194.104324
  0
ARC
  8
0
 10
60.419140
 20
111.648788
 40
1.158442
 50
195.414932
 51
231.383179
  0
ARC
  8
0
 10
61.075027
 20
112.606888
 40
2.317966
 50
233.496796
 51
306.503204
  0
ARC
  8
0
 10
61.730915
 20
111.648788
 40
1.158445
 50
308.616821
 51
344.585052
  0
ARC
  8
0
 10
60.182106
 20
158.938095
 40
0.907118
 50
165.895676
 51
194.104324
  0
ARC
  8
0
 10
60.419102
 20
159.024963
 40
1.158442
 50
195.414932
 51
231.383179
  0
ARC
  8
0
 10
61.074989
 20
159.983063
 40
2.317966
 50
233.496796
 51
306.503204
  0
ARC
  8
0
 10
61.730877
 20
159.024963
 40
1.158445
 50
308.616821
 51
344.585052
  0
ARC
  8
0
 10
61.967873
 20
158.938095
 40
0.907118
 50
345.895691
 51
14.104323
  0
ARC
  8
0
 10
61.730877
 20
158.851227
 40
1.158442
 50
15.414936
 51
51.383183
  0
ARC
  8
0
 10
61.074989
 20
157.893127
 40
2.317966
 50
53.496788
 51
126.503212
  0
ARC
  8
0
 10
60.419102
 20
158.851227
 40
1.158445
 50
128.616821
 51
164.585068
  0
ARC
  8
0
 10
64.569298
 20
169.544464
 40
0.755692
 50
0.000000
 51
14.107093
  0
ARC
  8
0
 10
64.371742
 20
169.472046
 40
0.965194
 50
15.418097
 51
51.388359
  0
ARC
  8
0
 10
63.824989
 20
168.673233
 40
1.931890
 50
53.502277
 51
126.497726
  0
ARC
  8
0
 10
63.278240
 20
169.472046
 40
0.965196
 50
128.611816
 51
164.582901
  0
ARC
  8
0
 10
63.080681
 20
169.544464
 40
0.755693
 50
165.894104
 51
180.000000
  0
ARC
  8
0
 10
45.168919
 20
155.048965
 40
0.806072
 50
345.893707
 51
14.106281
  0
ARC
  8
0
 10
44.958187
 20
154.971710
 40
1.029547
 50
15.417871
 51
51.388699
  0
ARC
  8
0
 10
44.374992
 20
154.119659
 40
2.060677
 50
53.502350
 51
126.497650
  0
ARC
  8
0
 10
43.791798
 20
154.971710
 40
1.029552
 50
128.611298
 51
164.582123
  0
ARC
  8
0
 10
43.581066
 20
155.048965
 40
0.806072
 50
165.893723
 51
194.106277
  0
ARC
  8
0
 10
43.791798
 20
155.126221
 40
1.029547
 50
195.417877
 51
231.388702
  0
ARC
  8
0
 10
44.374992
 20
155.978271
 40
2.060677
 50
233.502350
 51
306.497650
  0
ARC
  8
0
 10
44.958187
 20
155.126221
 40
1.029552
 50
308.611298
 51
344.582123
  0
ARC
  8
0
 10
45.367401
 20
155.048965
 40
1.007595
 50
345.893585
 51
14.106426
  0
ARC
  8
0
 10
45.103989
 20
154.952393
 40
1.286939
 50
15.418164
 51
51.388836
  0
ARC
  8
0
 10
44.374992
 20
153.887329
 40
2.575851
 50
53.502369
 51
126.497635
  0
ARC
  8
0
 10
43.645996
 20
154.952393
 40
1.286942
 50
128.611160
 51
164.581833
  0
ARC
  8
0
 10
43.382584
 20
155.048965
 40
1.007595
 50
165.893570
 51
194.106430
  0
ARC
  8
0
 10
43.645996
 20
155.145538
 40
1.286939
 50
195.418167
 51
231.388840
  0
ARC
  8
0
 10
44.374992
 20
156.210602
 40
2.575851
 50
233.502365
 51
306.497620
  0
ARC
  8
0
 10
45.103989
 20
155.145538
 40
1.286942
 50
308.611176
 51
344.581848
  0
ARC
  8
0
 10
45.367397
 20
157.382431
 40
1.007598
 50
359.873322
 51
14.106373
  0
ARC
  8
0
 10
45.103989
 20
157.285873
 40
1.286935
 50
15.417509
 51
51.388412
  0
ARC
  8
0
 10
44.374992
 20
156.220795
 40
2.575851
 50
53.502369
 51
126.497704
  0
ARC
  8
0
 10
43.645996
 20
157.285858
 40
1.286945
 50
128.611298
 51
164.581833
  0
ARC
  8
0
 10
43.382587
 20
157.382431
 40
1.007599
 50
165.893631
 51
180.105850
  0
POLYLINE
  8
0
 66
     1
  0
VERTEX
  8
0
 10
40.674988
 20
128.500000
  0
VERTEX
  8
0
 10
40.724857
 20
128.999786
  0
VERTEX
  8
0
 10
40.674988
 20
129.500000
  0
VERTEX
  8
0
 10
40.533024
 20
129.958038
  0
VERTEX
  8
0
 10
40.269485
 20
130.401520
  0
VERTEX
  8
0
 10
39.801010
 20
130.915482
  0
VERTEX
  8
0
 10
39.384674
 20
131.362198
  0
VERTEX
  8
0
 10
39.247318
 20
131.557999
  0
VERTEX
  8
0
 10
39.061630
 20
131.916656
  0
VERTEX
  8
0
 10
38.670204
 20
132.833206
  0
VERTEX
  8
0
 10
38.402786
 20
133.734848
  0
VERTEX
  8
0
 10
38.285923
 20
134.487106
  0
VERTEX
  8
0
 10
38.249557
 20
135.250000
  0
VERTEX
  8
0
 10
38.280491
 20
135.987808
  0
VERTEX
  8
0
 10
38.402786
 20
136.765152
  0
VERTEX
  8
0
 10
38.711613
 20
137.764832
  0
VERTEX
  8
0
 10
39.061630
 20
138.583344
  0
VERTEX
  8
0
 10
39.186733
 20
138.835922
  0
VERTEX
  8
0
 10
39.384674
 20
139.137802
  0
VERTEX
  8
0
 10
39.837559
 20
139.633530
  0
VERTEX
  8
0
 10
40.269485
 20
140.098480
  0
VERTEX
  8
0
 10
40.520935
 20
140.525360
  0
VERTEX
  8
0
 10
40.674988
 20
141.000000
  0
VERTEX
  8
0
 10
40.725006
 20
141.500916
  0
VERTEX
  8
0
 10
40.674988
 20
142.000000
  0
SEQEND
  0
POLYLINE
  8
0
 66
     1
  0
VERTEX
  8
0
 10
39.375031
 20
160.373535
  0
VERTEX
  8
0
 10
38.783245
 20
160.092865
  0
VERTEX
  8
0
 10
38.257225
 20
159.480057
  0
VERTEX
  8
0
 10
38.144920
 20
158.678543
  0
VERTEX
  8
0
 10
38.423042
 20
157.745132
  0
VERTEX
  8
0
 10
38.897820
 20
156.817856
  0
VERTEX
  8
0
 10
39.375481
 20
156.034821
  0
SEQEND
  0
POLYLINE
  8
0
 66
     1
  0
VERTEX
  8
0
 10
39.375828
 20
114.465736
  0
VERTEX
  8
0
 10
38.858791
 20
113.546616
  0
VERTEX
  8
0
 10
38.425770
 20
112.564774
  0
VERTEX
  8
0
 10
38.188126
 20
111.671967
  0
VERTEX
  8
0
 10
38.257225
 20
111.019951
  0
VERTEX
  8
0
 10
38.748863
 20
110.501350
  0
VERTEX
  8
0
 10
39.375023
 20
110.126472
  0
SEQEND
  0
POINT
  8
0
 10
51.674988
 20
35.250000
  0
POINT
  8
0
 10
76.174988
 20
35.250000
  0
LINE
  8
0
 10
52.874985
 20
0.750000
 11
52.874985
 21
55.852089
  0
LINE
  8
0
 10
46.674980
 20
0.750000
 11
46.674980
 21
55.852089
  0
LINE
  8
0
 10
46.674992
 20
69.750000
 11
52.324982
 21
69.750000
  0
LINE
  8
0
 10
46.674969
 20
0.750000
 11
52.874973
 21
0.750000
  0
LINE
  8
0
 10
60.124985
 20
70.675812
 11
67.524986
 21
70.675812
  0
LINE
  8
0
 10
59.324989
 20
72.655716
 11
68.324982
 21
72.655716
  0
LINE
  8
0
 10
59.324989
 20
78.105469
 11
68.324982
 21
78.105469
  0
LINE
  8
0
 10
60.124985
 20
78.953995
 11
67.524986
 21
78.953995
  0
LINE
  8
0
 10
60.124985
 20
66.291763
 11
67.524986
 21
66.291763
  0
LINE
  8
0
 10
68.024986
 20
66.791756
 11
68.024986
 21
71.590019
  0
LINE
  8
0
 10
68.824982
 20
68.205963
 11
68.824982
 21
77.605469
  0
LINE
  8
0
 10
59.624985
 20
66.791763
 11
59.624985
 21
71.590027
  0
LINE
  8
0
 10
58.824989
 20
68.205971
 11
58.824989
 21
77.605469
  0
LINE
  8
0
 10
60.124985
 20
72.090027
 11
67.524986
 21
72.090027
  0
LINE
  8
0
 10
58.324982
 20
67.705971
 11
59.624985
 21
67.705971
  0
LINE
  8
0
 10
68.024986
 20
78.105469
 11
68.024986
 21
78.453995
  0
LINE
  8
0
 10
68.024986
 20
67.705971
 11
69.324989
 21
67.705971
  0
LINE
  8
0
 10
52.324982
 20
67.988815
 11
58.324982
 21
67.988815
  0
LINE
  8
0
 10
69.324989
 20
67.705971
 11
69.324989
 21
73.645668
  0
LINE
  8
0
 10
58.324982
 20
67.705971
 11
58.324982
 21
73.645668
  0
LINE
  8
0
 10
67.324989
 20
60.493481
 11
67.324989
 21
66.291756
  0
LINE
  8
0
 10
60.324989
 20
60.493484
 11
60.324989
 21
66.291763
  0
LINE
  8
0
 10
69.324989
 20
67.988815
 11
74.324989
 21
67.988815
  0
LINE
  8
0
 10
65.325035
 20
63.321907
 11
65.325035
 21
60.493484
  0
LINE
  8
0
 10
62.324982
 20
63.321915
 11
62.324982
 21
60.493484
  0
LINE
  8
0
 10
60.324989
 20
60.493484
 11
62.324982
 21
60.493484
  0
LINE
  8
0
 10
65.324989
 20
60.493484
 11
67.324989
 21
60.493484
  0
LINE
  8
0
 10
74.324989
 20
62.544090
 11
74.324989
 21
73.645676
  0
LINE
  8
0
 10
55.874985
 20
54.781227
 11
55.874985
 21
61.412712
  0
LINE
  8
0
 10
52.324982
 20
73.645668
 11
58.324982
 21
73.645668
  0
LINE
  8
0
 10
58.324982
 20
73.362823
 11
58.824989
 21
73.362823
  0
LINE
  8
0
 10
68.824982
 20
73.362823
 11
69.324989
 21
73.362823
  0
LINE
  8
0
 10
69.324989
 20
73.645668
 11
74.324989
 21
73.645668
  0
LINE
  8
0
 10
52.324982
 20
62.544090
 11
60.324989
 21
62.544090
  0
LINE
  8
0
 10
56.875034
 20
62.119827
 11
60.324989
 21
62.119827
  0
LINE
  8
0
 10
56.874985
 20
61.059174
 11
60.324989
 21
61.059174
  0
LINE
  8
0
 10
62.324982
 20
62.544090
 11
65.324982
 21
62.544090
  0
LINE
  8
0
 10
67.324989
 20
62.544090
 11
74.324989
 21
62.544090
  0
LINE
  8
0
 10
67.324989
 20
62.119827
 11
74.174988
 21
62.119827
  0
LINE
  8
0
 10
67.324989
 20
61.059174
 11
74.174988
 21
61.059174
  0
LINE
  8
0
 10
55.874996
 20
61.412693
 11
56.875034
 21
62.119827
  0
LINE
  8
0
 10
55.874989
 20
60.352058
 11
56.874981
 21
61.059158
  0
LINE
  8
0
 10
55.874985
 20
60.352043
 11
55.874985
 21
61.412697
  0
LINE
  8
0
 10
76.324982
 20
-0.695923
 11
76.324982
 21
4.304077
  0
LINE
  8
0
 10
74.324989
 20
-0.695923
 11
76.324982
 21
-0.695923
  0
LINE
  8
0
 10
76.324982
 20
-0.195923
 11
100.824982
 21
-0.195923
  0
LINE
  8
0
 10
76.324982
 20
3.804077
 11
100.824982
 21
3.804077
  0
LINE
  8
0
 10
74.324989
 20
4.304077
 11
76.324982
 21
4.304077
  0
LINE
  8
0
 10
40.874992
 20
55.852089
 11
42.374985
 21
55.852089
  0
LINE
  8
0
 10
39.374992
 20
56.923584
 11
42.374985
 21
56.923584
  0
LINE
  8
0
 10
39.374992
 20
63.994656
 11
42.374985
 21
63.994656
  0
LINE
  8
0
 10
39.374992
 20
53.846886
 11
39.374992
 21
63.994656
  0
LINE
  8
0
 10
40.874992
 20
54.994171
 11
40.874992
 21
55.852089
  0
LINE
  8
0
 10
42.374985
 20
52.786224
 11
42.374985
 21
56.923584
  0
LINE
  8
0
 10
46.374985
 20
52.786224
 11
46.374985
 21
56.923584
  0
LINE
  8
0
 10
46.374985
 20
55.852089
 11
52.874985
 21
55.852089
  0
LINE
  8
0
 10
42.374985
 20
55.691269
 11
46.374985
 21
55.691269
  0
LINE
  8
0
 10
42.374985
 20
64.883659
 11
46.374989
 21
64.883659
  0
LINE
  8
0
 10
46.374989
 20
63.994656
 11
52.324982
 21
63.994656
  0
LINE
  8
0
 10
46.374985
 20
56.923584
 11
54.374985
 21
56.923584
  0
LINE
  8
0
 10
42.374985
 20
63.994656
 11
42.374985
 21
64.883659
  0
LINE
  8
0
 10
46.374985
 20
63.994656
 11
46.374985
 21
64.883659
  0
LINE
  8
0
 10
46.674980
 20
63.994656
 11
46.674980
 21
69.750000
  0
LINE
  8
0
 10
42.374985
 20
52.786224
 11
46.374985
 21
52.786224
  0
LINE
  8
0
 10
39.374992
 20
53.846886
 11
42.374985
 21
53.846886
  0
LINE
  8
0
 10
39.374992
 20
54.994171
 11
42.374985
 21
54.994171
  0
LINE
  8
0
 10
46.374985
 20
53.846886
 11
46.674980
 21
53.846886
  0
LINE
  8
0
 10
46.374985
 20
54.994171
 11
46.674980
 21
54.994171
  0
LINE
  8
0
 10
54.374985
 20
62.544090
 11
54.374985
 21
54.781227
  0
LINE
  8
0
 10
57.374985
 20
89.255005
 11
57.374985
 21
73.645668
  0
LINE
  8
0
 10
58.874985
 20
52.250320
 11
67.674988
 21
52.250320
  0
LINE
  8
0
 10
57.374985
 20
89.250320
 11
89.374985
 21
89.250320
  0
LINE
  8
0
 10
89.374985
 20
89.244995
 11
89.374985
 21
70.695923
  0
LINE
  8
0
 10
89.374985
 20
82.462494
 11
92.524986
 21
82.462494
  0
LINE
  8
0
 10
89.374985
 20
82.301300
 11
92.524986
 21
82.301300
  0
LINE
  8
0
 10
89.374985
 20
74.306183
 11
92.524986
 21
74.306183
  0
LINE
  8
0
 10
89.374985
 20
78.223145
 11
92.524986
 21
78.223145
  0
LINE
  8
0
 10
92.874985
 20
82.381897
 11
92.874985
 21
76.264664
  0
LINE
  8
0
 10
97.874985
 20
80.084335
 11
97.874985
 21
76.684341
  0
LINE
  8
0
 10
92.874985
 20
80.384338
 11
97.574982
 21
80.384338
  0
LINE
  8
0
 10
92.874985
 20
76.384338
 11
97.574982
 21
76.384338
  0
LINE
  8
0
 10
97.574982
 20
80.384338
 11
97.874985
 21
80.084335
  0
LINE
  8
0
 10
97.874985
 20
76.684341
 11
97.574982
 21
76.384338
  0
LINE
  8
0
 10
97.574989
 20
80.384338
 11
97.574989
 21
76.384338
  0
LINE
  8
0
 10
92.874985
 20
80.134338
 11
97.824989
 21
80.134338
  0
LINE
  8
0
 10
92.874985
 20
76.634338
 11
97.824982
 21
76.634338
  0
LINE
  8
0
 10
89.374985
 20
54.213776
 11
102.374985
 21
54.213776
  0
LINE
  8
0
 10
89.374985
 20
52.250320
 11
89.374985
 21
66.695923
  0
LINE
  8
0
 10
89.663429
 20
64.138397
 11
89.374985
 21
64.138397
  0
LINE
  8
0
 10
89.663429
 20
73.538391
 11
89.374985
 21
73.538391
  0
LINE
  8
0
 10
89.663429
 20
73.538391
 11
89.663429
 21
70.695923
  0
LINE
  8
0
 10
90.074982
 20
57.913776
 11
90.074982
 21
64.511734
  0
LINE
  8
0
 10
90.474983
 20
58.813778
 11
90.474983
 21
64.013779
  0
LINE
  8
0
 10
91.924988
 20
61.382336
 11
91.924988
 21
61.445217
  0
LINE
  8
0
 10
90.474983
 20
64.013779
 11
90.074982
 21
64.013779
  0
LINE
  8
0
 10
90.474983
 20
58.813778
 11
90.074982
 21
58.813778
  0
LINE
  8
0
 10
90.074982
 20
57.913776
 11
89.374985
 21
57.913776
  0
LINE
  8
0
 10
52.874985
 20
89.250320
 11
57.374985
 21
89.250320
  0
LINE
  8
0
 10
52.874985
 20
39.250317
 11
57.374985
 21
39.250317
  0
LINE
  8
0
 10
57.374985
 20
39.250317
 11
57.374985
 21
61.059174
  0
LINE
  8
0
 10
47.324986
 20
83.560425
 11
47.324986
 21
75.340210
  0
LINE
  8
0
 10
47.624989
 20
83.700317
 11
47.624989
 21
75.200317
  0
LINE
  8
0
 10
47.624989
 20
83.700317
 11
52.324986
 21
83.700317
  0
LINE
  8
0
 10
47.624989
 20
75.200317
 11
52.324986
 21
75.200317
  0
LINE
  8
0
 10
47.324966
 20
83.560440
 11
47.624966
 21
83.700333
  0
LINE
  8
0
 10
47.324986
 20
75.340210
 11
47.624989
 21
75.200317
  0
LINE
  8
0
 10
47.624989
 20
81.700317
 11
49.995281
 21
81.700317
  0
LINE
  8
0
 10
47.624989
 20
79.700317
 11
48.840588
 21
79.700317
  0
LINE
  8
0
 10
76.174988
 20
58.833054
 11
76.174988
 21
5.596430
  0
LINE
  8
0
 10
68.174988
 20
58.833050
 11
68.174988
 21
5.596430
  0
LINE
  8
0
 10
58.174988
 20
40.349998
 11
58.174988
 21
24.106306
  0
LINE
  8
0
 10
69.174980
 20
58.350906
 11
75.174980
 21
58.350906
  0
LINE
  8
0
 10
69.174988
 20
12.149115
 11
75.174988
 21
12.149115
  0
LINE
  8
0
 10
58.174988
 20
35.250000
 11
65.178864
 21
35.250000
  0
LINE
  8
0
 10
58.174988
 20
32.421574
 11
65.170975
 21
32.421574
  0
LINE
  8
0
 10
58.174988
 20
24.106306
 11
68.174988
 21
24.106306
  0
LINE
  8
0
 10
64.874985
 20
48.685028
 11
68.174988
 21
48.685028
  0
LINE
  8
0
 10
78.354004
 20
62.438076
 11
74.174988
 21
62.438076
  0
LINE
  8
0
 10
78.354004
 20
55.438076
 11
77.374985
 21
55.438076
  0
LINE
  8
0
 10
77.374985
 20
52.341881
 11
76.174980
 21
52.341881
  0
LINE
  8
0
 10
67.674980
 20
55.048988
 11
58.974983
 21
55.048988
  0
LINE
  8
0
 10
66.474983
 20
55.897514
 11
60.174980
 21
55.897514
  0
LINE
  8
0
 10
75.574982
 20
59.433052
 11
67.674988
 21
59.433052
  0
LINE
  8
0
 10
74.324989
 20
73.434586
 11
89.374985
 21
73.434586
  0
LINE
  8
0
 10
76.174988
 20
52.250320
 11
89.374985
 21
52.250320
  0
LINE
  8
0
 10
89.663429
 20
66.695923
 11
89.663429
 21
64.138397
  0
LINE
  8
0
 10
77.374985
 20
62.438076
 11
77.374985
 21
52.341885
  0
LINE
  8
0
 10
66.474983
 20
60.433052
 11
66.474983
 21
55.897514
  0
LINE
  8
0
 10
60.174984
 20
60.433052
 11
60.174984
 21
55.897514
  0
LINE
  8
0
 10
58.974983
 20
61.059174
 11
58.974983
 21
55.048988
  0
LINE
  8
0
 10
100.824982
 20
3.804077
 11
100.824982
 21
-0.195923
  0
LINE
  8
0
 10
100.824982
 20
1.504078
 11
103.824982
 21
1.504078
  0
LINE
  8
0
 10
100.824982
 20
2.104076
 11
103.824982
 21
2.104076
  0
LINE
  8
0
 10
100.824982
 20
0.504078
 11
103.824982
 21
0.504078
  0
LINE
  8
0
 10
100.824982
 20
3.104076
 11
103.824982
 21
3.104076
  0
LINE
  8
0
 10
103.824982
 20
3.104076
 11
103.824982
 21
2.104076
  0
LINE
  8
0
 10
103.824982
 20
1.504078
 11
103.824982
 21
0.504078
  0
LINE
  8
0
 10
103.824982
 20
2.979076
 11
105.324982
 21
2.979076
  0
LINE
  8
0
 10
103.824982
 20
2.854076
 11
105.324982
 21
2.854076
  0
LINE
  8
0
 10
103.824982
 20
2.729076
 11
105.324982
 21
2.729076
  0
LINE
  8
0
 10
103.824982
 20
2.604076
 11
105.324982
 21
2.604076
  0
LINE
  8
0
 10
103.824982
 20
2.479076
 11
105.324982
 21
2.479076
  0
LINE
  8
0
 10
103.824982
 20
2.354076
 11
105.324982
 21
2.354076
  0
LINE
  8
0
 10
103.824982
 20
2.229076
 11
105.324982
 21
2.229076
  0
LINE
  8
0
 10
103.824982
 20
1.379078
 11
105.324982
 21
1.379078
  0
LINE
  8
0
 10
103.824982
 20
1.254078
 11
105.324982
 21
1.254078
  0
LINE
  8
0
 10
103.824982
 20
1.129078
 11
105.324982
 21
1.129078
  0
LINE
  8
0
 10
103.824982
 20
1.004078
 11
105.324982
 21
1.004078
  0
LINE
  8
0
 10
103.824982
 20
0.879078
 11
105.324982
 21
0.879078
  0
LINE
  8
0
 10
103.824982
 20
0.754078
 11
105.324982
 21
0.754078
  0
LINE
  8
0
 10
103.824982
 20
0.629078
 11
105.324982
 21
0.629078
  0
LINE
  8
0
 10
65.325035
 20
0.955551
 11
65.325035
 21
10.006527
  0
LINE
  8
0
 10
62.324982
 20
0.955544
 11
62.324982
 21
10.006517
  0
LINE
  8
0
 10
60.124977
 20
-8.453999
 11
67.524979
 21
-8.453999
  0
LINE
  8
0
 10
59.324982
 20
-7.605465
 11
59.624977
 21
-7.605465
  0
LINE
  8
0
 10
60.124977
 20
-4.277042
 11
67.524979
 21
-4.277042
  0
LINE
  8
0
 10
58.324974
 20
-2.862820
 11
60.324982
 21
-2.862820
  0
LINE
  8
0
 10
59.624985
 20
-7.953999
 11
59.624985
 21
-2.862831
  0
LINE
  8
0
 10
68.024986
 20
-7.954002
 11
68.024986
 21
-2.862831
  0
LINE
  8
0
 10
68.824982
 20
-7.105476
 11
68.824982
 21
-2.862831
  0
LINE
  8
0
 10
58.824989
 20
-7.105473
 11
58.824989
 21
-2.862831
  0
LINE
  8
0
 10
58.324982
 20
-3.145676
 11
58.324982
 21
-2.862820
  0
LINE
  8
0
 10
69.324989
 20
-3.145676
 11
69.324989
 21
-2.862820
  0
LINE
  8
0
 10
52.324974
 20
-3.145664
 11
58.324974
 21
-3.145664
  0
LINE
  8
0
 10
69.324982
 20
-3.145664
 11
74.324989
 21
-3.145664
  0
LINE
  8
0
 10
68.024979
 20
-7.605465
 11
68.324974
 21
-7.605465
  0
LINE
  8
0
 10
67.524979
 20
-3.852783
 11
67.524979
 21
-2.862831
  0
LINE
  8
0
 10
60.124985
 20
-3.852783
 11
60.124985
 21
-2.862831
  0
LINE
  8
0
 10
60.124977
 20
-3.852772
 11
67.524971
 21
-3.852772
  0
LINE
  8
0
 10
62.324982
 20
3.783985
 11
65.325035
 21
3.783985
  0
LINE
  8
0
 10
60.324986
 20
10.006527
 11
62.324978
 21
10.006527
  0
LINE
  8
0
 10
60.324989
 20
-3.852783
 11
60.324989
 21
10.006517
  0
LINE
  8
0
 10
67.324997
 20
-3.852772
 11
67.324997
 21
10.006527
  0
LINE
  8
0
 10
67.324989
 20
-2.862820
 11
69.324982
 21
-2.862820
  0
LINE
  8
0
 10
52.324982
 20
-3.145672
 11
52.324982
 21
0.750000
  0
LINE
  8
0
 10
74.324989
 20
-3.145676
 11
74.324989
 21
4.596430
  0
LINE
  8
0
 10
52.874985
 20
2.299061
 11
54.424587
 21
2.299061
  0
LINE
  8
0
 10
62.324974
 20
2.723324
 11
65.325027
 21
2.723324
  0
LINE
  8
0
 10
62.324978
 20
9.440838
 11
65.325035
 21
9.440838
  0
LINE
  8
0
 10
67.324989
 20
2.723324
 11
74.174988
 21
2.723324
  0
LINE
  8
0
 10
67.324989
 20
2.299061
 11
74.324982
 21
2.299061
  0
LINE
  8
0
 10
59.324989
 20
3.076855
 11
60.324978
 21
3.783951
  0
LINE
  8
0
 10
59.324997
 20
2.016186
 11
60.325001
 21
2.723293
  0
LINE
  8
0
 10
54.874985
 20
2.016186
 11
59.324989
 21
2.016186
  0
LINE
  8
0
 10
56.174984
 20
3.076855
 11
59.324989
 21
3.076855
  0
LINE
  8
0
 10
55.874985
 20
10.147938
 11
59.324978
 21
10.147938
  0
LINE
  8
0
 10
59.324974
 20
3.076847
 11
59.324989
 21
2.016186
  0
LINE
  8
0
 10
59.324917
 20
10.147861
 11
60.324928
 21
9.440763
  0
LINE
  8
0
 10
39.374989
 20
4.242697
 11
42.374981
 21
4.242697
  0
LINE
  8
0
 10
40.874996
 20
5.314199
 11
42.374981
 21
5.314199
  0
LINE
  8
0
 10
39.374989
 20
6.172110
 11
42.374981
 21
6.172110
  0
LINE
  8
0
 10
39.374989
 20
7.319403
 11
46.674976
 21
7.319403
  0
LINE
  8
0
 10
39.374992
 20
4.242691
 11
39.374992
 21
14.390465
  0
LINE
  8
0
 10
40.875000
 20
5.314194
 11
40.875000
 21
6.172104
  0
LINE
  8
0
 10
42.374985
 20
3.353683
 11
42.374985
 21
7.319397
  0
LINE
  8
0
 10
46.374992
 20
3.353682
 11
46.374992
 21
7.319395
  0
LINE
  8
0
 10
46.374989
 20
5.314199
 11
46.674976
 21
5.314199
  0
LINE
  8
0
 10
46.374992
 20
4.242697
 11
46.674976
 21
4.242697
  0
LINE
  8
0
 10
46.374989
 20
6.172110
 11
46.674976
 21
6.172110
  0
LINE
  8
0
 10
42.374981
 20
6.258741
 11
46.374989
 21
6.258741
  0
LINE
  8
0
 10
42.374981
 20
3.353697
 11
46.374989
 21
3.353697
  0
LINE
  8
0
 10
42.374985
 20
14.390465
 11
42.374985
 21
15.451118
  0
LINE
  8
0
 10
46.374992
 20
14.390463
 11
46.374992
 21
15.451117
  0
LINE
  8
0
 10
42.374981
 20
15.451124
 11
46.374989
 21
15.451124
  0
LINE
  8
0
 10
39.374989
 20
14.390471
 11
43.322491
 21
14.390471
  0
LINE
  8
0
 10
42.374992
 20
10.854935
 11
42.374992
 21
13.188385
  0
LINE
  8
0
 10
46.374992
 20
10.854925
 11
46.374992
 21
13.188383
  0
LINE
  8
0
 10
45.428738
 20
14.390471
 11
46.674976
 21
14.390471
  0
LINE
  8
0
 10
69.174988
 20
4.596430
 11
75.174988
 21
4.596430
  0
LINE
  8
0
 10
55.874985
 20
3.376854
 11
55.874985
 21
15.718773
  0
LINE
  8
0
 10
54.374985
 20
2.516186
 11
54.374985
 21
8.647703
  0
LINE
  8
0
 10
52.874985
 20
4.242697
 11
53.874985
 21
4.242697
  0
LINE
  8
0
 10
52.324982
 20
62.544090
 11
52.324982
 21
73.645668
  0
LINE
  8
0
 10
77.374985
 20
60.433052
 11
58.974983
 21
60.433052
  0
LINE
  8
0
 10
52.874985
 20
73.645668
 11
52.874985
 21
89.255005
  0
LINE
  8
0
 10
52.324986
 20
74.950317
 11
52.324986
 21
83.950317
  0
LINE
  8
0
 10
52.324986
 20
83.950317
 11
52.874985
 21
83.950317
  0
LINE
  8
0
 10
52.324986
 20
74.950317
 11
52.874985
 21
74.950317
  0
LINE
  8
0
 10
58.874985
 20
40.349998
 11
58.874985
 21
52.549999
  0
LINE
  8
0
 10
64.874985
 20
42.049999
 11
64.874985
 21
50.849998
  0
LINE
  8
0
 10
64.274986
 20
41.450001
 11
64.274986
 21
51.450001
  0
LINE
  8
0
 10
58.874985
 20
41.450001
 11
64.274986
 21
41.450001
  0
LINE
  8
0
 10
58.874985
 20
51.450001
 11
64.274986
 21
51.450001
  0
LINE
  8
0
 10
57.374985
 20
40.349998
 11
58.874985
 21
40.349998
  0
LINE
  8
0
 10
57.374985
 20
52.549999
 11
58.874985
 21
52.549999
  0
LINE
  8
0
 10
64.274986
 20
41.450001
 11
64.874985
 21
42.049999
  0
LINE
  8
0
 10
64.274986
 20
51.450005
 11
64.874985
 21
50.850002
  0
LINE
  8
0
 10
57.374985
 20
45.583973
 11
58.874985
 21
46.449997
  0
LINE
  8
0
 10
57.374985
 20
46.161324
 11
58.874985
 21
47.027351
  0
LINE
  8
0
 10
76.324982
 20
66.695923
 11
100.824982
 21
66.695923
  0
LINE
  8
0
 10
76.324982
 20
70.695923
 11
100.824982
 21
70.695923
  0
LINE
  8
0
 10
100.824982
 20
70.695923
 11
100.824982
 21
66.695923
  0
LINE
  8
0
 10
100.824982
 20
68.395920
 11
103.824982
 21
68.395920
  0
LINE
  8
0
 10
100.824982
 20
68.995926
 11
103.824982
 21
68.995926
  0
LINE
  8
0
 10
100.824982
 20
67.395920
 11
103.824982
 21
67.395920
  0
LINE
  8
0
 10
100.824982
 20
69.995926
 11
103.824982
 21
69.995926
  0
LINE
  8
0
 10
103.824982
 20
69.995926
 11
103.824982
 21
68.995926
  0
LINE
  8
0
 10
103.824982
 20
68.395920
 11
103.824982
 21
67.395920
  0
LINE
  8
0
 10
103.824982
 20
69.870926
 11
105.324982
 21
69.870926
  0
LINE
  8
0
 10
103.824982
 20
69.745926
 11
105.324982
 21
69.745926
  0
LINE
  8
0
 10
103.824982
 20
69.620926
 11
105.324982
 21
69.620926
  0
LINE
  8
0
 10
103.824982
 20
69.495926
 11
105.324982
 21
69.495926
  0
LINE
  8
0
 10
103.824982
 20
69.370926
 11
105.324982
 21
69.370926
  0
LINE
  8
0
 10
103.824982
 20
69.245926
 11
105.324982
 21
69.245926
  0
LINE
  8
0
 10
103.824982
 20
69.120926
 11
105.324982
 21
69.120926
  0
LINE
  8
0
 10
103.824982
 20
68.270920
 11
105.324982
 21
68.270920
  0
LINE
  8
0
 10
103.824982
 20
68.145920
 11
105.324982
 21
68.145920
  0
LINE
  8
0
 10
103.824982
 20
68.020920
 11
105.324982
 21
68.020920
  0
LINE
  8
0
 10
103.824982
 20
67.895920
 11
105.324982
 21
67.895920
  0
LINE
  8
0
 10
103.824982
 20
67.770920
 11
105.324982
 21
67.770920
  0
LINE
  8
0
 10
103.824982
 20
67.645920
 11
105.324982
 21
67.645920
  0
LINE
  8
0
 10
103.824982
 20
67.520920
 11
105.324982
 21
67.520920
  0
LINE
  8
0
 10
74.324989
 20
66.195923
 11
76.324982
 21
66.195923
  0
LINE
  8
0
 10
74.324989
 20
71.195923
 11
76.324982
 21
71.195923
  0
LINE
  8
0
 10
69.174988
 20
19.350115
 11
75.174988
 21
19.350115
  0
LINE
  8
0
 10
69.174980
 20
51.149906
 11
75.174980
 21
51.149906
  0
LINE
  8
0
 10
37.674988
 20
64.250000
 11
37.674988
 21
6.250000
  0
LINE
  8
0
 10
38.237488
 20
7.000000
 11
39.374992
 21
7.000000
  0
LINE
  8
0
 10
40.675003
 20
18.250000
 11
46.674980
 21
18.250000
  0
LINE
  8
0
 10
40.675003
 20
52.250000
 11
46.674980
 21
52.250000
  0
LINE
  8
0
 10
38.237488
 20
63.500000
 11
39.374992
 21
63.500000
  0
LINE
  8
0
 10
37.674938
 20
6.250038
 11
39.374992
 21
8.516781
  0
LINE
  8
0
 10
37.674938
 20
64.249962
 11
39.374992
 21
61.983219
  0
LINE
  8
0
 10
40.675003
 20
14.390471
 11
40.675003
 21
18.250008
  0
LINE
  8
0
 10
40.675003
 20
52.250008
 11
40.675003
 21
53.846886
  0
LINE
  8
0
 10
40.675003
 20
27.746590
 11
40.675003
 21
42.753418
  0
LINE
  8
0
 10
54.174988
 20
39.250317
 11
54.174988
 21
23.050003
  0
LINE
  8
0
 10
52.874985
 20
22.750000
 11
53.874969
 21
22.750000
  0
LINE
  8
0
 10
53.875015
 20
22.749981
 11
54.175007
 21
23.049976
  0
LINE
  8
0
 10
54.174988
 20
29.250000
 11
57.624969
 21
29.250000
  0
LINE
  8
0
 10
57.674988
 20
40.349998
 11
57.674988
 21
29.299995
  0
LINE
  8
0
 10
57.674988
 20
29.300003
 11
58.174988
 21
29.300003
  0
LINE
  8
0
 10
57.624931
 20
29.249990
 11
57.674931
 21
29.299990
  0
LINE
  8
0
 10
67.674988
 20
59.433052
 11
67.674988
 21
55.048988
  0
LINE
  8
0
 10
76.324982
 20
71.195923
 11
76.324982
 21
66.195923
  0
LINE
  8
0
 10
59.624985
 20
78.453995
 11
59.624985
 21
78.105469
  0
LINE
  8
0
 10
103.374985
 20
55.213776
 11
103.374985
 21
67.395920
  0
LINE
  8
0
 10
74.174988
 20
61.059174
 11
74.174988
 21
62.544090
  0
LINE
  8
0
 10
65.325035
 20
10.006527
 11
67.324997
 21
10.006527
  0
LINE
  8
0
 10
67.324997
 20
3.783985
 11
74.174988
 21
3.783985
  0
LINE
  8
0
 10
74.174988
 20
4.596430
 11
74.174988
 21
2.723324
  0
LINE
  8
0
 10
67.324997
 20
9.440838
 11
68.174988
 21
9.440838
  0
LINE
  8
0
 10
59.725048
 20
2.299061
 11
60.324989
 21
2.299061
  0
LINE
  8
0
 10
62.324982
 20
2.299061
 11
65.325027
 21
2.299061
  0
LINE
  8
0
 10
54.374985
 20
61.412712
 11
55.874985
 21
61.412712
  0
LINE
  8
0
 10
56.875034
 20
62.119827
 11
56.875034
 21
61.059174
  0
LINE
  8
0
 10
62.324982
 20
62.119827
 11
65.324982
 21
62.119827
  0
LINE
  8
0
 10
62.324982
 20
61.059174
 11
65.324989
 21
61.059174
  0
ARC
  8
0
 10
60.124985
 20
66.791763
 40
0.500000
 50
180.000000
 51
270.000000
  0
ARC
  8
0
 10
67.524986
 20
66.791756
 40
0.500000
 50
270.000000
 51
0.000000
  0
ARC
  8
0
 10
68.324982
 20
68.205963
 40
0.500000
 50
270.000000
 51
0.000000
  0
ARC
  8
0
 10
59.324989
 20
68.205971
 40
0.500000
 50
180.000000
 51
270.000000
  0
ARC
  8
0
 10
59.324989
 20
77.605469
 40
0.500000
 50
90.000000
 51
180.000000
  0
ARC
  8
0
 10
68.324982
 20
77.605469
 40
0.500000
 50
0.000000
 51
90.000000
  0
ARC
  8
0
 10
67.524986
 20
78.453995
 40
0.500000
 50
0.000000
 51
90.000000
  0
ARC
  8
0
 10
60.124985
 20
78.453995
 40
0.500000
 50
90.000000
 51
180.000000
  0
ARC
  8
0
 10
67.524986
 20
71.590019
 40
0.500000
 50
0.000000
 51
90.000000
  0
ARC
  8
0
 10
60.124985
 20
71.590027
 40
0.500000
 50
90.000000
 51
180.000000
  0
ARC
  8
0
 10
54.374985
 20
54.781227
 40
1.500000
 50
180.000000
 51
0.000000
  0
ARC
  8
0
 10
87.220467
 20
76.264664
 40
5.654518
 50
339.735352
 51
20.264643
  0
ARC
  8
0
 10
86.760178
 20
80.262222
 40
6.114806
 50
340.520752
 51
19.479328
  0
CIRCLE
  8
0
 10
69.824982
 20
63.240944
 40
0.010000
  0
CIRCLE
  8
0
 10
81.648270
 20
67.642853
 40
0.010000
  0
CIRCLE
  8
0
 10
65.101700
 20
57.825226
 40
0.010000
  0
ARC
  8
0
 10
102.374985
 20
55.213776
 40
1.000000
 50
270.000000
 51
0.000000
  0
ARC
  8
0
 10
85.774986
 20
68.838394
 40
6.100002
 50
309.601990
 51
339.437744
  0
ARC
  8
0
 10
88.924988
 20
61.382336
 40
3.000003
 50
301.108948
 51
0.000000
  0
ARC
  8
0
 10
88.924988
 20
61.445217
 40
3.000000
 50
0.000000
 51
58.891045
  0
ARC
  8
0
 10
75.174988
 20
13.149117
 40
1.000000
 50
270.000000
 51
0.000000
  0
ARC
  8
0
 10
69.174988
 20
13.149115
 40
1.000000
 50
180.000000
 51
270.000000
  0
ARC
  8
0
 10
75.174980
 20
57.350906
 40
1.000000
 50
0.000000
 51
90.000000
  0
ARC
  8
0
 10
69.174980
 20
57.350906
 40
1.000000
 50
90.000000
 51
180.000000
  0
ARC
  8
0
 10
70.974983
 20
58.938080
 40
8.999999
 50
343.398437
 51
16.601585
  0
ARC
  8
0
 10
78.354004
 20
61.138077
 40
1.300002
 50
16.601559
 51
90.000000
  0
ARC
  8
0
 10
78.354004
 20
56.738075
 40
1.299995
 50
270.000000
 51
343.398437
  0
ARC
  8
0
 10
68.774979
 20
58.833050
 40
0.600002
 50
90.000000
 51
180.000000
  0
ARC
  8
0
 10
75.574982
 20
58.833054
 40
0.599998
 50
0.000000
 51
90.000000
  0
ARC
  8
0
 10
85.774986
 20
68.838394
 40
6.100002
 50
17.728853
 51
50.398010
  0
ARC
  8
0
 10
60.124977
 20
-7.953999
 40
0.500000
 50
180.000000
 51
270.000000
  0
ARC
  8
0
 10
67.524979
 20
-7.954002
 40
0.500000
 50
270.000000
 51
0.000000
  0
ARC
  8
0
 10
67.524979
 20
-3.777046
 40
0.500000
 50
270.000000
 51
0.000000
  0
ARC
  8
0
 10
60.124977
 20
-3.777046
 40
0.500000
 50
180.000000
 51
270.000000
  0
ARC
  8
0
 10
68.324974
 20
-7.105476
 40
0.500000
 50
270.000000
 51
0.000000
  0
ARC
  8
0
 10
59.324982
 20
-7.105473
 40
0.500000
 50
180.000000
 51
270.000000
  0
ARC
  8
0
 10
69.174988
 20
5.596430
 40
1.000000
 50
180.000000
 51
270.000000
  0
ARC
  8
0
 10
75.174988
 20
5.596430
 40
1.000000
 50
270.000000
 51
0.000000
  0
ARC
  8
0
 10
54.374985
 20
8.647703
 40
1.500000
 50
0.000000
 51
180.000000
  0
ARC
  8
0
 10
54.374985
 20
15.718773
 40
1.500000
 50
0.000000
 51
180.000000
  0
ARC
  8
0
 10
53.874985
 20
4.742697
 40
0.500000
 50
270.000000
 51
0.000000
  0
ARC
  8
0
 10
54.874985
 20
2.516186
 40
0.500000
 50
180.000000
 51
270.000000
  0
ARC
  8
0
 10
56.174984
 20
3.376854
 40
0.299999
 50
180.000000
 51
270.000000
  0
ARC
  8
0
 10
64.569298
 20
63.321915
 40
0.755692
 50
0.000000
 51
14.106812
  0
ARC
  8
0
 10
64.371742
 20
63.249493
 40
0.965194
 50
15.418097
 51
51.388500
  0
ARC
  8
0
 10
63.824989
 20
62.450687
 40
1.931887
 50
53.502209
 51
126.497787
  0
ARC
  8
0
 10
63.278240
 20
63.249489
 40
0.965202
 50
128.611542
 51
164.582031
  0
ARC
  8
0
 10
63.080681
 20
63.321915
 40
0.755695
 50
165.893539
 51
180.000000
  0
ARC
  8
0
 10
45.194695
 20
60.459118
 40
2.130283
 50
3.762875
 51
11.773575
  0
ARC
  8
0
 10
44.977123
 20
60.392651
 40
2.356933
 50
12.276172
 51
45.305767
  0
ARC
  8
0
 10
44.374985
 20
59.659550
 40
3.302730
 50
46.825012
 51
133.175171
  0
ARC
  8
0
 10
43.772846
 20
60.392651
 40
2.356931
 50
134.694504
 51
167.724014
  0
ARC
  8
0
 10
43.555275
 20
60.459118
 40
2.130285
 50
168.226624
 51
183.762878
  0
ARC
  8
0
 10
56.043663
 20
70.817238
 40
0.425082
 50
345.892914
 51
14.106079
  0
ARC
  8
0
 10
55.932537
 20
70.776497
 40
0.542926
 50
15.417852
 51
51.388161
  0
ARC
  8
0
 10
55.624989
 20
70.327171
 40
1.086691
 50
53.501953
 51
126.497162
  0
ARC
  8
0
 10
55.317448
 20
70.776505
 40
0.542924
 50
128.611206
 51
164.582153
  0
ARC
  8
0
 10
55.206322
 20
70.817238
 40
0.425082
 50
165.892929
 51
194.106079
  0
ARC
  8
0
 10
55.317448
 20
70.857979
 40
0.542926
 50
195.417847
 51
231.388168
  0
ARC
  8
0
 10
55.624996
 20
71.307304
 40
1.086691
 50
233.501953
 51
306.497162
  0
ARC
  8
0
 10
55.932537
 20
70.857971
 40
0.542924
 50
308.611206
 51
344.582153
  0
ARC
  8
0
 10
42.911201
 20
60.459118
 40
1.486213
 50
174.645905
 51
194.106400
  0
ARC
  8
0
 10
43.299728
 20
60.601551
 40
1.898234
 50
195.417847
 51
231.388306
  0
ARC
  8
0
 10
44.374985
 20
62.172497
 40
3.799345
 50
233.502060
 51
306.497894
  0
ARC
  8
0
 10
45.450241
 20
60.601551
 40
1.898234
 50
308.611603
 51
344.582153
  0
ARC
  8
0
 10
45.838768
 20
60.459118
 40
1.486212
 50
345.893585
 51
5.331355
  0
ARC
  8
0
 10
44.374962
 20
57.057610
 40
4.532873
 50
65.111557
 51
114.901993
  0
ARC
  8
0
 10
56.369297
 20
70.817238
 40
0.755698
 50
345.893616
 51
14.106391
  0
ARC
  8
0
 10
56.171741
 20
70.744812
 40
0.965201
 50
15.417976
 51
51.388641
  0
ARC
  8
0
 10
55.624992
 20
69.946014
 40
1.931882
 50
53.502232
 51
126.497765
  0
ARC
  8
0
 10
55.078243
 20
70.744812
 40
0.965200
 50
128.611359
 51
164.582031
  0
ARC
  8
0
 10
54.880688
 20
70.817238
 40
0.755698
 50
165.893616
 51
194.106384
  0
ARC
  8
0
 10
55.078243
 20
70.889664
 40
0.965201
 50
195.417969
 51
231.388641
  0
ARC
  8
0
 10
55.624992
 20
71.688461
 40
1.931882
 50
233.502228
 51
306.497772
  0
ARC
  8
0
 10
56.171741
 20
70.889664
 40
0.965200
 50
308.611359
 51
344.582031
  0
ARC
  8
0
 10
64.644707
 20
75.484146
 40
2.130286
 50
3.762766
 51
11.773696
  0
ARC
  8
0
 10
64.427132
 20
75.417679
 40
2.356934
 50
12.276262
 51
45.305698
  0
ARC
  8
0
 10
63.824997
 20
74.684578
 40
3.302735
 50
46.825008
 51
133.175217
  0
ARC
  8
0
 10
63.222858
 20
75.417679
 40
2.356928
 50
134.694565
 51
167.724106
  0
ARC
  8
0
 10
63.005287
 20
75.484146
 40
2.130284
 50
168.226730
 51
183.762772
  0
ARC
  8
0
 10
62.361214
 20
75.484146
 40
1.486214
 50
174.645615
 51
194.106262
  0
ARC
  8
0
 10
62.749741
 20
75.626579
 40
1.898233
 50
195.417740
 51
231.388382
  0
ARC
  8
0
 10
63.824997
 20
77.197525
 40
3.799348
 50
233.502106
 51
306.497894
  0
ARC
  8
0
 10
64.900253
 20
75.626579
 40
1.898234
 50
308.611603
 51
344.582001
  0
ARC
  8
0
 10
65.288780
 20
75.484146
 40
1.486209
 50
345.893433
 51
5.331355
  0
ARC
  8
0
 10
63.824974
 20
72.082642
 40
4.532878
 50
65.111641
 51
114.902000
  0
ARC
  8
0
 10
92.524986
 20
83.565750
 40
1.264351
 50
270.000000
 51
282.242828
  0
ARC
  8
0
 10
92.766640
 20
82.480309
 40
0.152467
 50
279.993530
 51
312.511688
  0
ARC
  8
0
 10
92.853951
 20
82.381897
 40
0.021033
 50
318.352661
 51
41.647346
  0
ARC
  8
0
 10
92.766640
 20
82.283485
 40
0.152466
 50
47.488319
 51
80.006470
  0
ARC
  8
0
 10
92.524986
 20
81.198044
 40
1.264350
 50
77.757172
 51
90.000000
  0
ARC
  8
0
 10
61.074982
 20
76.985840
 40
2.317956
 50
57.784184
 51
126.503433
  0
ARC
  8
0
 10
60.419102
 20
77.943924
 40
1.158450
 50
128.617111
 51
164.585159
  0
ARC
  8
0
 10
60.182110
 20
78.030792
 40
0.907130
 50
165.895859
 51
175.402695
  0
ARC
  8
0
 10
82.923882
 20
68.982048
 40
2.252264
 50
49.621052
 51
51.386902
  0
ARC
  8
0
 10
81.648270
 20
67.118477
 40
4.507535
 50
53.500504
 51
126.499496
  0
ARC
  8
0
 10
80.372658
 20
68.982048
 40
2.252259
 50
128.613098
 51
130.392014
  0
ARC
  8
0
 10
81.648270
 20
66.623497
 40
4.507536
 50
64.054672
 51
115.975990
  0
ARC
  8
0
 10
65.171753
 20
48.369286
 40
3.219793
 50
264.721497
 51
306.497833
  0
ARC
  8
0
 10
66.082993
 20
47.037968
 40
1.608670
 50
308.611481
 51
344.582031
  0
ARC
  8
0
 10
66.412254
 20
46.917259
 40
1.259492
 50
345.893555
 51
14.106615
  0
ARC
  8
0
 10
66.082993
 20
46.796555
 40
1.608666
 50
15.417956
 51
51.388443
  0
ARC
  8
0
 10
65.171753
 20
45.465233
 40
3.219793
 50
53.502178
 51
90.000000
  0
ARC
  8
0
 10
65.171753
 20
48.078880
 40
2.575836
 50
263.380890
 51
306.497925
  0
ARC
  8
0
 10
65.900742
 20
47.013824
 40
1.286935
 50
308.611847
 51
344.582336
  0
ARC
  8
0
 10
66.164154
 20
46.917263
 40
1.007595
 50
345.893585
 51
14.106636
  0
ARC
  8
0
 10
65.900742
 20
46.820698
 40
1.286938
 50
15.418000
 51
51.388519
  0
ARC
  8
0
 10
65.171753
 20
45.755638
 40
2.575834
 50
53.502300
 51
96.606316
  0
ARC
  8
0
 10
65.174988
 20
39.113758
 40
3.863766
 50
270.000000
 51
306.497833
  0
ARC
  8
0
 10
66.268478
 20
37.516167
 40
1.930401
 50
308.611603
 51
344.582245
  0
ARC
  8
0
 10
66.663597
 20
37.371323
 40
1.511389
 50
345.893524
 51
0.000000
  0
ARC
  8
0
 10
66.663597
 20
30.300253
 40
1.511391
 50
0.000000
 51
14.106462
  0
ARC
  8
0
 10
66.268478
 20
30.155407
 40
1.930401
 50
15.417812
 51
51.388393
  0
ARC
  8
0
 10
65.174988
 20
28.557814
 40
3.863760
 50
53.502182
 51
90.000000
  0
ARC
  8
0
 10
73.374985
 20
69.440735
 40
11.527031
 50
304.530334
 51
306.497223
  0
ARC
  8
0
 10
76.637344
 20
64.674355
 40
5.758927
 50
308.610931
 51
344.581757
  0
ARC
  8
0
 10
77.816139
 20
64.242203
 40
4.508842
 50
345.893280
 51
14.106668
  0
ARC
  8
0
 10
76.637344
 20
63.810051
 40
5.758924
 50
15.418210
 51
24.330647
  0
ARC
  8
0
 10
63.080681
 20
0.955545
 40
0.755695
 50
180.000076
 51
194.106415
  0
ARC
  8
0
 10
63.278240
 20
1.027969
 40
0.965201
 50
195.417831
 51
231.388382
  0
ARC
  8
0
 10
63.824989
 20
1.826771
 40
1.931887
 50
233.502197
 51
306.497742
  0
ARC
  8
0
 10
64.371742
 20
1.027967
 40
0.965199
 50
308.611359
 51
344.581909
  0
ARC
  8
0
 10
64.569298
 20
0.955543
 40
0.755691
 50
345.893372
 51
0.000077
  0
ARC
  8
0
 10
45.168915
 20
13.188386
 40
0.806073
 50
345.893311
 51
14.106347
  0
ARC
  8
0
 10
44.958183
 20
13.111134
 40
1.029547
 50
15.417768
 51
51.388268
  0
ARC
  8
0
 10
44.374985
 20
12.259085
 40
2.060674
 50
53.502022
 51
126.497581
  0
ARC
  8
0
 10
43.791794
 20
13.111138
 40
1.029549
 50
128.611435
 51
164.581924
  0
ARC
  8
0
 10
43.581062
 20
13.188392
 40
0.806073
 50
165.893326
 51
194.106354
  0
ARC
  8
0
 10
43.791794
 20
13.265644
 40
1.029547
 50
195.417770
 51
231.388260
  0
ARC
  8
0
 10
44.374992
 20
14.117693
 40
2.060674
 50
233.502029
 51
306.497589
  0
ARC
  8
0
 10
44.958183
 20
13.265639
 40
1.029549
 50
308.611450
 51
344.581940
  0
ARC
  8
0
 10
45.367397
 20
13.188382
 40
1.007592
 50
345.893372
 51
14.106320
  0
ARC
  8
0
 10
45.103985
 20
13.091817
 40
1.286936
 50
15.417755
 51
51.388359
  0
ARC
  8
0
 10
44.374985
 20
12.026752
 40
2.575847
 50
53.502094
 51
126.497604
  0
ARC
  8
0
 10
43.645992
 20
13.091821
 40
1.286936
 50
128.611404
 51
164.581909
  0
ARC
  8
0
 10
43.382580
 20
13.188388
 40
1.007592
 50
165.893356
 51
194.106323
  0
ARC
  8
0
 10
43.645992
 20
13.284953
 40
1.286936
 50
195.417755
 51
231.388351
  0
ARC
  8
0
 10
44.374992
 20
14.350019
 40
2.575847
 50
233.502090
 51
306.497589
  0
ARC
  8
0
 10
45.103985
 20
13.284949
 40
1.286936
 50
308.611389
 51
344.581909
  0
ARC
  8
0
 10
43.382584
 20
10.854931
 40
1.007597
 50
179.894577
 51
194.106216
  0
ARC
  8
0
 10
43.645992
 20
10.951495
 40
1.286936
 50
195.417679
 51
231.388336
  0
ARC
  8
0
 10
44.374992
 20
12.016558
 40
2.575844
 50
233.502045
 51
306.497589
  0
ARC
  8
0
 10
45.103985
 20
10.951490
 40
1.286937
 50
308.611359
 51
344.581879
  0
ARC
  8
0
 10
45.367393
 20
10.854923
 40
1.007596
 50
345.893372
 51
0.126572
  0
ARC
  8
0
 10
81.648270
 20
70.688576
 40
4.507535
 50
241.808960
 51
298.150330
  0
POLYLINE
  8
0
 66
     1
  0
VERTEX
  8
0
 10
40.675003
 20
18.250008
  0
VERTEX
  8
0
 10
39.790390
 20
18.406660
  0
VERTEX
  8
0
 10
38.994995
 20
18.895721
  0
VERTEX
  8
0
 10
38.605335
 20
19.578779
  0
VERTEX
  8
0
 10
38.483215
 20
20.433485
  0
VERTEX
  8
0
 10
38.514999
 20
21.396538
  0
VERTEX
  8
0
 10
38.581280
 20
22.165266
  0
VERTEX
  8
0
 10
38.676437
 20
22.884499
  0
VERTEX
  8
0
 10
38.817543
 20
23.600286
  0
VERTEX
  8
0
 10
39.021667
 20
24.358673
  0
VERTEX
  8
0
 10
39.330467
 20
25.240437
  0
VERTEX
  8
0
 10
39.714348
 20
26.107603
  0
VERTEX
  8
0
 10
40.165226
 20
26.947283
  0
VERTEX
  8
0
 10
40.675003
 20
27.746590
  0
SEQEND
  0
POLYLINE
  8
0
 66
     1
  0
VERTEX
  8
0
 10
40.675003
 20
42.753418
  0
VERTEX
  8
0
 10
40.160114
 20
43.569550
  0
VERTEX
  8
0
 10
39.700726
 20
44.437271
  0
VERTEX
  8
0
 10
39.315140
 20
45.310043
  0
VERTEX
  8
0
 10
39.021660
 20
46.141335
  0
VERTEX
  8
0
 10
38.832031
 20
46.860821
  0
VERTEX
  8
0
 10
38.687851
 20
47.601505
  0
VERTEX
  8
0
 10
38.583908
 20
48.352638
  0
VERTEX
  8
0
 10
38.514992
 20
49.103470
  0
VERTEX
  8
0
 10
38.504097
 20
50.048714
  0
VERTEX
  8
0
 10
38.643208
 20
50.940475
  0
VERTEX
  8
0
 10
38.994995
 20
51.604286
  0
VERTEX
  8
0
 10
39.759529
 20
52.061676
  0
VERTEX
  8
0
 10
40.674995
 20
52.250008
  0
SEQEND
  0
POINT
  8
0
 10
236.174988
 20
135.250000
  0
POINT
  8
0
 10
196.674988
 20
135.250000
  0
LINE
  8
0
 10
239.384003
 20
172.302399
 11
228.141006
 21
161.059402
  0
LINE
  8
0
 10
233.727142
 20
177.959259
 11
222.484146
 21
166.716263
  0
LINE
  8
0
 10
229.413818
 20
173.645920
 11
235.070679
 21
167.989075
  0
LINE
  8
0
 10
221.918503
 20
166.716248
 11
228.141037
 21
160.493713
  0
LINE
  8
0
 10
235.070648
 20
167.423370
 11
228.141006
 21
160.493713
  0
LINE
  8
0
 10
228.848114
 20
173.645920
 11
221.918457
 21
166.716278
  0
LINE
  8
0
 10
223.969101
 20
168.201172
 11
229.625946
 21
162.544327
  0
LINE
  8
0
 10
227.716766
 20
174.777283
 11
229.130981
 21
173.363068
  0
LINE
  8
0
 10
232.454422
 20
178.807816
 11
233.515076
 21
177.747147
  0
LINE
  8
0
 10
234.787827
 20
167.706207
 11
236.202042
 21
166.291992
  0
LINE
  8
0
 10
240.232529
 20
170.322510
 11
236.202011
 21
166.291992
  0
LINE
  8
0
 10
231.747253
 20
178.807785
 11
227.716736
 21
174.777283
  0
LINE
  8
0
 10
239.171936
 20
172.090302
 11
240.232590
 21
171.029633
  0
LINE
  8
0
 10
223.898346
 20
167.423355
 11
223.898346
 21
168.130463
  0
LINE
  8
0
 10
228.848114
 20
162.473602
 11
229.555222
 21
162.473602
  0
LINE
  8
0
 10
222.484192
 20
166.716248
 11
228.141037
 21
161.059402
  0
LINE
  8
0
 10
223.544846
 20
167.776917
 11
229.201691
 21
162.120071
  0
LINE
  8
0
 10
230.969437
 20
163.887802
 11
225.312592
 21
169.544647
  0
LINE
  8
0
 10
226.308655
 20
155.691269
 11
225.229492
 21
154.612091
  0
LINE
  8
0
 10
229.908905
 20
161.412842
 11
221.777283
 21
153.281219
  0
LINE
  8
0
 10
229.484543
 20
161.837219
 11
229.908798
 21
161.412964
  0
LINE
  8
0
 10
228.423889
 20
160.776550
 11
228.848145
 21
160.352295
  0
LINE
  8
0
 10
217.116272
 20
164.883667
 11
216.037094
 21
163.804489
  0
LINE
  8
0
 10
239.384064
 20
173.009521
 11
234.434311
 21
177.959274
  0
LINE
  8
0
 10
221.777283
 20
153.281219
 11
214.706207
 21
160.352295
  0
LINE
  8
0
 10
153.965973
 20
98.197617
 11
165.208969
 21
109.440605
  0
LINE
  8
0
 10
159.622833
 20
92.540741
 11
170.865829
 21
103.783737
  0
LINE
  8
0
 10
163.936142
 20
96.854080
 11
158.279297
 21
102.510941
  0
LINE
  8
0
 10
171.431473
 20
103.783745
 11
165.208939
 21
110.006287
  0
LINE
  8
0
 10
158.279312
 20
103.076637
 11
165.208969
 21
110.006287
  0
LINE
  8
0
 10
164.501862
 20
96.854080
 11
171.431519
 21
103.783730
  0
LINE
  8
0
 10
169.380859
 20
102.298820
 11
163.724014
 21
107.955673
  0
LINE
  8
0
 10
165.633194
 20
95.722733
 11
164.218994
 21
97.136948
  0
LINE
  8
0
 10
160.895569
 20
91.692200
 11
159.834915
 21
92.752861
  0
LINE
  8
0
 10
158.562134
 20
102.793793
 11
157.147919
 21
104.208015
  0
LINE
  8
0
 10
153.117447
 20
100.177498
 11
157.147949
 21
104.208008
  0
LINE
  8
0
 10
161.602722
 20
91.692215
 11
165.633240
 21
95.722725
  0
LINE
  8
0
 10
154.178055
 20
98.409714
 11
153.117401
 21
99.470383
  0
LINE
  8
0
 10
169.451630
 20
103.076653
 11
169.451630
 21
102.369545
  0
LINE
  8
0
 10
164.501862
 20
108.026398
 11
163.794739
 21
108.026398
  0
LINE
  8
0
 10
170.865784
 20
103.783745
 11
165.208939
 21
109.440598
  0
LINE
  8
0
 10
169.805115
 20
102.723091
 11
164.148285
 21
108.379936
  0
LINE
  8
0
 10
162.380539
 20
106.612198
 11
168.037384
 21
100.955338
  0
LINE
  8
0
 10
163.865433
 20
108.662781
 11
163.701721
 21
108.826492
  0
LINE
  8
0
 10
164.926086
 20
109.723434
 11
164.870193
 21
109.779343
  0
LINE
  8
0
 10
171.572891
 20
103.076630
 11
171.148636
 21
103.500893
  0
LINE
  8
0
 10
170.512131
 20
102.016090
 11
179.843689
 21
111.347656
  0
LINE
  8
0
 10
170.512238
 20
102.015976
 11
170.087967
 21
102.440239
  0
LINE
  8
0
 10
176.233704
 20
105.616341
 11
177.312881
 21
106.695511
  0
LINE
  8
0
 10
153.965942
 20
97.490494
 11
158.915680
 21
92.540741
  0
LINE
  8
0
 10
179.674667
 20
142.350006
 11
158.474808
 21
163.549866
  0
LINE
  8
0
 10
158.474808
 20
106.950134
 11
179.674667
 21
128.149994
  0
LINE
  8
0
 10
158.490555
 20
106.965546
 11
142.674683
 21
122.781433
  0
LINE
  8
0
 10
142.674652
 20
147.718552
 11
158.490540
 21
163.534424
  0
LINE
  8
0
 10
179.674667
 20
128.149994
 11
179.674667
 21
142.350006
  0
LINE
  8
0
 10
142.674667
 20
122.750290
 11
142.674667
 21
147.749710
  0
LINE
  8
0
 10
165.349319
 20
157.665298
 11
169.096985
 21
161.412964
  0
LINE
  8
0
 10
170.511200
 20
151.513458
 11
174.753845
 21
155.756104
  0
LINE
  8
0
 10
166.032806
 20
113.494720
 11
165.526093
 21
114.001427
  0
LINE
  8
0
 10
170.346161
 20
117.808067
 11
169.839447
 21
118.314774
  0
LINE
  8
0
 10
170.122299
 20
161.094757
 11
170.688400
 21
161.660873
  0
LINE
  8
0
 10
174.435638
 20
156.781418
 11
175.001755
 21
157.347519
  0
LINE
  8
0
 10
174.903290
 20
156.313782
 11
169.654678
 21
161.562378
  0
LINE
  8
0
 10
166.032822
 20
113.494728
 11
170.346176
 21
117.808075
  0
LINE
  8
0
 10
170.688400
 20
161.660858
 11
175.001755
 21
157.347504
  0
LINE
  8
0
 10
174.753860
 20
155.756104
 11
174.903290
 21
156.313782
  0
LINE
  8
0
 10
169.097015
 20
161.412949
 11
169.654678
 21
161.562378
  0
LINE
  8
0
 10
174.753860
 20
155.756104
 11
169.097015
 21
161.412964
  0
LINE
  8
0
 10
153.848724
 20
125.776062
 11
157.471924
 21
128.040085
  0
LINE
  8
0
 10
149.609375
 20
132.560440
 11
153.232559
 21
134.824463
  0
LINE
  8
0
 10
153.548904
 20
125.765572
 11
149.776611
 21
127.771339
  0
LINE
  8
0
 10
157.304672
 20
132.829147
 11
153.532379
 21
134.834915
  0
LINE
  8
0
 10
149.617493
 20
128.025757
 11
149.468384
 21
132.295547
  0
LINE
  8
0
 10
157.612625
 20
128.304947
 11
157.463516
 21
132.574738
  0
LINE
  8
0
 10
154.239838
 20
128.426453
 11
152.162994
 21
131.750107
  0
LINE
  8
0
 10
154.918289
 20
128.850403
 11
152.841431
 21
132.174057
  0
LINE
  8
0
 10
157.009033
 20
137.278610
 11
157.897324
 21
141.457642
  0
LINE
  8
0
 10
149.183838
 20
138.941895
 11
150.072113
 21
143.120926
  0
LINE
  8
0
 10
156.808365
 20
137.055649
 11
152.745071
 21
135.735413
  0
LINE
  8
0
 10
154.336212
 20
144.664108
 11
150.272934
 21
143.343872
  0
LINE
  8
0
 10
152.451569
 20
135.797714
 11
149.276566
 21
138.656509
  0
LINE
  8
0
 10
157.804626
 20
141.742889
 11
154.629623
 21
144.601669
  0
LINE
  8
0
 10
155.374252
 20
139.401062
 11
151.540710
 21
140.215912
  0
LINE
  8
0
 10
155.540588
 20
140.183578
 11
151.707047
 21
140.998428
  0
LINE
  8
0
 10
192.674988
 20
111.564560
 11
192.674988
 21
119.076797
  0
LINE
  8
0
 10
158.474960
 20
106.949997
 11
142.674957
 21
122.749992
  0
LINE
  8
0
 10
142.674973
 20
147.750031
 11
158.474976
 21
163.550034
  0
LINE
  8
0
 10
160.794067
 20
108.279457
 11
165.743820
 21
113.229202
  0
LINE
  8
0
 10
161.713318
 20
108.633011
 11
165.390259
 21
112.309967
  0
LINE
  8
0
 10
164.554871
 20
109.423943
 11
164.599335
 21
109.468407
  0
LINE
  8
0
 10
165.390259
 20
112.309952
 11
165.107422
 21
112.592804
  0
LINE
  8
0
 10
161.713303
 20
108.633003
 11
161.430466
 21
108.915848
  0
LINE
  8
0
 10
165.743805
 20
113.229210
 11
165.248840
 21
113.724182
  0
LINE
  8
0
 10
160.794067
 20
108.279449
 11
160.299103
 21
108.774422
  0
LINE
  8
0
 10
170.611694
 20
118.097076
 11
175.561447
 21
123.046822
  0
LINE
  8
0
 10
171.530930
 20
118.450630
 11
175.207886
 21
122.127579
  0
LINE
  8
0
 10
174.372482
 20
119.241562
 11
174.416946
 21
119.286026
  0
LINE
  8
0
 10
175.207870
 20
122.127579
 11
174.925034
 21
122.410423
  0
LINE
  8
0
 10
171.530930
 20
118.450623
 11
171.248077
 21
118.733467
  0
LINE
  8
0
 10
175.561447
 20
123.046814
 11
175.066467
 21
123.541786
  0
LINE
  8
0
 10
175.561447
 20
147.453186
 11
171.006195
 21
152.008438
  0
LINE
  8
0
 10
175.207886
 20
148.372421
 11
171.530945
 21
152.049377
  0
LINE
  8
0
 10
174.416962
 20
151.213974
 11
174.372498
 21
151.258438
  0
LINE
  8
0
 10
171.530930
 20
152.049377
 11
171.248093
 21
151.766541
  0
LINE
  8
0
 10
175.207886
 20
148.372437
 11
174.925049
 21
148.089584
  0
LINE
  8
0
 10
175.561432
 20
147.453171
 11
175.066467
 21
146.958206
  0
LINE
  8
0
 10
165.743820
 20
157.270798
 11
160.794083
 21
162.220551
  0
LINE
  8
0
 10
165.390274
 20
158.190048
 11
161.713318
 21
161.867004
  0
LINE
  8
0
 10
161.713303
 20
161.867004
 11
161.430466
 21
161.584152
  0
LINE
  8
0
 10
165.390274
 20
158.190048
 11
165.107437
 21
157.907211
  0
LINE
  8
0
 10
160.794067
 20
162.220551
 11
160.299103
 21
161.725586
  0
LINE
  8
0
 10
165.743820
 20
157.270798
 11
165.248856
 21
156.775833
  0
LINE
  8
0
 10
183.239960
 20
140.199753
 11
187.058334
 21
144.018127
  0
LINE
  8
0
 10
207.988693
 20
135.250000
 11
194.553665
 21
148.685028
  0
LINE
  8
0
 10
194.553665
 20
148.685028
 11
191.725235
 21
148.685028
  0
LINE
  8
0
 10
183.239960
 20
140.199753
 11
183.239960
 21
137.371323
  0
LINE
  8
0
 10
181.914764
 20
112.936836
 11
191.674973
 21
118.571899
  0
LINE
  8
0
 10
166.021408
 20
112.792091
 11
173.681839
 21
119.219971
  0
LINE
  8
0
 10
211.435196
 20
112.936836
 11
201.674988
 21
118.571899
  0
LINE
  8
0
 10
227.328552
 20
112.792068
 11
219.668121
 21
119.219955
  0
LINE
  8
0
 10
214.744080
 20
120.088196
 11
213.162582
 21
121.415237
  0
LINE
  8
0
 10
189.957474
 20
135.603546
 11
192.715195
 21
138.361267
  0
LINE
  8
0
 10
203.392502
 20
135.603546
 11
197.028534
 21
141.967514
  0
LINE
  8
0
 10
197.028534
 20
128.532486
 11
203.392502
 21
134.896454
  0
LINE
  8
0
 10
196.321442
 20
128.532486
 11
189.957474
 21
134.896454
  0
LINE
  8
0
 10
196.321442
 20
127.825378
 11
189.250366
 21
134.896454
  0
LINE
  8
0
 10
197.028534
 20
127.825378
 11
204.099609
 21
134.896454
  0
LINE
  8
0
 10
204.099609
 20
135.603546
 11
197.028534
 21
142.674622
  0
LINE
  8
0
 10
189.250366
 20
135.603546
 11
192.361633
 21
138.714828
  0
LINE
  8
0
 10
192.715195
 20
138.361267
 11
187.058334
 21
144.018127
  0
LINE
  8
0
 10
193.563721
 20
139.209793
 11
187.906860
 21
144.866653
  0
LINE
  8
0
 10
193.563721
 20
139.209793
 11
196.321442
 21
141.967514
  0
LINE
  8
0
 10
193.210159
 20
139.563354
 11
196.321442
 21
142.674622
  0
LINE
  8
0
 10
187.906860
 20
144.866653
 11
191.725235
 21
148.685028
  0
LINE
  8
0
 10
192.008087
 20
139.068375
 11
192.856613
 21
139.916901
  0
LINE
  8
0
 10
188.472549
 20
142.603912
 11
189.321075
 21
143.452438
  0
LINE
  8
0
 10
200.623459
 20
146.433624
 11
195.837784
 21
151.219284
  0
LINE
  8
0
 10
200.882278
 20
145.467697
 11
194.871872
 21
151.478104
  0
LINE
  8
0
 10
200.882263
 20
145.467697
 11
200.623444
 21
146.433609
  0
LINE
  8
0
 10
194.871857
 20
151.478073
 11
195.837784
 21
151.219269
  0
LINE
  8
0
 10
199.326645
 20
143.912064
 11
200.882278
 21
145.467697
  0
LINE
  8
0
 10
192.078796
 20
148.685028
 11
194.871872
 21
151.478104
  0
LINE
  8
0
 10
172.986908
 20
113.661926
 11
172.986908
 21
109.461922
  0
LINE
  8
0
 10
170.886917
 20
111.561920
 11
175.086914
 21
111.561920
  0
LINE
  8
0
 10
165.420868
 20
111.066948
 11
172.491928
 21
103.995880
  0
LINE
  8
0
 10
165.420868
 20
111.066948
 11
171.926254
 21
117.572327
  0
LINE
  8
0
 10
174.754669
 20
117.572327
 11
178.997314
 21
113.329689
  0
LINE
  8
0
 10
222.837845
 20
168.483917
 11
214.706207
 21
160.352295
  0
LINE
  8
0
 10
222.837845
 20
168.483917
 11
223.261993
 21
168.059753
  0
LINE
  8
0
 10
221.777191
 20
167.423248
 11
222.201340
 21
166.999100
  0
LINE
  8
0
 10
192.674988
 20
149.281219
 11
192.674988
 21
158.935440
  0
LINE
  8
0
 10
170.116714
 20
118.592041
 11
170.611694
 21
118.097069
  0
LINE
  8
0
 10
219.149048
 20
105.704834
 11
213.506241
 21
111.347649
  0
LINE
  8
0
 10
188.361740
 20
115.750000
 11
187.968124
 21
116.431747
  0
LINE
  8
0
 10
184.031616
 20
113.250000
 11
183.638000
 21
113.931747
  0
LINE
  8
0
 10
186.918365
 20
113.250000
 11
184.031616
 21
113.250000
  0
LINE
  8
0
 10
188.361740
 20
115.750000
 11
186.918365
 21
113.250000
  0
LINE
  8
0
 10
188.361740
 20
154.750000
 11
186.918365
 21
157.250000
  0
LINE
  8
0
 10
186.918365
 20
157.250000
 11
184.031616
 21
157.250000
  0
LINE
  8
0
 10
182.588242
 20
154.750000
 11
184.031616
 21
157.250000
  0
LINE
  8
0
 10
184.031616
 20
152.250000
 11
182.588242
 21
154.750000
  0
LINE
  8
0
 10
186.918365
 20
152.250000
 11
184.031616
 21
152.250000
  0
LINE
  8
0
 10
188.361740
 20
154.750000
 11
186.918365
 21
152.250000
  0
LINE
  8
0
 10
182.211044
 20
110.596680
 11
182.761612
 21
111.550285
  0
LINE
  8
0
 10
182.644058
 20
110.346680
 11
183.194611
 21
111.300285
  0
LINE
  8
0
 10
182.211044
 20
159.903320
 11
182.761612
 21
158.949707
  0
LINE
  8
0
 10
182.644058
 20
160.153320
 11
183.194626
 21
159.199707
  0
LINE
  8
0
 10
170.511215
 20
125.904701
 11
169.511215
 21
125.327354
  0
LINE
  8
0
 10
169.511215
 20
125.327354
 11
169.511215
 21
124.172653
  0
LINE
  8
0
 10
170.511215
 20
123.595306
 11
169.511215
 21
124.172653
  0
LINE
  8
0
 10
171.511215
 20
124.172653
 11
170.511215
 21
123.595299
  0
LINE
  8
0
 10
171.511215
 20
125.327354
 11
171.511215
 21
124.172653
  0
LINE
  8
0
 10
170.511215
 20
125.904701
 11
171.511215
 21
125.327354
  0
LINE
  8
0
 10
170.511200
 20
146.904709
 11
169.511200
 21
146.327362
  0
LINE
  8
0
 10
169.511200
 20
146.327362
 11
169.511200
 21
145.172653
  0
LINE
  8
0
 10
170.511200
 20
144.595306
 11
169.511200
 21
145.172653
  0
LINE
  8
0
 10
171.511200
 20
145.172653
 11
170.511200
 21
144.595306
  0
LINE
  8
0
 10
171.511200
 20
146.327362
 11
171.511200
 21
145.172653
  0
LINE
  8
0
 10
170.511200
 20
146.904709
 11
171.511200
 21
146.327362
  0
LINE
  8
0
 10
163.086594
 20
122.904312
 11
163.086594
 21
118.604317
  0
LINE
  8
0
 10
160.936584
 20
120.754318
 11
165.236588
 21
120.754318
  0
LINE
  8
0
 10
163.086578
 20
151.895691
 11
163.086578
 21
147.595703
  0
LINE
  8
0
 10
160.936584
 20
149.745697
 11
165.236588
 21
149.745697
  0
LINE
  8
0
 10
165.390259
 20
112.309959
 11
165.107422
 21
112.592804
  0
LINE
  8
0
 10
191.845352
 20
170.544098
 11
191.529175
 21
169.364090
  0
LINE
  8
0
 10
201.504623
 20
170.544098
 11
201.820801
 21
169.364075
  0
LINE
  8
0
 10
191.845367
 20
99.955910
 11
191.529190
 21
101.135910
  0
LINE
  8
0
 10
201.504608
 20
99.955902
 11
201.820801
 21
101.135918
  0
LINE
  8
0
 10
228.791550
 20
122.649368
 11
229.655380
 21
121.785538
  0
LINE
  8
0
 10
228.791565
 20
147.850632
 11
229.655396
 21
148.714462
  0
LINE
  8
0
 10
197.929901
 20
141.066162
 11
202.491150
 21
136.504913
  0
LINE
  8
0
 10
197.682983
 20
140.605972
 11
202.030960
 21
136.257980
  0
LINE
  8
0
 10
202.491150
 20
136.504898
 11
202.030960
 21
136.257980
  0
LINE
  8
0
 10
197.929901
 20
141.066162
 11
197.682983
 21
140.605972
  0
LINE
  8
0
 10
195.420074
 20
141.066162
 11
195.667007
 21
140.605972
  0
LINE
  8
0
 10
190.858826
 20
136.504913
 11
195.420074
 21
141.066162
  0
LINE
  8
0
 10
190.858826
 20
136.504913
 11
191.319016
 21
136.257980
  0
LINE
  8
0
 10
191.319016
 20
136.257996
 11
195.667007
 21
140.605972
  0
LINE
  8
0
 10
190.858826
 20
133.995087
 11
191.319016
 21
134.242020
  0
LINE
  8
0
 10
195.420074
 20
129.433838
 11
195.667007
 21
129.894028
  0
LINE
  8
0
 10
195.666992
 20
129.894028
 11
191.319016
 21
134.242020
  0
LINE
  8
0
 10
197.929886
 20
129.433838
 11
197.682968
 21
129.894028
  0
LINE
  8
0
 10
202.491150
 20
133.995087
 11
197.929901
 21
129.433838
  0
LINE
  8
0
 10
202.491150
 20
133.995087
 11
202.030960
 21
134.242004
  0
LINE
  8
0
 10
202.030960
 20
134.242004
 11
197.682968
 21
129.894028
  0
ARC
  8
0
 10
196.674988
 20
135.250000
 40
34.500004
 50
233.333054
 51
306.666901
  0
CIRCLE
  8
0
 10
207.924988
 20
154.735580
 40
3.300000
  0
CIRCLE
  8
0
 10
230.120911
 20
168.696152
 40
2.500000
  0
CIRCLE
  8
0
 10
230.120911
 20
168.696152
 40
2.000000
  0
ARC
  8
0
 10
234.080719
 20
177.605682
 40
0.500001
 50
45.001236
 51
135.000000
  0
ARC
  8
0
 10
239.030457
 20
172.655945
 40
0.500011
 50
315.000000
 51
44.998764
  0
ARC
  8
0
 10
239.878998
 20
170.676041
 40
0.499990
 50
315.000000
 51
45.001236
  0
ARC
  8
0
 10
232.100815
 20
178.454224
 40
0.500001
 50
44.998764
 51
135.000000
  0
ARC
  8
0
 10
235.352463
 20
173.927689
 40
3.501481
 50
353.957184
 51
96.042816
  0
ARC
  8
0
 10
196.674988
 20
135.250000
 40
36.000000
 50
34.597832
 51
37.016365
  0
ARC
  8
0
 10
196.674988
 20
135.250000
 40
36.000000
 50
52.983513
 51
55.402081
  0
ARC
  8
0
 10
196.674988
 20
135.250000
 40
36.000000
 50
232.983505
 51
235.402100
  0
CIRCLE
  8
0
 10
163.229065
 20
101.803856
 40
2.500000
  0
CIRCLE
  8
0
 10
163.229065
 20
101.803856
 40
2.000000
  0
ARC
  8
0
 10
159.269257
 20
92.894318
 40
0.500001
 50
225.001236
 51
314.998749
  0
ARC
  8
0
 10
154.319504
 20
97.844063
 40
0.499995
 50
134.999374
 51
225.000626
  0
ARC
  8
0
 10
153.470978
 20
99.823959
 40
0.499995
 50
134.999374
 51
225.000626
  0
ARC
  8
0
 10
161.249146
 20
92.045784
 40
0.499995
 50
225.000626
 51
315.000610
  0
ARC
  8
0
 10
157.997513
 20
96.572319
 40
3.501483
 50
173.956818
 51
276.043060
  0
CIRCLE
  8
0
 10
163.086594
 20
120.754318
 40
5.000000
  0
CIRCLE
  8
0
 10
163.086578
 20
149.745697
 40
5.000000
  0
CIRCLE
  8
0
 10
170.511215
 20
135.250000
 40
0.750000
  0
CIRCLE
  8
0
 10
170.511215
 20
135.250000
 40
7.200000
  0
ARC
  8
0
 10
170.511215
 20
135.250000
 40
8.000008
 50
105.358856
 51
254.641006
  0
ARC
  8
0
 10
163.734299
 20
120.106598
 40
6.999995
 50
289.169312
 51
340.830688
  0
ARC
  8
0
 10
168.389893
 20
155.048996
 40
7.000004
 50
19.169146
 51
70.830696
  0
CIRCLE
  8
0
 10
153.540649
 20
130.300262
 40
2.000000
  0
CIRCLE
  8
0
 10
153.540649
 20
130.300262
 40
1.750000
  0
CIRCLE
  8
0
 10
153.540649
 20
130.300262
 40
4.000000
  0
ARC
  8
0
 10
149.917450
 20
128.036240
 40
0.300003
 50
182.002457
 51
242.001221
  0
ARC
  8
0
 10
153.689758
 20
126.030464
 40
0.299999
 50
242.000534
 51
301.998901
  0
ARC
  8
0
 10
157.312943
 20
128.294495
 40
0.300012
 50
301.999817
 51
1.999539
  0
ARC
  8
0
 10
157.163849
 20
132.564285
 40
0.299987
 50
1.999641
 51
61.999855
  0
ARC
  8
0
 10
153.391541
 20
134.570038
 40
0.300006
 50
62.001225
 51
121.999825
  0
ARC
  8
0
 10
149.768356
 20
132.306030
 40
0.299999
 50
122.001366
 51
182.002457
  0
CIRCLE
  8
0
 10
153.540649
 20
140.199753
 40
2.000000
  0
CIRCLE
  8
0
 10
153.540649
 20
140.199753
 40
1.750000
  0
CIRCLE
  8
0
 10
153.540649
 20
140.199753
 40
4.000000
  0
ARC
  8
0
 10
152.652374
 20
136.020721
 40
0.300006
 50
227.999573
 51
287.999023
  0
ARC
  8
0
 10
156.715652
 20
137.340958
 40
0.299990
 50
287.999023
 51
348.001923
  0
ARC
  8
0
 10
157.603943
 20
141.519989
 40
0.299998
 50
347.999084
 51
48.001740
  0
ARC
  8
0
 10
154.428925
 20
144.378784
 40
0.300006
 50
47.999573
 51
108.001808
  0
ARC
  8
0
 10
150.365631
 20
143.058548
 40
0.299990
 50
107.999031
 51
168.001923
  0
ARC
  8
0
 10
149.477356
 20
138.879517
 40
0.299995
 50
168.001923
 51
228.001740
  0
ARC
  8
0
 10
170.511215
 20
135.250000
 40
8.000001
 50
285.358856
 51
74.641144
  0
ARC
  8
0
 10
196.674988
 20
135.250000
 40
29.000004
 50
108.662918
 51
142.181396
  0
ARC
  8
0
 10
188.674988
 20
111.564560
 40
4.000002
 50
251.337097
 51
0.000000
  0
ARC
  8
0
 10
188.674988
 20
158.935440
 40
4.000000
 50
0.000000
 51
108.662895
  0
ARC
  8
0
 10
171.396393
 20
154.871231
 40
2.999998
 50
293.385895
 51
322.181427
  0
CIRCLE
  8
0
 10
163.086594
 20
120.754318
 40
4.700000
  0
CIRCLE
  8
0
 10
163.086578
 20
149.745697
 40
4.700000
  0
CIRCLE
  8
0
 10
170.511215
 20
124.750000
 40
2.600000
  0
CIRCLE
  8
0
 10
170.511215
 20
124.750000
 40
3.500000
  0
CIRCLE
  8
0
 10
170.511200
 20
145.750000
 40
2.600000
  0
CIRCLE
  8
0
 10
170.511200
 20
145.750000
 40
3.500000
  0
ARC
  8
0
 10
162.433548
 20
111.545265
 40
3.000000
 50
256.108948
 51
315.000092
  0
ARC
  8
0
 10
162.478012
 20
111.589729
 40
2.999998
 50
315.000092
 51
13.891067
  0
ARC
  8
0
 10
172.251160
 20
121.362885
 40
3.000000
 50
256.108948
 51
278.620087
  0
ARC
  8
0
 10
172.295624
 20
121.407349
 40
3.000003
 50
315.000000
 51
13.891067
  0
ARC
  8
0
 10
172.295624
 20
149.092651
 40
3.000000
 50
346.108948
 51
45.000000
  0
ARC
  8
0
 10
172.251160
 20
149.137115
 40
3.000003
 50
45.000000
 51
103.890785
  0
ARC
  8
0
 10
162.478012
 20
158.910278
 40
3.000000
 50
346.108948
 51
45.000000
  0
ARC
  8
0
 10
162.433548
 20
158.954742
 40
3.000003
 50
45.000000
 51
103.891068
  0
ARC
  8
0
 10
196.674988
 20
135.250000
 40
38.000004
 50
216.227859
 51
217.439117
  0
ARC
  8
0
 10
186.914764
 20
104.276581
 40
9.999994
 50
120.000015
 51
134.999969
  0
ARC
  8
0
 10
175.391937
 20
123.918427
 40
4.999994
 50
250.000198
 51
311.794067
  0
ARC
  8
0
 10
169.291626
 20
131.853729
 40
15.000005
 50
308.964600
 51
21.582392
  0
ARC
  8
0
 10
206.435181
 20
104.276573
 40
10.000000
 50
45.000061
 51
60.000004
  0
ARC
  8
0
 10
219.856155
 20
106.411942
 40
1.000001
 50
225.000000
 51
308.793488
  0
ARC
  8
0
 10
196.674988
 20
135.250000
 40
37.999996
 50
308.793732
 51
322.560822
  0
ARC
  8
0
 10
217.958023
 20
123.918419
 40
5.000004
 50
229.999954
 51
289.999969
  0
ARC
  8
0
 10
196.674988
 20
109.911644
 40
10.000001
 50
60.000004
 51
120.000069
  0
ARC
  8
0
 10
222.804398
 20
132.905899
 40
14.999997
 50
171.009338
 51
230.000046
  0
ARC
  8
0
 10
190.311020
 20
135.250000
 40
0.499990
 50
135.000000
 51
225.000000
  0
ARC
  8
0
 10
196.674988
 20
128.886032
 40
0.499990
 50
225.000000
 51
315.000000
  0
ARC
  8
0
 10
203.038956
 20
135.250000
 40
0.499990
 50
315.000000
 51
45.000000
  0
ARC
  8
0
 10
196.674988
 20
141.613968
 40
0.499990
 50
45.000000
 51
135.000000
  0
ARC
  8
0
 10
189.603912
 20
135.250000
 40
0.499990
 50
135.000000
 51
225.000000
  0
ARC
  8
0
 10
196.674988
 20
128.178925
 40
0.499990
 50
225.000000
 51
315.000000
  0
ARC
  8
0
 10
203.746063
 20
135.250000
 40
0.499990
 50
315.000000
 51
45.000000
  0
ARC
  8
0
 10
196.674988
 20
142.321075
 40
0.499990
 50
45.000000
 51
135.000000
  0
CIRCLE
  8
0
 10
172.986908
 20
111.561920
 40
3.500000
  0
ARC
  8
0
 10
177.583099
 20
111.915474
 40
1.999997
 50
315.000153
 51
45.000000
  0
ARC
  8
0
 10
173.340469
 20
116.158119
 40
1.999991
 50
45.000309
 51
135.000153
  0
ARC
  8
0
 10
196.674988
 20
135.250000
 40
29.000002
 50
234.933853
 51
251.337112
  0
ARC
  8
0
 10
171.396393
 20
115.628769
 40
3.000003
 50
65.297462
 51
66.614098
  0
ARC
  8
0
 10
196.674988
 20
135.250000
 40
34.500000
 50
324.155457
 51
36.666889
  0
ARC
  8
0
 10
196.674988
 20
135.250000
 40
37.999992
 50
322.560822
 51
323.772186
  0
ARC
  8
0
 10
196.674988
 20
135.250000
 40
34.500000
 50
53.333073
 51
133.367981
  0
CIRCLE
  8
0
 10
185.474991
 20
154.750000
 40
5.000000
  0
ARC
  8
0
 10
185.474991
 20
115.750000
 40
5.000007
 50
217.666092
 51
22.459188
  0
ARC
  8
0
 10
185.474991
 20
115.750000
 40
4.400010
 50
218.576279
 51
21.423655
  0
CIRCLE
  8
0
 10
185.474991
 20
154.750000
 40
4.400000
  0
ARC
  8
0
 10
185.474991
 20
154.750000
 40
6.100005
 50
122.348846
 51
117.651154
  0
ARC
  8
0
 10
185.474991
 20
115.750000
 40
6.100004
 50
242.348846
 51
23.824942
  0
ARC
  8
0
 10
185.474991
 20
115.750000
 40
6.100010
 50
217.333496
 51
237.651154
  0
ARC
  8
0
 10
196.674988
 20
169.250000
 40
5.000007
 50
15.000010
 51
164.999939
  0
ARC
  8
0
 10
196.674988
 20
101.250000
 40
5.000007
 50
195.000015
 51
345.000000
  0
ARC
  8
0
 10
226.119858
 20
118.250000
 40
4.999998
 50
277.092468
 51
45.000122
  0
ARC
  8
0
 10
226.119858
 20
152.250000
 40
5.000005
 50
315.000000
 51
94.461510
  0
ARC
  8
0
 10
196.674988
 20
135.250000
 40
39.500004
 50
232.272110
 51
37.727856
  0
ARC
  8
0
 10
196.674988
 20
135.250000
 40
5.449996
 50
349.341736
 51
10.658412
  0
ARC
  8
0
 10
196.674988
 20
169.250000
 40
2.099996
 50
12.061755
 51
167.938248
  0
ARC
  8
0
 10
196.674988
 20
101.250000
 40
2.099996
 50
192.061752
 51
347.938232
  0
ARC
  8
0
 10
226.119858
 20
118.250000
 40
2.099995
 50
252.061508
 51
47.938614
  0
ARC
  8
0
 10
226.119858
 20
152.250000
 40
2.099999
 50
312.061401
 51
107.938484
  0
ARC
  8
0
 10
196.674988
 20
135.250000
 40
5.449996
 50
79.341743
 51
100.658257
  0
ARC
  8
0
 10
196.674988
 20
135.250000
 40
5.449996
 50
169.341751
 51
190.658249
  0
ARC
  8
0
 10
196.674988
 20
135.250000
 40
5.449996
 50
259.341736
 51
280.658417
  0
ARC
  8
0
 10
196.674988
 20
135.250000
 40
5.950004
 50
167.824341
 51
192.175522
  0
ARC
  8
0
 10
196.674988
 20
135.250000
 40
5.950004
 50
257.824341
 51
282.175537
  0
ARC
  8
0
 10
196.674988
 20
135.250000
 40
5.950004
 50
347.824341
 51
12.175522
  0
ARC
  8
0
 10
196.674988
 20
135.250000
 40
5.950004
 50
77.824333
 51
102.175667
  0
ARC
  8
0
 10
196.674988
 20
135.250000
 40
39.500000
 50
52.272133
 51
142.270370
  0
POINT
  8
0
 10
-231.674988
 20
-55.250000
  0
POINT
  8
0
 10
-179.974991
 20
-55.250000
  0
LINE
  8
0
 10
-236.674988
 20
-20.750000
 11
-236.674988
 21
-26.505344
  0
LINE
  8
0
 10
-236.674988
 20
-89.750000
 11
-231.024994
 21
-89.750000
  0
LINE
  8
0
 10
-236.675003
 20
-20.750000
 11
-231.024994
 21
-20.750000
  0
LINE
  8
0
 10
-223.224991
 20
-90.676048
 11
-215.824982
 21
-90.676048
  0
LINE
  8
0
 10
-224.024979
 20
-92.655952
 11
-215.024994
 21
-92.655952
  0
LINE
  8
0
 10
-224.024979
 20
-98.105705
 11
-215.024994
 21
-98.105705
  0
LINE
  8
0
 10
-223.224991
 20
-98.954231
 11
-215.824982
 21
-98.954231
  0
LINE
  8
0
 10
-223.224991
 20
-86.291992
 11
-215.824982
 21
-86.291992
  0
LINE
  8
0
 10
-215.324982
 20
-86.791992
 11
-215.324982
 21
-91.590256
  0
LINE
  8
0
 10
-214.524994
 20
-88.206207
 11
-214.524994
 21
-97.605705
  0
LINE
  8
0
 10
-223.724991
 20
-86.791992
 11
-223.724991
 21
-91.590263
  0
LINE
  8
0
 10
-224.524979
 20
-88.206207
 11
-224.524979
 21
-97.605705
  0
LINE
  8
0
 10
-223.224991
 20
-92.090263
 11
-215.824982
 21
-92.090263
  0
LINE
  8
0
 10
-225.024994
 20
-87.706207
 11
-223.724991
 21
-87.706207
  0
LINE
  8
0
 10
-223.724991
 20
-98.105705
 11
-223.724991
 21
-98.454231
  0
LINE
  8
0
 10
-215.324982
 20
-98.105705
 11
-215.324982
 21
-98.454231
  0
LINE
  8
0
 10
-215.324982
 20
-87.706207
 11
-214.024979
 21
-87.706207
  0
LINE
  8
0
 10
-231.024994
 20
-87.989052
 11
-225.024994
 21
-87.989052
  0
LINE
  8
0
 10
-214.024979
 20
-87.706207
 11
-214.024979
 21
-93.645905
  0
LINE
  8
0
 10
-225.024994
 20
-87.706207
 11
-225.024994
 21
-93.645905
  0
LINE
  8
0
 10
-214.024979
 20
-87.989052
 11
-209.024979
 21
-87.989052
  0
LINE
  8
0
 10
-231.024994
 20
-93.645905
 11
-225.024994
 21
-93.645905
  0
LINE
  8
0
 10
-225.024994
 20
-93.363068
 11
-224.524979
 21
-93.363068
  0
LINE
  8
0
 10
-214.524994
 20
-93.363068
 11
-214.024979
 21
-93.363068
  0
LINE
  8
0
 10
-214.024979
 20
-93.645905
 11
-209.024979
 21
-93.645905
  0
LINE
  8
0
 10
-207.024994
 20
-86.196159
 11
-207.024994
 21
-91.196159
  0
LINE
  8
0
 10
-209.024979
 20
-86.196159
 11
-207.024994
 21
-86.196159
  0
LINE
  8
0
 10
-207.024994
 20
-86.696159
 11
-182.524994
 21
-86.696159
  0
LINE
  8
0
 10
-207.024994
 20
-90.696159
 11
-182.524994
 21
-90.696159
  0
LINE
  8
0
 10
-209.024979
 20
-91.196159
 11
-207.024994
 21
-91.196159
  0
LINE
  8
0
 10
-242.474976
 20
-75.852089
 11
-240.974991
 21
-75.852089
  0
LINE
  8
0
 10
-243.974976
 20
-76.923584
 11
-240.974991
 21
-76.923584
  0
LINE
  8
0
 10
-243.974976
 20
-83.994659
 11
-240.974991
 21
-83.994659
  0
LINE
  8
0
 10
-243.974976
 20
-73.846886
 11
-243.974976
 21
-83.994659
  0
LINE
  8
0
 10
-242.474976
 20
-74.994171
 11
-242.474976
 21
-75.852089
  0
LINE
  8
0
 10
-240.974991
 20
-72.786224
 11
-240.974991
 21
-76.923584
  0
LINE
  8
0
 10
-236.974991
 20
-72.786224
 11
-236.974991
 21
-76.923584
  0
LINE
  8
0
 10
-236.974991
 20
-75.852089
 11
-236.024994
 21
-75.852089
  0
LINE
  8
0
 10
-240.974991
 20
-75.691269
 11
-236.974991
 21
-75.691269
  0
LINE
  8
0
 10
-240.974991
 20
-84.883659
 11
-236.974991
 21
-84.883659
  0
LINE
  8
0
 10
-236.974991
 20
-83.994659
 11
-231.024994
 21
-83.994659
  0
LINE
  8
0
 10
-236.974991
 20
-76.923584
 11
-230.474991
 21
-76.923584
  0
LINE
  8
0
 10
-240.974991
 20
-83.994659
 11
-240.974991
 21
-84.883659
  0
LINE
  8
0
 10
-236.974991
 20
-83.994659
 11
-236.974991
 21
-84.883659
  0
LINE
  8
0
 10
-236.674988
 20
-83.994659
 11
-236.674988
 21
-89.750000
  0
LINE
  8
0
 10
-240.974991
 20
-72.786224
 11
-236.974991
 21
-72.786224
  0
LINE
  8
0
 10
-243.974976
 20
-73.846886
 11
-240.974991
 21
-73.846886
  0
LINE
  8
0
 10
-243.974976
 20
-74.994171
 11
-240.974991
 21
-74.994171
  0
LINE
  8
0
 10
-236.974991
 20
-73.846886
 11
-236.674988
 21
-73.846886
  0
LINE
  8
0
 10
-236.974991
 20
-74.994171
 11
-236.674988
 21
-74.994171
  0
LINE
  8
0
 10
-223.224991
 20
-19.824181
 11
-215.824982
 21
-19.824181
  0
LINE
  8
0
 10
-224.024994
 20
-17.844276
 11
-215.024994
 21
-17.844276
  0
LINE
  8
0
 10
-224.024994
 20
-12.394531
 11
-215.024994
 21
-12.394531
  0
LINE
  8
0
 10
-223.224991
 20
-11.545998
 11
-215.824982
 21
-11.545998
  0
LINE
  8
0
 10
-223.224991
 20
-24.208237
 11
-215.824982
 21
-24.208237
  0
LINE
  8
0
 10
-215.324982
 20
-23.708235
 11
-215.324982
 21
-18.909969
  0
LINE
  8
0
 10
-214.524994
 20
-22.294022
 11
-214.524994
 21
-12.894531
  0
LINE
  8
0
 10
-223.724991
 20
-23.708237
 11
-223.724991
 21
-18.909973
  0
LINE
  8
0
 10
-224.524979
 20
-22.294025
 11
-224.524979
 21
-12.894531
  0
LINE
  8
0
 10
-223.224991
 20
-18.409973
 11
-215.824982
 21
-18.409973
  0
LINE
  8
0
 10
-225.024994
 20
-22.794025
 11
-223.724991
 21
-22.794025
  0
LINE
  8
0
 10
-223.724991
 20
-12.394531
 11
-223.724991
 21
-12.045998
  0
LINE
  8
0
 10
-215.324982
 20
-12.394531
 11
-215.324982
 21
-12.045998
  0
LINE
  8
0
 10
-215.324982
 20
-22.794025
 11
-214.024994
 21
-22.794025
  0
LINE
  8
0
 10
-231.024994
 20
-22.511181
 11
-225.024994
 21
-22.511181
  0
LINE
  8
0
 10
-214.024979
 20
-22.794025
 11
-214.024979
 21
-16.854324
  0
LINE
  8
0
 10
-225.024994
 20
-22.794025
 11
-225.024994
 21
-16.854324
  0
LINE
  8
0
 10
-214.024994
 20
-22.511181
 11
-209.024994
 21
-22.511181
  0
LINE
  8
0
 10
-231.024994
 20
-16.854324
 11
-225.024994
 21
-16.854324
  0
LINE
  8
0
 10
-225.024994
 20
-17.137169
 11
-224.524994
 21
-17.137169
  0
LINE
  8
0
 10
-214.524994
 20
-17.137169
 11
-214.024994
 21
-17.137169
  0
LINE
  8
0
 10
-214.024994
 20
-16.854324
 11
-209.024994
 21
-16.854324
  0
LINE
  8
0
 10
-207.024994
 20
-24.304071
 11
-207.024994
 21
-19.304070
  0
LINE
  8
0
 10
-209.024994
 20
-24.304073
 11
-207.024994
 21
-24.304073
  0
LINE
  8
0
 10
-207.024994
 20
-23.804073
 11
-182.524994
 21
-23.804073
  0
LINE
  8
0
 10
-207.024994
 20
-19.804073
 11
-182.524994
 21
-19.804073
  0
LINE
  8
0
 10
-209.024994
 20
-19.304073
 11
-207.024994
 21
-19.304073
  0
LINE
  8
0
 10
-242.474991
 20
-34.647911
 11
-240.974991
 21
-34.647911
  0
LINE
  8
0
 10
-243.974976
 20
-33.576416
 11
-240.974991
 21
-33.576416
  0
LINE
  8
0
 10
-243.974976
 20
-26.505344
 11
-240.974991
 21
-26.505344
  0
LINE
  8
0
 10
-243.974976
 20
-36.653114
 11
-243.974976
 21
-26.505344
  0
LINE
  8
0
 10
-242.474976
 20
-35.505829
 11
-242.474976
 21
-34.647911
  0
LINE
  8
0
 10
-240.974991
 20
-37.713776
 11
-240.974991
 21
-33.576416
  0
LINE
  8
0
 10
-236.974991
 20
-37.713776
 11
-236.974991
 21
-33.576416
  0
LINE
  8
0
 10
-236.974991
 20
-34.647911
 11
-236.024994
 21
-34.647911
  0
LINE
  8
0
 10
-240.974991
 20
-34.808731
 11
-236.974991
 21
-34.808731
  0
LINE
  8
0
 10
-240.974991
 20
-25.616339
 11
-236.974991
 21
-25.616339
  0
LINE
  8
0
 10
-236.974991
 20
-26.505344
 11
-231.024994
 21
-26.505344
  0
LINE
  8
0
 10
-236.974991
 20
-33.576416
 11
-230.474991
 21
-33.576416
  0
LINE
  8
0
 10
-240.974991
 20
-26.505344
 11
-240.974991
 21
-25.616339
  0
LINE
  8
0
 10
-236.974991
 20
-26.505344
 11
-236.974991
 21
-25.616339
  0
LINE
  8
0
 10
-240.974991
 20
-37.713776
 11
-236.974991
 21
-37.713776
  0
LINE
  8
0
 10
-243.974976
 20
-36.653114
 11
-240.974991
 21
-36.653114
  0
LINE
  8
0
 10
-243.974976
 20
-35.505829
 11
-240.974991
 21
-35.505829
  0
LINE
  8
0
 10
-236.974991
 20
-36.653114
 11
-236.675003
 21
-36.653114
  0
LINE
  8
0
 10
-236.974991
 20
-35.505829
 11
-236.675003
 21
-35.505829
  0
LINE
  8
0
 10
-236.674988
 20
-34.647911
 11
-236.674988
 21
-75.852089
  0
LINE
  8
0
 10
-230.474991
 20
-83.550003
 11
-225.974991
 21
-83.550003
  0
LINE
  8
0
 10
-230.474991
 20
-26.950005
 11
-225.974991
 21
-26.950005
  0
LINE
  8
0
 10
-225.974991
 20
-67.718544
 11
-193.974991
 21
-67.718544
  0
LINE
  8
0
 10
-225.974991
 20
-42.780998
 11
-193.974991
 21
-42.780998
  0
LINE
  8
0
 10
-230.474991
 20
-83.550003
 11
-230.474991
 21
-26.950005
  0
LINE
  8
0
 10
-225.974991
 20
-83.534271
 11
-225.974991
 21
-26.965729
  0
LINE
  8
0
 10
-193.974991
 20
-83.534271
 11
-193.974991
 21
-26.965731
  0
LINE
  8
0
 10
-190.474991
 20
-63.731541
 11
-190.474991
 21
-56.807556
  0
LINE
  8
0
 10
-185.474991
 20
-61.899746
 11
-185.474991
 21
-58.499744
  0
LINE
  8
0
 10
-193.974991
 20
-64.815735
 11
-190.824982
 21
-64.815735
  0
LINE
  8
0
 10
-193.974991
 20
-62.647339
 11
-190.824982
 21
-62.647339
  0
LINE
  8
0
 10
-193.974991
 20
-58.031349
 11
-190.824982
 21
-58.031349
  0
LINE
  8
0
 10
-193.974991
 20
-55.583755
 11
-190.824982
 21
-55.583755
  0
LINE
  8
0
 10
-193.974991
 20
-51.727539
 11
-190.824982
 21
-51.727539
  0
LINE
  8
0
 10
-193.974991
 20
-54.818123
 11
-190.824982
 21
-54.818123
  0
LINE
  8
0
 10
-193.974991
 20
-47.209671
 11
-190.824982
 21
-47.209671
  0
LINE
  8
0
 10
-193.974991
 20
-45.782379
 11
-190.824982
 21
-45.782379
  0
LINE
  8
0
 10
-190.474991
 20
-53.272839
 11
-190.474991
 21
-46.496029
  0
LINE
  8
0
 10
-185.474991
 20
-52.000256
 11
-185.474991
 21
-48.600254
  0
LINE
  8
0
 10
-179.974991
 20
-61.450005
 11
-179.974991
 21
-49.050007
  0
LINE
  8
0
 10
-190.474991
 20
-62.199745
 11
-185.774994
 21
-62.199745
  0
LINE
  8
0
 10
-190.474991
 20
-58.199745
 11
-185.774994
 21
-58.199745
  0
LINE
  8
0
 10
-190.474991
 20
-52.300255
 11
-185.774994
 21
-52.300255
  0
LINE
  8
0
 10
-190.474991
 20
-48.300255
 11
-185.774994
 21
-48.300255
  0
LINE
  8
0
 10
-185.774994
 20
-62.199749
 11
-185.774994
 21
-58.199749
  0
LINE
  8
0
 10
-185.774994
 20
-52.300259
 11
-185.774994
 21
-48.300259
  0
LINE
  8
0
 10
-190.474991
 20
-61.949745
 11
-185.524994
 21
-61.949745
  0
LINE
  8
0
 10
-190.474991
 20
-58.449745
 11
-185.524994
 21
-58.449745
  0
LINE
  8
0
 10
-190.474991
 20
-52.050255
 11
-185.524994
 21
-52.050255
  0
LINE
  8
0
 10
-190.474991
 20
-48.550255
 11
-185.524994
 21
-48.550255
  0
LINE
  8
0
 10
-190.474991
 20
-62.450001
 11
-180.974991
 21
-62.450001
  0
LINE
  8
0
 10
-190.474991
 20
-48.050003
 11
-180.974991
 21
-48.050003
  0
LINE
  8
0
 10
-225.974991
 20
-83.534271
 11
-193.974991
 21
-83.534271
  0
LINE
  8
0
 10
-225.974991
 20
-26.965729
 11
-193.974991
 21
-26.965729
  0
LINE
  8
0
 10
-193.274994
 20
-65.419029
 11
-193.274994
 21
-64.815735
  0
LINE
  8
0
 10
-192.875000
 20
-65.857246
 11
-192.875000
 21
-64.815735
  0
LINE
  8
0
 10
-191.424988
 20
-65.781441
 11
-191.424988
 21
-65.718559
  0
LINE
  8
0
 10
-193.274994
 20
-45.782383
 11
-193.274994
 21
-45.080978
  0
LINE
  8
0
 10
-192.875000
 20
-45.782383
 11
-192.875000
 21
-44.642761
  0
LINE
  8
0
 10
-191.424988
 20
-44.781445
 11
-191.424988
 21
-44.718563
  0
LINE
  8
0
 10
-193.686554
 20
-74.445694
 11
-193.974991
 21
-74.445694
  0
LINE
  8
0
 10
-193.686554
 20
-65.045692
 11
-193.974991
 21
-65.045692
  0
LINE
  8
0
 10
-193.686554
 20
-65.045692
 11
-193.686554
 21
-74.445694
  0
LINE
  8
0
 10
-193.686554
 20
-45.454311
 11
-193.974991
 21
-45.454311
  0
LINE
  8
0
 10
-193.686554
 20
-36.054314
 11
-193.974991
 21
-36.054314
  0
LINE
  8
0
 10
-193.686554
 20
-36.054314
 11
-193.686554
 21
-45.454315
  0
LINE
  8
0
 10
-236.024994
 20
-67.739891
 11
-236.024994
 21
-75.960106
  0
LINE
  8
0
 10
-235.724991
 20
-67.599998
 11
-235.724991
 21
-76.099998
  0
LINE
  8
0
 10
-235.724991
 20
-67.599998
 11
-231.024994
 21
-67.599998
  0
LINE
  8
0
 10
-235.724991
 20
-76.099998
 11
-231.024994
 21
-76.099998
  0
LINE
  8
0
 10
-236.024994
 20
-67.739891
 11
-235.724991
 21
-67.599998
  0
LINE
  8
0
 10
-236.024994
 20
-75.960129
 11
-235.724991
 21
-76.100021
  0
LINE
  8
0
 10
-235.724991
 20
-69.599998
 11
-233.354691
 21
-69.599998
  0
LINE
  8
0
 10
-235.724991
 20
-71.599998
 11
-234.509384
 21
-71.599998
  0
LINE
  8
0
 10
-236.024994
 20
-34.539894
 11
-236.024994
 21
-42.760109
  0
LINE
  8
0
 10
-235.724991
 20
-34.400002
 11
-235.724991
 21
-42.900002
  0
LINE
  8
0
 10
-235.724991
 20
-34.400002
 11
-231.024994
 21
-34.400002
  0
LINE
  8
0
 10
-235.724991
 20
-42.900002
 11
-231.024994
 21
-42.900002
  0
LINE
  8
0
 10
-236.024994
 20
-34.539879
 11
-235.724991
 21
-34.399986
  0
LINE
  8
0
 10
-236.024994
 20
-42.760094
 11
-235.724991
 21
-42.899990
  0
LINE
  8
0
 10
-235.724991
 20
-36.400002
 11
-233.354691
 21
-36.400002
  0
LINE
  8
0
 10
-235.724991
 20
-38.400002
 11
-234.509384
 21
-38.400002
  0
LINE
  8
0
 10
-185.774963
 20
-58.199726
 11
-185.474976
 21
-58.499725
  0
LINE
  8
0
 10
-185.774994
 20
-62.199738
 11
-185.474991
 21
-61.899738
  0
LINE
  8
0
 10
-185.774979
 20
-48.300243
 11
-185.474976
 21
-48.600243
  0
LINE
  8
0
 10
-185.774963
 20
-52.300274
 11
-185.474976
 21
-52.000275
  0
LINE
  8
0
 10
-230.474991
 20
-67.750000
 11
-225.974991
 21
-67.750000
  0
LINE
  8
0
 10
-230.474991
 20
-42.750000
 11
-225.974991
 21
-42.750000
  0
LINE
  8
0
 10
-231.024994
 20
-27.955881
 11
-231.024994
 21
-16.854324
  0
LINE
  8
0
 10
-223.024979
 20
-26.965729
 11
-223.024979
 21
-24.208237
  0
LINE
  8
0
 10
-216.024979
 20
-26.965729
 11
-216.024979
 21
-24.208235
  0
LINE
  8
0
 10
-209.024979
 20
-26.965729
 11
-209.024979
 21
-16.854324
  0
LINE
  8
0
 10
-223.024979
 20
-83.534271
 11
-223.024979
 21
-86.291992
  0
LINE
  8
0
 10
-231.024994
 20
-82.544350
 11
-231.024994
 21
-93.645905
  0
LINE
  8
0
 10
-216.024979
 20
-83.534271
 11
-216.024979
 21
-86.291992
  0
LINE
  8
0
 10
-209.024979
 20
-83.534271
 11
-209.024979
 21
-93.645905
  0
LINE
  8
0
 10
-182.524994
 20
-86.696159
 11
-182.524994
 21
-90.696159
  0
LINE
  8
0
 10
-182.524994
 20
-88.996155
 11
-179.524994
 21
-88.996155
  0
LINE
  8
0
 10
-182.524994
 20
-88.396164
 11
-179.524994
 21
-88.396164
  0
LINE
  8
0
 10
-182.524994
 20
-89.996155
 11
-179.524994
 21
-89.996155
  0
LINE
  8
0
 10
-182.524994
 20
-87.396164
 11
-179.524994
 21
-87.396164
  0
LINE
  8
0
 10
-179.524994
 20
-87.396164
 11
-179.524994
 21
-88.396164
  0
LINE
  8
0
 10
-179.524994
 20
-88.996155
 11
-179.524994
 21
-89.996155
  0
LINE
  8
0
 10
-179.524994
 20
-87.521164
 11
-178.024994
 21
-87.521164
  0
LINE
  8
0
 10
-179.524994
 20
-87.646164
 11
-178.024994
 21
-87.646164
  0
LINE
  8
0
 10
-179.524994
 20
-87.771164
 11
-178.024994
 21
-87.771164
  0
LINE
  8
0
 10
-179.524994
 20
-87.896164
 11
-178.024994
 21
-87.896164
  0
LINE
  8
0
 10
-179.524994
 20
-88.021164
 11
-178.024994
 21
-88.021164
  0
LINE
  8
0
 10
-179.524994
 20
-88.146164
 11
-178.024994
 21
-88.146164
  0
LINE
  8
0
 10
-179.524994
 20
-88.271164
 11
-178.024994
 21
-88.271164
  0
LINE
  8
0
 10
-179.524994
 20
-89.121155
 11
-178.024994
 21
-89.121155
  0
LINE
  8
0
 10
-179.524994
 20
-89.246155
 11
-178.024994
 21
-89.246155
  0
LINE
  8
0
 10
-179.524994
 20
-89.371155
 11
-178.024994
 21
-89.371155
  0
LINE
  8
0
 10
-179.524994
 20
-89.496155
 11
-178.024994
 21
-89.496155
  0
LINE
  8
0
 10
-179.524994
 20
-89.621155
 11
-178.024994
 21
-89.621155
  0
LINE
  8
0
 10
-179.524994
 20
-89.746155
 11
-178.024994
 21
-89.746155
  0
LINE
  8
0
 10
-179.524994
 20
-89.871155
 11
-178.024994
 21
-89.871155
  0
LINE
  8
0
 10
-182.524994
 20
-19.804070
 11
-182.524994
 21
-23.804070
  0
LINE
  8
0
 10
-182.524994
 20
-22.104069
 11
-179.524994
 21
-22.104069
  0
LINE
  8
0
 10
-182.524994
 20
-21.504070
 11
-179.524994
 21
-21.504070
  0
LINE
  8
0
 10
-182.524994
 20
-23.104069
 11
-179.524994
 21
-23.104069
  0
LINE
  8
0
 10
-182.524994
 20
-20.504070
 11
-179.524994
 21
-20.504070
  0
LINE
  8
0
 10
-179.524994
 20
-20.504070
 11
-179.524994
 21
-21.504070
  0
LINE
  8
0
 10
-179.524994
 20
-22.104069
 11
-179.524994
 21
-23.104069
  0
LINE
  8
0
 10
-179.524994
 20
-20.629070
 11
-178.024994
 21
-20.629070
  0
LINE
  8
0
 10
-179.524994
 20
-20.754070
 11
-178.024994
 21
-20.754070
  0
LINE
  8
0
 10
-179.524994
 20
-20.879070
 11
-178.024994
 21
-20.879070
  0
LINE
  8
0
 10
-179.524994
 20
-21.004070
 11
-178.024994
 21
-21.004070
  0
LINE
  8
0
 10
-179.524994
 20
-21.129070
 11
-178.024994
 21
-21.129070
  0
LINE
  8
0
 10
-179.524994
 20
-21.254070
 11
-178.024994
 21
-21.254070
  0
LINE
  8
0
 10
-179.524994
 20
-21.379070
 11
-178.024994
 21
-21.379070
  0
LINE
  8
0
 10
-179.524994
 20
-22.229069
 11
-178.024994
 21
-22.229069
  0
LINE
  8
0
 10
-179.524994
 20
-22.354069
 11
-178.024994
 21
-22.354069
  0
LINE
  8
0
 10
-179.524994
 20
-22.479069
 11
-178.024994
 21
-22.479069
  0
LINE
  8
0
 10
-179.524994
 20
-22.604069
 11
-178.024994
 21
-22.604069
  0
LINE
  8
0
 10
-179.524994
 20
-22.729069
 11
-178.024994
 21
-22.729069
  0
LINE
  8
0
 10
-179.524994
 20
-22.854069
 11
-178.024994
 21
-22.854069
  0
LINE
  8
0
 10
-179.524994
 20
-22.979069
 11
-178.024994
 21
-22.979069
  0
LINE
  8
0
 10
-231.024994
 20
-76.349998
 11
-231.024994
 21
-67.349998
  0
LINE
  8
0
 10
-231.024994
 20
-76.349998
 11
-230.474991
 21
-76.349998
  0
LINE
  8
0
 10
-231.024994
 20
-67.349998
 11
-230.474991
 21
-67.349998
  0
LINE
  8
0
 10
-231.024994
 20
-43.150002
 11
-230.474991
 21
-43.150002
  0
LINE
  8
0
 10
-231.024994
 20
-34.150002
 11
-230.474991
 21
-34.150002
  0
LINE
  8
0
 10
-231.024994
 20
-43.150002
 11
-231.024994
 21
-34.150002
  0
LINE
  8
0
 10
-245.674988
 20
-26.250000
 11
-245.674988
 21
-84.250000
  0
LINE
  8
0
 10
-245.675049
 20
-84.249954
 11
-243.974976
 21
-81.983200
  0
LINE
  8
0
 10
-245.675049
 20
-26.250042
 11
-243.974991
 21
-28.516794
  0
LINE
  8
0
 10
-242.674988
 20
-36.828148
 11
-242.674988
 21
-48.500000
  0
LINE
  8
0
 10
-242.674988
 20
-62.000000
 11
-242.674988
 21
-73.671852
  0
LINE
  8
0
 10
-241.674988
 20
-49.500000
 11
-236.674988
 21
-49.500000
  0
LINE
  8
0
 10
-241.674988
 20
-61.000000
 11
-236.674988
 21
-61.000000
  0
LINE
  8
0
 10
-231.024994
 20
-82.544350
 11
-230.474991
 21
-82.544350
  0
LINE
  8
0
 10
-231.024994
 20
-27.955881
 11
-230.474991
 21
-27.955881
  0
ARC
  8
0
 10
-223.224991
 20
-86.791992
 40
0.500000
 50
90.000000
 51
180.000000
  0
ARC
  8
0
 10
-215.824982
 20
-86.791992
 40
0.500000
 50
0.000000
 51
90.000000
  0
ARC
  8
0
 10
-215.024994
 20
-88.206207
 40
0.500000
 50
0.000000
 51
90.000000
  0
ARC
  8
0
 10
-224.024979
 20
-88.206207
 40
0.500000
 50
90.000000
 51
180.000000
  0
ARC
  8
0
 10
-224.024979
 20
-97.605705
 40
0.500000
 50
180.000000
 51
270.000000
  0
ARC
  8
0
 10
-215.024994
 20
-97.605705
 40
0.500000
 50
270.000000
 51
0.000000
  0
ARC
  8
0
 10
-215.824982
 20
-98.454231
 40
0.500000
 50
270.000000
 51
0.000000
  0
ARC
  8
0
 10
-223.224991
 20
-98.454231
 40
0.500000
 50
180.000000
 51
270.000000
  0
ARC
  8
0
 10
-215.824982
 20
-91.590256
 40
0.500000
 50
270.000000
 51
0.000000
  0
ARC
  8
0
 10
-223.224991
 20
-91.590263
 40
0.500000
 50
180.000000
 51
270.000000
  0
ARC
  8
0
 10
-223.224991
 20
-23.708237
 40
0.500000
 50
180.000000
 51
270.000000
  0
ARC
  8
0
 10
-215.824982
 20
-23.708235
 40
0.500000
 50
270.000000
 51
0.000000
  0
ARC
  8
0
 10
-215.024994
 20
-22.294022
 40
0.500000
 50
270.000000
 51
0.000000
  0
ARC
  8
0
 10
-224.024994
 20
-22.294025
 40
0.500000
 50
180.000000
 51
270.001740
  0
ARC
  8
0
 10
-224.024994
 20
-12.894531
 40
0.500000
 50
90.000000
 51
180.000000
  0
ARC
  8
0
 10
-215.024994
 20
-12.894531
 40
0.500000
 50
0.000000
 51
90.000000
  0
ARC
  8
0
 10
-215.824982
 20
-12.045998
 40
0.500000
 50
0.000000
 51
90.000000
  0
ARC
  8
0
 10
-223.224991
 20
-12.045998
 40
0.500000
 50
90.000000
 51
180.000000
  0
ARC
  8
0
 10
-215.824982
 20
-18.909969
 40
0.500000
 50
0.000000
 51
90.000000
  0
ARC
  8
0
 10
-223.224991
 20
-18.909973
 40
0.500000
 50
90.000000
 51
180.000000
  0
CIRCLE
  8
0
 10
-219.974991
 20
-55.249992
 40
1.800000
  0
ARC
  8
0
 10
-192.329254
 20
-63.731541
 40
1.854256
 50
324.217804
 51
35.782295
  0
ARC
  8
0
 10
-198.259750
 20
-60.339348
 40
7.784755
 50
342.753906
 51
17.246048
  0
ARC
  8
0
 10
-192.789520
 20
-56.807556
 40
2.314539
 50
328.079407
 51
31.920580
  0
ARC
  8
0
 10
-194.061295
 20
-53.272839
 40
3.586298
 50
334.476166
 51
25.523735
  0
ARC
  8
0
 10
-197.939667
 20
-49.468609
 40
7.464671
 50
342.385162
 51
17.614836
  0
ARC
  8
0
 10
-191.377548
 20
-46.496029
 40
0.902554
 50
307.749390
 51
52.249859
  0
ARC
  8
0
 10
-180.974991
 20
-61.450005
 40
1.000000
 50
270.000000
 51
0.000000
  0
ARC
  8
0
 10
-180.974991
 20
-49.050007
 40
1.000000
 50
0.000000
 51
90.000000
  0
ARC
  8
0
 10
-194.424988
 20
-65.781441
 40
3.000006
 50
326.386139
 51
359.999847
  0
ARC
  8
0
 10
-194.424988
 20
-65.718559
 40
3.000000
 50
359.999847
 51
17.514137
  0
ARC
  8
0
 10
-194.424988
 20
-44.781445
 40
2.999999
 50
340.509766
 51
0.000000
  0
ARC
  8
0
 10
-194.424988
 20
-44.718563
 40
3.000000
 50
0.000000
 51
33.613789
  0
ARC
  8
0
 10
-197.574982
 20
-69.745689
 40
6.100003
 50
309.601898
 51
50.398018
  0
ARC
  8
0
 10
-197.574982
 20
-40.754314
 40
6.099997
 50
309.601929
 51
50.398064
  0
ARC
  8
0
 10
-241.674988
 20
-48.500000
 40
1.000000
 50
180.000000
 51
270.000000
  0
ARC
  8
0
 10
-241.674988
 20
-62.000000
 40
1.000000
 50
90.000000
 51
180.000000
  0
ARC
  8
0
 10
-220.071732
 20
-83.249725
 40
0.965201
 50
197.152481
 51
231.388992
  0
ARC
  8
0
 10
-219.524979
 20
-82.450920
 40
1.931886
 50
233.502457
 51
306.497528
  0
ARC
  8
0
 10
-218.978226
 20
-83.249725
 40
0.965195
 50
308.610992
 51
342.846405
  0
ARC
  8
0
 10
-239.794693
 20
-80.459122
 40
2.130295
 50
176.237045
 51
191.773209
  0
ARC
  8
0
 10
-239.577133
 20
-80.392654
 40
2.356930
 50
192.275894
 51
225.305573
  0
ARC
  8
0
 10
-238.974991
 20
-79.659554
 40
3.302724
 50
226.824829
 51
313.174988
  0
ARC
  8
0
 10
-238.372849
 20
-80.392654
 40
2.356934
 50
314.694183
 51
347.723724
  0
ARC
  8
0
 10
-238.155289
 20
-80.459122
 40
2.130298
 50
348.226379
 51
356.237244
  0
ARC
  8
0
 10
-227.306305
 20
-90.817474
 40
0.425080
 50
345.893921
 51
14.107077
  0
ARC
  8
0
 10
-227.417435
 20
-90.858208
 40
0.542930
 50
15.417746
 51
51.388477
  0
ARC
  8
0
 10
-227.724976
 20
-91.307541
 40
1.086690
 50
53.502678
 51
126.497559
  0
ARC
  8
0
 10
-228.032516
 20
-90.858215
 40
0.542927
 50
128.611526
 51
164.582260
  0
ARC
  8
0
 10
-228.143646
 20
-90.817474
 40
0.425080
 50
165.893921
 51
194.107071
  0
ARC
  8
0
 10
-228.032516
 20
-90.776741
 40
0.542930
 50
195.417740
 51
231.388474
  0
ARC
  8
0
 10
-227.724976
 20
-90.327408
 40
1.086690
 50
233.502686
 51
306.497559
  0
ARC
  8
0
 10
-227.417435
 20
-90.776733
 40
0.542927
 50
308.611511
 51
344.582245
  0
ARC
  8
0
 10
-237.511200
 20
-80.459122
 40
1.486211
 50
354.668640
 51
14.106581
  0
ARC
  8
0
 10
-237.899734
 20
-80.601555
 40
1.898239
 50
15.417928
 51
51.388382
  0
ARC
  8
0
 10
-238.974991
 20
-82.172501
 40
3.799348
 50
53.502098
 51
126.497902
  0
ARC
  8
0
 10
-240.050247
 20
-80.601555
 40
1.898234
 50
128.611618
 51
164.582291
  0
ARC
  8
0
 10
-240.438782
 20
-80.459122
 40
1.486207
 50
165.893707
 51
185.354126
  0
ARC
  8
0
 10
-238.975006
 20
-77.057602
 40
4.532875
 50
245.098007
 51
294.888367
  0
ARC
  8
0
 10
-226.980667
 20
-90.817474
 40
0.755698
 50
345.893616
 51
14.106391
  0
ARC
  8
0
 10
-227.178223
 20
-90.889900
 40
0.965201
 50
15.417976
 51
51.388996
  0
ARC
  8
0
 10
-227.724976
 20
-91.688698
 40
1.931880
 50
53.502323
 51
126.497673
  0
ARC
  8
0
 10
-228.271729
 20
-90.889900
 40
0.965195
 50
128.611008
 51
164.582031
  0
ARC
  8
0
 10
-228.469284
 20
-90.817474
 40
0.755698
 50
165.893616
 51
194.106384
  0
ARC
  8
0
 10
-228.271729
 20
-90.745049
 40
0.965201
 50
195.417969
 51
231.388992
  0
ARC
  8
0
 10
-227.724976
 20
-89.946251
 40
1.931880
 50
233.502319
 51
306.497681
  0
ARC
  8
0
 10
-227.178223
 20
-90.745049
 40
0.965195
 50
308.610992
 51
344.582031
  0
ARC
  8
0
 10
-220.344681
 20
-95.484383
 40
2.130295
 50
176.237045
 51
191.773209
  0
ARC
  8
0
 10
-220.127121
 20
-95.417915
 40
2.356930
 50
192.275894
 51
225.305573
  0
ARC
  8
0
 10
-219.524979
 20
-94.684814
 40
3.302724
 50
226.824829
 51
313.174988
  0
ARC
  8
0
 10
-218.922836
 20
-95.417915
 40
2.356934
 50
314.694183
 51
347.723724
  0
ARC
  8
0
 10
-218.705276
 20
-95.484383
 40
2.130298
 50
348.226379
 51
356.237030
  0
ARC
  8
0
 10
-218.061188
 20
-95.484390
 40
1.486211
 50
354.668945
 51
14.106581
  0
ARC
  8
0
 10
-218.449722
 20
-95.626823
 40
1.898239
 50
15.417928
 51
51.388382
  0
ARC
  8
0
 10
-219.524979
 20
-97.197769
 40
3.799348
 50
53.502098
 51
126.497902
  0
ARC
  8
0
 10
-220.600235
 20
-95.626823
 40
1.898234
 50
128.611618
 51
164.582291
  0
ARC
  8
0
 10
-220.988770
 20
-95.484390
 40
1.486207
 50
165.893707
 51
185.354126
  0
ARC
  8
0
 10
-219.524994
 20
-92.082870
 40
4.532875
 50
245.098007
 51
294.888367
  0
ARC
  8
0
 10
-218.780685
 20
-27.178078
 40
0.755692
 50
0.000145
 51
14.106391
  0
ARC
  8
0
 10
-218.978241
 20
-27.250504
 40
0.965201
 50
15.417976
 51
51.388996
  0
ARC
  8
0
 10
-219.524994
 20
-28.049307
 40
1.931884
 50
53.502426
 51
126.497643
  0
ARC
  8
0
 10
-220.071747
 20
-27.250505
 40
0.965193
 50
128.611069
 51
164.582138
  0
ARC
  8
0
 10
-220.269302
 20
-27.178082
 40
0.755698
 50
165.893616
 51
180.000000
  0
ARC
  8
0
 10
-238.155289
 20
-30.040880
 40
2.130295
 50
3.762906
 51
11.773512
  0
ARC
  8
0
 10
-238.372849
 20
-30.107349
 40
2.356933
 50
12.276217
 51
45.305767
  0
ARC
  8
0
 10
-238.974991
 20
-30.840450
 40
3.302732
 50
46.824963
 51
133.175125
  0
ARC
  8
0
 10
-239.577133
 20
-30.107351
 40
2.356927
 50
134.694336
 51
167.724014
  0
ARC
  8
0
 10
-239.794693
 20
-30.040884
 40
2.130296
 50
168.226685
 51
183.762848
  0
ARC
  8
0
 10
-240.438782
 20
-30.040882
 40
1.486205
 50
174.645874
 51
194.106445
  0
ARC
  8
0
 10
-240.050247
 20
-29.898449
 40
1.898238
 50
195.417816
 51
231.388351
  0
ARC
  8
0
 10
-238.974991
 20
-28.327503
 40
3.799346
 50
233.502075
 51
306.497894
  0
ARC
  8
0
 10
-237.899734
 20
-29.898449
 40
1.898234
 50
308.611603
 51
344.582184
  0
ARC
  8
0
 10
-237.511200
 20
-30.040882
 40
1.486208
 50
345.893555
 51
5.331281
  0
ARC
  8
0
 10
-238.975021
 20
-33.442390
 40
4.532874
 50
65.111610
 51
114.901985
  0
ARC
  8
0
 10
-226.980667
 20
-19.682755
 40
0.755699
 50
345.893463
 51
14.106391
  0
ARC
  8
0
 10
-227.178223
 20
-19.755178
 40
0.965201
 50
15.417867
 51
51.388924
  0
ARC
  8
0
 10
-227.724976
 20
-20.553978
 40
1.931880
 50
53.502323
 51
126.497643
  0
ARC
  8
0
 10
-228.271729
 20
-19.755178
 40
0.965195
 50
128.611008
 51
164.582031
  0
ARC
  8
0
 10
-228.469284
 20
-19.682755
 40
0.755699
 50
165.893463
 51
194.106384
  0
ARC
  8
0
 10
-228.271729
 20
-19.610331
 40
0.965201
 50
195.417862
 51
231.388931
  0
ARC
  8
0
 10
-227.724976
 20
-18.811531
 40
1.931880
 50
233.502319
 51
306.497650
  0
ARC
  8
0
 10
-227.178223
 20
-19.610331
 40
0.965195
 50
308.610992
 51
344.582031
  0
ARC
  8
0
 10
-227.306305
 20
-19.682758
 40
0.425081
 50
345.893158
 51
14.106079
  0
ARC
  8
0
 10
-227.417435
 20
-19.723495
 40
0.542929
 50
15.417357
 51
51.388226
  0
ARC
  8
0
 10
-227.724976
 20
-20.172817
 40
1.086678
 50
53.502201
 51
126.497444
  0
ARC
  8
0
 10
-228.032516
 20
-19.723492
 40
0.542930
 50
128.611267
 51
164.581665
  0
ARC
  8
0
 10
-228.143646
 20
-19.682751
 40
0.425081
 50
165.893173
 51
194.106079
  0
ARC
  8
0
 10
-228.032516
 20
-19.642014
 40
0.542929
 50
195.417358
 51
231.388229
  0
ARC
  8
0
 10
-227.724976
 20
-19.192692
 40
1.086678
 50
233.502197
 51
306.497437
  0
ARC
  8
0
 10
-227.417435
 20
-19.642017
 40
0.542930
 50
308.611267
 51
344.581665
  0
ARC
  8
0
 10
-219.524994
 20
-18.417353
 40
4.532874
 50
65.111610
 51
114.902191
  0
ARC
  8
0
 10
-220.988770
 20
-15.015850
 40
1.486205
 50
174.645844
 51
194.106400
  0
ARC
  8
0
 10
-220.600235
 20
-14.873417
 40
1.898238
 50
195.417786
 51
231.388351
  0
ARC
  8
0
 10
-219.524979
 20
-13.302471
 40
3.799346
 50
233.502075
 51
306.497894
  0
ARC
  8
0
 10
-218.449722
 20
-14.873418
 40
1.898233
 50
308.611633
 51
344.582184
  0
ARC
  8
0
 10
-218.061188
 20
-15.015850
 40
1.486208
 50
345.893524
 51
5.331355
  0
ARC
  8
0
 10
-218.705276
 20
-15.015844
 40
2.130295
 50
3.762932
 51
11.773487
  0
ARC
  8
0
 10
-218.922836
 20
-15.082314
 40
2.356933
 50
12.276195
 51
45.305767
  0
ARC
  8
0
 10
-219.524979
 20
-15.815413
 40
3.302732
 50
46.824955
 51
133.175140
  0
ARC
  8
0
 10
-220.127121
 20
-15.082315
 40
2.356927
 50
134.694336
 51
167.723984
  0
ARC
  8
0
 10
-220.344681
 20
-15.015848
 40
2.130296
 50
168.226669
 51
183.762833
  0
ARC
  8
0
 10
-221.382065
 20
-78.938080
 40
0.907122
 50
345.895721
 51
14.104265
  0
ARC
  8
0
 10
-221.619064
 20
-79.024948
 40
1.158449
 50
15.414836
 51
51.383331
  0
ARC
  8
0
 10
-222.274948
 20
-79.983047
 40
2.317961
 50
53.496941
 51
126.503059
  0
ARC
  8
0
 10
-222.930832
 20
-79.024948
 40
1.158442
 50
128.616669
 51
164.585159
  0
ARC
  8
0
 10
-223.167831
 20
-78.938080
 40
0.907122
 50
165.895737
 51
194.104263
  0
ARC
  8
0
 10
-222.930832
 20
-78.851212
 40
1.158449
 50
195.414841
 51
231.383331
  0
ARC
  8
0
 10
-222.274948
 20
-77.893112
 40
2.317961
 50
233.496933
 51
306.503052
  0
ARC
  8
0
 10
-221.619064
 20
-78.851212
 40
1.158442
 50
308.616669
 51
344.585175
  0
ARC
  8
0
 10
-223.167877
 20
-31.561905
 40
0.907122
 50
165.895737
 51
194.104141
  0
ARC
  8
0
 10
-222.930878
 20
-31.475037
 40
1.158448
 50
195.414749
 51
231.383209
  0
ARC
  8
0
 10
-222.274994
 20
-30.516933
 40
2.317961
 50
233.496933
 51
306.502991
  0
ARC
  8
0
 10
-221.619110
 20
-31.475037
 40
1.158442
 50
308.616669
 51
344.585175
  0
ARC
  8
0
 10
-221.382111
 20
-31.561905
 40
0.907122
 50
345.895721
 51
14.104148
  0
ARC
  8
0
 10
-221.619110
 20
-31.648773
 40
1.158448
 50
15.414745
 51
51.383270
  0
ARC
  8
0
 10
-222.274994
 20
-32.606876
 40
2.317963
 50
53.496967
 51
126.503029
  0
ARC
  8
0
 10
-222.930878
 20
-31.648773
 40
1.158441
 50
128.616730
 51
164.585159
  0
POLYLINE
  8
0
 66
     1
  0
VERTEX
  8
0
 10
-242.674988
 20
-62.000000
  0
VERTEX
  8
0
 10
-242.625122
 20
-61.500210
  0
VERTEX
  8
0
 10
-242.674988
 20
-61.000000
  0
VERTEX
  8
0
 10
-242.816956
 20
-60.541962
  0
VERTEX
  8
0
 10
-243.080490
 20
-60.098488
  0
VERTEX
  8
0
 10
-243.548965
 20
-59.584518
  0
VERTEX
  8
0
 10
-243.965302
 20
-59.137802
  0
VERTEX
  8
0
 10
-244.102661
 20
-58.942001
  0
VERTEX
  8
0
 10
-244.288345
 20
-58.583336
  0
VERTEX
  8
0
 10
-244.679764
 20
-57.666790
  0
VERTEX
  8
0
 10
-244.947189
 20
-56.765152
  0
VERTEX
  8
0
 10
-245.064056
 20
-56.012894
  0
VERTEX
  8
0
 10
-245.100418
 20
-55.250000
  0
VERTEX
  8
0
 10
-245.069489
 20
-54.512184
  0
VERTEX
  8
0
 10
-244.947189
 20
-53.734848
  0
VERTEX
  8
0
 10
-244.638367
 20
-52.735172
  0
VERTEX
  8
0
 10
-244.288345
 20
-51.916664
  0
VERTEX
  8
0
 10
-244.163239
 20
-51.664082
  0
VERTEX
  8
0
 10
-243.965302
 20
-51.362198
  0
VERTEX
  8
0
 10
-243.512421
 20
-50.866463
  0
VERTEX
  8
0
 10
-243.080490
 20
-50.401512
  0
VERTEX
  8
0
 10
-242.829041
 20
-49.974644
  0
VERTEX
  8
0
 10
-242.674988
 20
-49.500000
  0
VERTEX
  8
0
 10
-242.624969
 20
-48.999081
  0
VERTEX
  8
0
 10
-242.674988
 20
-48.500000
  0
SEQEND
  0
POLYLINE
  8
0
 66
     1
  0
VERTEX
  8
0
 10
-243.974945
 20
-30.126469
  0
VERTEX
  8
0
 10
-244.566727
 20
-30.407135
  0
VERTEX
  8
0
 10
-245.092743
 20
-31.019943
  0
VERTEX
  8
0
 10
-245.205048
 20
-31.821453
  0
VERTEX
  8
0
 10
-244.926926
 20
-32.754875
  0
VERTEX
  8
0
 10
-244.452164
 20
-33.682140
  0
VERTEX
  8
0
 10
-243.974503
 20
-34.465183
  0
SEQEND
  0
POLYLINE
  8
0
 66
     1
  0
VERTEX
  8
0
 10
-243.974152
 20
-76.034264
  0
VERTEX
  8
0
 10
-244.491180
 20
-76.953384
  0
VERTEX
  8
0
 10
-244.924210
 20
-77.935226
  0
VERTEX
  8
0
 10
-245.161850
 20
-78.828033
  0
VERTEX
  8
0
 10
-245.092743
 20
-79.480049
  0
VERTEX
  8
0
 10
-244.601105
 20
-79.998650
  0
VERTEX
  8
0
 10
-243.974945
 20
-80.373528
  0
SEQEND
  0
POINT
  8
0
 10
-207.174988
 20
-155.250000
  0
POINT
  8
0
 10
-231.674988
 20
-155.250000
  0
LINE
  8
0
 10
-230.474991
 20
-189.750000
 11
-230.474991
 21
-134.647919
  0
LINE
  8
0
 10
-236.674988
 20
-189.750000
 11
-236.674988
 21
-134.647919
  0
LINE
  8
0
 10
-236.674988
 20
-120.750000
 11
-231.024994
 21
-120.750000
  0
LINE
  8
0
 10
-236.675003
 20
-189.750000
 11
-230.475006
 21
-189.750000
  0
LINE
  8
0
 10
-223.224991
 20
-119.824188
 11
-215.824982
 21
-119.824188
  0
LINE
  8
0
 10
-224.024979
 20
-117.844284
 11
-215.024994
 21
-117.844284
  0
LINE
  8
0
 10
-224.024979
 20
-112.394531
 11
-215.024994
 21
-112.394531
  0
LINE
  8
0
 10
-223.224991
 20
-111.546005
 11
-215.824982
 21
-111.546005
  0
LINE
  8
0
 10
-223.224991
 20
-124.208237
 11
-215.824982
 21
-124.208237
  0
LINE
  8
0
 10
-215.324982
 20
-123.708244
 11
-215.324982
 21
-118.909981
  0
LINE
  8
0
 10
-214.524994
 20
-122.294037
 11
-214.524994
 21
-112.894531
  0
LINE
  8
0
 10
-223.724991
 20
-123.708237
 11
-223.724991
 21
-118.909973
  0
LINE
  8
0
 10
-224.524979
 20
-122.294029
 11
-224.524979
 21
-112.894531
  0
LINE
  8
0
 10
-223.224991
 20
-118.409973
 11
-215.824982
 21
-118.409973
  0
LINE
  8
0
 10
-225.024994
 20
-122.794029
 11
-223.724991
 21
-122.794029
  0
LINE
  8
0
 10
-223.724991
 20
-112.394531
 11
-223.724991
 21
-112.046005
  0
LINE
  8
0
 10
-215.324982
 20
-112.394531
 11
-215.324982
 21
-112.046005
  0
LINE
  8
0
 10
-215.324982
 20
-122.794029
 11
-214.024979
 21
-122.794029
  0
LINE
  8
0
 10
-231.024994
 20
-122.511185
 11
-225.024994
 21
-122.511185
  0
LINE
  8
0
 10
-214.024979
 20
-122.794029
 11
-214.024979
 21
-116.854332
  0
LINE
  8
0
 10
-225.024994
 20
-122.794029
 11
-225.024994
 21
-116.854332
  0
LINE
  8
0
 10
-216.024979
 20
-130.006516
 11
-216.024979
 21
-124.208244
  0
LINE
  8
0
 10
-223.024979
 20
-130.006516
 11
-223.024979
 21
-124.208237
  0
LINE
  8
0
 10
-214.024979
 20
-122.511185
 11
-209.024979
 21
-122.511185
  0
LINE
  8
0
 10
-218.024933
 20
-127.178093
 11
-218.024933
 21
-130.006516
  0
LINE
  8
0
 10
-221.024994
 20
-127.178085
 11
-221.024994
 21
-130.006516
  0
LINE
  8
0
 10
-223.024979
 20
-130.006516
 11
-221.024994
 21
-130.006516
  0
LINE
  8
0
 10
-218.024979
 20
-130.006516
 11
-216.024979
 21
-130.006516
  0
LINE
  8
0
 10
-209.024979
 20
-127.955910
 11
-209.024979
 21
-116.854324
  0
LINE
  8
0
 10
-227.474991
 20
-135.718781
 11
-227.474991
 21
-129.087296
  0
LINE
  8
0
 10
-231.024994
 20
-116.854332
 11
-225.024994
 21
-116.854332
  0
LINE
  8
0
 10
-225.024994
 20
-117.137177
 11
-224.524979
 21
-117.137177
  0
LINE
  8
0
 10
-214.524994
 20
-117.137177
 11
-214.024979
 21
-117.137177
  0
LINE
  8
0
 10
-214.024979
 20
-116.854332
 11
-209.024979
 21
-116.854332
  0
LINE
  8
0
 10
-231.024994
 20
-127.955910
 11
-223.024979
 21
-127.955910
  0
LINE
  8
0
 10
-221.024994
 20
-128.380173
 11
-218.024933
 21
-128.380173
  0
LINE
  8
0
 10
-221.024994
 20
-129.440826
 11
-218.024933
 21
-129.440826
  0
LINE
  8
0
 10
-221.024994
 20
-127.955910
 11
-218.024933
 21
-127.955910
  0
LINE
  8
0
 10
-216.024979
 20
-127.955910
 11
-209.024979
 21
-127.955910
  0
LINE
  8
0
 10
-216.024979
 20
-128.380173
 11
-209.174988
 21
-128.380173
  0
LINE
  8
0
 10
-216.024979
 20
-129.440826
 11
-209.174988
 21
-129.440826
  0
LINE
  8
0
 10
-227.474976
 20
-129.087311
 11
-226.474991
 21
-128.380203
  0
LINE
  8
0
 10
-227.474991
 20
-130.147934
 11
-226.474991
 21
-129.440842
  0
LINE
  8
0
 10
-228.974991
 20
-129.087296
 11
-227.474991
 21
-129.087296
  0
LINE
  8
0
 10
-207.024994
 20
-124.304077
 11
-207.024994
 21
-119.304077
  0
LINE
  8
0
 10
-209.024979
 20
-124.304077
 11
-207.024994
 21
-124.304077
  0
LINE
  8
0
 10
-207.024994
 20
-123.804077
 11
-182.524994
 21
-123.804077
  0
LINE
  8
0
 10
-207.024994
 20
-119.804077
 11
-182.524994
 21
-119.804077
  0
LINE
  8
0
 10
-209.024979
 20
-119.304077
 11
-207.024994
 21
-119.304077
  0
LINE
  8
0
 10
-242.474976
 20
-134.647919
 11
-240.974991
 21
-134.647919
  0
LINE
  8
0
 10
-243.974976
 20
-133.576416
 11
-240.974991
 21
-133.576416
  0
LINE
  8
0
 10
-243.974976
 20
-126.505341
 11
-240.974991
 21
-126.505341
  0
LINE
  8
0
 10
-243.974976
 20
-136.653122
 11
-243.974976
 21
-126.505341
  0
LINE
  8
0
 10
-242.474976
 20
-135.505829
 11
-242.474976
 21
-134.647919
  0
LINE
  8
0
 10
-240.974991
 20
-137.713776
 11
-240.974991
 21
-133.576416
  0
LINE
  8
0
 10
-236.974991
 20
-137.713776
 11
-236.974991
 21
-133.576416
  0
LINE
  8
0
 10
-236.974991
 20
-134.647919
 11
-230.474991
 21
-134.647919
  0
LINE
  8
0
 10
-240.974991
 20
-134.808731
 11
-236.974991
 21
-134.808731
  0
LINE
  8
0
 10
-240.974991
 20
-125.616341
 11
-236.974991
 21
-125.616341
  0
LINE
  8
0
 10
-236.974991
 20
-126.505341
 11
-231.024994
 21
-126.505341
  0
LINE
  8
0
 10
-236.974991
 20
-133.576416
 11
-228.974991
 21
-133.576416
  0
LINE
  8
0
 10
-240.974991
 20
-126.505341
 11
-240.974991
 21
-125.616341
  0
LINE
  8
0
 10
-236.974991
 20
-126.505341
 11
-236.974991
 21
-125.616341
  0
LINE
  8
0
 10
-236.674988
 20
-126.505341
 11
-236.674988
 21
-120.750000
  0
LINE
  8
0
 10
-240.974991
 20
-137.713776
 11
-236.974991
 21
-137.713776
  0
LINE
  8
0
 10
-243.974976
 20
-136.653122
 11
-240.974991
 21
-136.653122
  0
LINE
  8
0
 10
-243.974976
 20
-135.505829
 11
-240.974991
 21
-135.505829
  0
LINE
  8
0
 10
-236.974991
 20
-136.653122
 11
-236.674988
 21
-136.653122
  0
LINE
  8
0
 10
-236.974991
 20
-135.505829
 11
-236.674988
 21
-135.505829
  0
LINE
  8
0
 10
-228.974991
 20
-127.955910
 11
-228.974991
 21
-135.718781
  0
LINE
  8
0
 10
-225.974991
 20
-101.244995
 11
-225.974991
 21
-116.854332
  0
LINE
  8
0
 10
-224.474991
 20
-138.249680
 11
-215.174988
 21
-138.249680
  0
LINE
  8
0
 10
-225.974991
 20
-101.249680
 11
-193.974991
 21
-101.249680
  0
LINE
  8
0
 10
-193.974991
 20
-101.255005
 11
-193.974991
 21
-119.804077
  0
LINE
  8
0
 10
-193.974991
 20
-108.037506
 11
-190.824982
 21
-108.037506
  0
LINE
  8
0
 10
-193.974991
 20
-108.198700
 11
-190.824982
 21
-108.198700
  0
LINE
  8
0
 10
-193.974991
 20
-116.193817
 11
-190.824982
 21
-116.193817
  0
LINE
  8
0
 10
-193.974991
 20
-112.276855
 11
-190.824982
 21
-112.276855
  0
LINE
  8
0
 10
-190.474991
 20
-108.118103
 11
-190.474991
 21
-114.235336
  0
LINE
  8
0
 10
-185.474991
 20
-110.415665
 11
-185.474991
 21
-113.815659
  0
LINE
  8
0
 10
-190.474991
 20
-110.115662
 11
-185.774994
 21
-110.115662
  0
LINE
  8
0
 10
-190.474991
 20
-114.115662
 11
-185.774994
 21
-114.115662
  0
LINE
  8
0
 10
-185.774994
 20
-110.115662
 11
-185.474991
 21
-110.415665
  0
LINE
  8
0
 10
-185.474991
 20
-113.815659
 11
-185.774994
 21
-114.115662
  0
LINE
  8
0
 10
-185.774994
 20
-110.115662
 11
-185.774994
 21
-114.115662
  0
LINE
  8
0
 10
-190.474991
 20
-110.365662
 11
-185.524994
 21
-110.365662
  0
LINE
  8
0
 10
-190.474991
 20
-113.865662
 11
-185.524994
 21
-113.865662
  0
LINE
  8
0
 10
-193.974991
 20
-136.286224
 11
-180.974991
 21
-136.286224
  0
LINE
  8
0
 10
-193.686554
 20
-126.361603
 11
-193.974991
 21
-126.361603
  0
LINE
  8
0
 10
-193.686554
 20
-116.961609
 11
-193.974991
 21
-116.961609
  0
LINE
  8
0
 10
-193.686554
 20
-116.961609
 11
-193.686554
 21
-119.804077
  0
LINE
  8
0
 10
-193.274994
 20
-132.586227
 11
-193.274994
 21
-125.988266
  0
LINE
  8
0
 10
-192.875000
 20
-131.686218
 11
-192.875000
 21
-126.486221
  0
LINE
  8
0
 10
-191.424988
 20
-129.117661
 11
-191.424988
 21
-129.054779
  0
LINE
  8
0
 10
-192.875000
 20
-126.486221
 11
-193.274994
 21
-126.486221
  0
LINE
  8
0
 10
-192.875000
 20
-131.686218
 11
-193.274994
 21
-131.686218
  0
LINE
  8
0
 10
-193.274994
 20
-132.586227
 11
-193.974991
 21
-132.586227
  0
LINE
  8
0
 10
-230.474991
 20
-101.249680
 11
-225.974991
 21
-101.249680
  0
LINE
  8
0
 10
-230.474991
 20
-151.249680
 11
-225.974991
 21
-151.249680
  0
LINE
  8
0
 10
-236.024994
 20
-106.939575
 11
-236.024994
 21
-115.159790
  0
LINE
  8
0
 10
-235.724991
 20
-106.799683
 11
-235.724991
 21
-115.299683
  0
LINE
  8
0
 10
-235.724991
 20
-106.799683
 11
-231.024994
 21
-106.799683
  0
LINE
  8
0
 10
-235.724991
 20
-115.299683
 11
-231.024994
 21
-115.299683
  0
LINE
  8
0
 10
-236.025009
 20
-106.939560
 11
-235.725006
 21
-106.799667
  0
LINE
  8
0
 10
-236.024994
 20
-115.159790
 11
-235.724991
 21
-115.299683
  0
LINE
  8
0
 10
-235.724991
 20
-108.799683
 11
-233.354691
 21
-108.799683
  0
LINE
  8
0
 10
-235.724991
 20
-110.799683
 11
-234.509384
 21
-110.799683
  0
LINE
  8
0
 10
-207.174988
 20
-131.561920
 11
-207.174988
 21
-168.685028
  0
LINE
  8
0
 10
-215.174988
 20
-131.561920
 11
-215.174988
 21
-150.138840
  0
LINE
  8
0
 10
-225.174988
 20
-150.149994
 11
-225.174988
 21
-168.685028
  0
LINE
  8
0
 10
-214.174988
 20
-132.873016
 11
-208.174988
 21
-132.873016
  0
LINE
  8
0
 10
-225.174988
 20
-155.250000
 11
-207.174988
 21
-155.250000
  0
LINE
  8
0
 10
-225.174988
 20
-168.685028
 11
-207.174988
 21
-168.685028
  0
LINE
  8
0
 10
-215.174988
 20
-139.300903
 11
-207.174988
 21
-139.300903
  0
LINE
  8
0
 10
-225.174988
 20
-153.013000
 11
-218.174988
 21
-153.013000
  0
LINE
  8
0
  6
CENTER
 10
-221.974976
 20
-166.918564
 11
-214.108322
 21
-166.918564
  0
LINE
  8
0
  6
CENTER
 10
-218.168289
 20
-170.377991
 11
-218.168289
 21
-163.311325
  0
LINE
  8
0
 10
-204.995972
 20
-128.061920
 11
-205.974991
 21
-128.061920
  0
LINE
  8
0
 10
-204.995972
 20
-135.061920
 11
-205.974991
 21
-135.061920
  0
LINE
  8
0
 10
-205.974991
 20
-138.158112
 11
-207.174988
 21
-138.158112
  0
LINE
  8
0
 10
-215.674988
 20
-135.451019
 11
-224.374985
 21
-135.451019
  0
LINE
  8
0
 10
-216.874985
 20
-134.602478
 11
-223.174988
 21
-134.602478
  0
LINE
  8
0
 10
-207.774994
 20
-131.066956
 11
-215.674988
 21
-131.066956
  0
LINE
  8
0
 10
-193.686554
 20
-123.804077
 11
-193.686554
 21
-126.361603
  0
LINE
  8
0
 10
-193.974991
 20
-123.804077
 11
-193.974991
 21
-138.249680
  0
LINE
  8
0
 10
-224.374985
 20
-129.440826
 11
-224.374985
 21
-135.451019
  0
LINE
  8
0
 10
-223.174988
 20
-129.440826
 11
-223.174988
 21
-134.602478
  0
LINE
  8
0
 10
-216.874985
 20
-130.006516
 11
-216.874985
 21
-134.602478
  0
LINE
  8
0
 10
-205.974991
 20
-123.804077
 11
-205.974991
 21
-138.158112
  0
LINE
  8
0
 10
-207.174988
 20
-138.249680
 11
-193.974991
 21
-138.249680
  0
LINE
  8
0
 10
-225.974991
 20
-129.440826
 11
-225.974991
 21
-151.249680
  0
LINE
  8
0
 10
-209.024979
 20
-117.065414
 11
-193.974991
 21
-117.065414
  0
LINE
  8
0
 10
-179.974991
 20
-123.104080
 11
-179.974991
 21
-135.286224
  0
LINE
  8
0
 10
-182.524994
 20
-119.804077
 11
-182.524994
 21
-123.804077
  0
LINE
  8
0
 10
-182.524994
 20
-122.104080
 11
-179.524994
 21
-122.104080
  0
LINE
  8
0
 10
-182.524994
 20
-121.504074
 11
-179.524994
 21
-121.504074
  0
LINE
  8
0
 10
-182.524994
 20
-123.104080
 11
-179.524994
 21
-123.104080
  0
LINE
  8
0
 10
-182.524994
 20
-120.504074
 11
-179.524994
 21
-120.504074
  0
LINE
  8
0
 10
-179.524994
 20
-120.504074
 11
-179.524994
 21
-121.504074
  0
LINE
  8
0
 10
-179.524994
 20
-122.104080
 11
-179.524994
 21
-123.104080
  0
LINE
  8
0
 10
-179.524994
 20
-120.629074
 11
-178.024994
 21
-120.629074
  0
LINE
  8
0
 10
-179.524994
 20
-120.754074
 11
-178.024994
 21
-120.754074
  0
LINE
  8
0
 10
-179.524994
 20
-120.879074
 11
-178.024994
 21
-120.879074
  0
LINE
  8
0
 10
-179.524994
 20
-121.004074
 11
-178.024994
 21
-121.004074
  0
LINE
  8
0
 10
-179.524994
 20
-121.129074
 11
-178.024994
 21
-121.129074
  0
LINE
  8
0
 10
-179.524994
 20
-121.254074
 11
-178.024994
 21
-121.254074
  0
LINE
  8
0
 10
-179.524994
 20
-121.379074
 11
-178.024994
 21
-121.379074
  0
LINE
  8
0
 10
-179.524994
 20
-122.229080
 11
-178.024994
 21
-122.229080
  0
LINE
  8
0
 10
-179.524994
 20
-122.354080
 11
-178.024994
 21
-122.354080
  0
LINE
  8
0
 10
-179.524994
 20
-122.479080
 11
-178.024994
 21
-122.479080
  0
LINE
  8
0
 10
-179.524994
 20
-122.604080
 11
-178.024994
 21
-122.604080
  0
LINE
  8
0
 10
-179.524994
 20
-122.729080
 11
-178.024994
 21
-122.729080
  0
LINE
  8
0
 10
-179.524994
 20
-122.854080
 11
-178.024994
 21
-122.854080
  0
LINE
  8
0
 10
-179.524994
 20
-122.979080
 11
-178.024994
 21
-122.979080
  0
LINE
  8
0
 10
-231.024994
 20
-127.955910
 11
-231.024994
 21
-116.854332
  0
LINE
  8
0
 10
-230.474991
 20
-116.854332
 11
-230.474991
 21
-101.244995
  0
LINE
  8
0
 10
-205.974991
 20
-130.066956
 11
-224.374985
 21
-130.066956
  0
LINE
  8
0
 10
-231.024994
 20
-115.549683
 11
-231.024994
 21
-106.549683
  0
LINE
  8
0
 10
-231.024994
 20
-106.549683
 11
-230.474991
 21
-106.549683
  0
LINE
  8
0
 10
-231.024994
 20
-115.549683
 11
-230.474991
 21
-115.549683
  0
LINE
  8
0
 10
-224.474991
 20
-137.949997
 11
-224.474991
 21
-150.149994
  0
LINE
  8
0
 10
-218.474991
 20
-139.649994
 11
-218.474991
 21
-148.449997
  0
LINE
  8
0
 10
-219.074997
 20
-139.050003
 11
-219.074997
 21
-149.050003
  0
LINE
  8
0
 10
-224.474991
 20
-149.050003
 11
-219.074997
 21
-149.050003
  0
LINE
  8
0
 10
-224.474991
 20
-139.050003
 11
-219.074997
 21
-139.050003
  0
LINE
  8
0
 10
-225.974991
 20
-137.949997
 11
-224.474991
 21
-137.949997
  0
LINE
  8
0
 10
-225.974991
 20
-150.149994
 11
-224.474991
 21
-150.149994
  0
LINE
  8
0
 10
-218.474991
 20
-148.449997
 11
-219.074997
 21
-149.050003
  0
LINE
  8
0
 10
-219.074982
 20
-139.050003
 11
-218.474991
 21
-139.649994
  0
LINE
  8
0
 10
-225.974991
 20
-144.916031
 11
-224.474991
 21
-144.050003
  0
LINE
  8
0
 10
-225.974991
 20
-144.338669
 11
-224.474991
 21
-143.472656
  0
LINE
  8
0
 10
-215.174988
 20
-144.290009
 11
-207.174988
 21
-144.290009
  0
LINE
  8
0
 10
-245.674988
 20
-126.250000
 11
-245.674988
 21
-184.250000
  0
LINE
  8
0
 10
-245.112488
 20
-183.500000
 11
-236.674988
 21
-183.500000
  0
LINE
  8
0
 10
-242.674973
 20
-172.250000
 11
-236.674988
 21
-172.250000
  0
LINE
  8
0
 10
-242.674973
 20
-138.250000
 11
-236.674988
 21
-138.250000
  0
LINE
  8
0
 10
-245.112488
 20
-127.000000
 11
-243.974976
 21
-127.000000
  0
LINE
  8
0
 10
-245.675034
 20
-184.249969
 11
-242.675034
 21
-180.249969
  0
LINE
  8
0
 10
-245.675034
 20
-126.250038
 11
-243.974976
 21
-128.516785
  0
LINE
  8
0
 10
-242.674973
 20
-180.250000
 11
-242.674973
 21
-172.250000
  0
LINE
  8
0
 10
-242.674973
 20
-138.250000
 11
-242.674973
 21
-136.653122
  0
LINE
  8
0
 10
-242.674973
 20
-162.753418
 11
-242.674973
 21
-147.746582
  0
LINE
  8
0
 10
-209.174988
 20
-129.440826
 11
-209.174988
 21
-127.955910
  0
LINE
  8
0
 10
-182.524994
 20
-121.886223
 11
-180.974991
 21
-121.886223
  0
LINE
  8
0
 10
-223.024979
 20
-128.380173
 11
-226.474945
 21
-128.380173
  0
LINE
  8
0
 10
-223.024979
 20
-129.440826
 11
-226.474976
 21
-129.440826
  0
LINE
  8
0
 10
-215.674988
 20
-131.066956
 11
-215.674988
 21
-135.451019
  0
LINE
  8
0
 10
-226.474976
 20
-129.440826
 11
-226.474976
 21
-128.380173
  0
LINE
  8
0
 10
-225.674988
 20
-150.149994
 11
-225.674988
 21
-161.199997
  0
LINE
  8
0
 10
-229.174988
 20
-151.249664
 11
-229.174988
 21
-167.449997
  0
LINE
  8
0
 10
-230.475006
 20
-167.750000
 11
-229.475006
 21
-167.750000
  0
LINE
  8
0
 10
-229.474960
 20
-167.750015
 11
-229.174973
 21
-167.450027
  0
LINE
  8
0
 10
-229.174988
 20
-161.250000
 11
-225.725006
 21
-161.250000
  0
LINE
  8
0
 10
-225.674988
 20
-150.149994
 11
-225.674988
 21
-161.200012
  0
LINE
  8
0
 10
-225.674988
 20
-161.199997
 11
-225.174988
 21
-161.199997
  0
LINE
  8
0
 10
-225.725052
 20
-161.250015
 11
-225.675049
 21
-161.200012
  0
ARC
  8
0
 10
-223.224991
 20
-123.708237
 40
0.500000
 50
180.000000
 51
270.000000
  0
ARC
  8
0
 10
-215.824982
 20
-123.708244
 40
0.500000
 50
270.000000
 51
0.000000
  0
ARC
  8
0
 10
-215.024994
 20
-122.294037
 40
0.500000
 50
270.000000
 51
0.000000
  0
ARC
  8
0
 10
-224.024979
 20
-122.294029
 40
0.500000
 50
180.000000
 51
270.000000
  0
ARC
  8
0
 10
-224.024979
 20
-112.894531
 40
0.500000
 50
90.000000
 51
180.000000
  0
ARC
  8
0
 10
-215.024994
 20
-112.894531
 40
0.500000
 50
0.000000
 51
90.000000
  0
ARC
  8
0
 10
-215.824982
 20
-112.046005
 40
0.500000
 50
0.000000
 51
90.000000
  0
ARC
  8
0
 10
-223.224991
 20
-112.046005
 40
0.500000
 50
90.000000
 51
180.000000
  0
ARC
  8
0
 10
-215.824982
 20
-118.909981
 40
0.500000
 50
0.000000
 51
90.000000
  0
ARC
  8
0
 10
-223.224991
 20
-118.909973
 40
0.500000
 50
90.000000
 51
180.000000
  0
ARC
  8
0
 10
-228.974991
 20
-135.718781
 40
1.500000
 50
180.000000
 51
0.000000
  0
ARC
  8
0
 10
-196.129517
 20
-114.235336
 40
5.654532
 50
339.735413
 51
20.264589
  0
ARC
  8
0
 10
-196.589798
 20
-110.237778
 40
6.114813
 50
340.520752
 51
19.479303
  0
CIRCLE
  8
0
 10
-209.974991
 20
-127.259056
 40
0.010000
  0
CIRCLE
  8
0
 10
-218.248276
 20
-132.674774
 40
0.010000
  0
ARC
  8
0
 10
-180.974991
 20
-135.286224
 40
1.000000
 50
270.000000
 51
0.000000
  0
ARC
  8
0
 10
-197.574982
 20
-121.661606
 40
6.099997
 50
309.601929
 51
339.437714
  0
ARC
  8
0
 10
-194.424988
 20
-129.117661
 40
3.000000
 50
301.109009
 51
0.000000
  0
ARC
  8
0
 10
-194.424988
 20
-129.054779
 40
3.000000
 50
0.000000
 51
58.891006
  0
ARC
  8
0
 10
-208.174988
 20
-133.873016
 40
1.000000
 50
0.000000
 51
90.000000
  0
ARC
  8
0
 10
-214.174988
 20
-133.873016
 40
1.000000
 50
90.000000
 51
180.000000
  0
ARC
  8
0
 10
-212.374985
 20
-131.561920
 40
8.999998
 50
343.398468
 51
16.601540
  0
ARC
  8
0
 10
-204.995972
 20
-129.361923
 40
1.300010
 50
16.601463
 51
90.000000
  0
ARC
  8
0
 10
-204.995972
 20
-133.761917
 40
1.300003
 50
270.000000
 51
343.398529
  0
ARC
  8
0
 10
-214.574997
 20
-131.666946
 40
0.599991
 50
90.000000
 51
180.000000
  0
ARC
  8
0
 10
-207.774994
 20
-131.666946
 40
0.600006
 50
0.000000
 51
90.000000
  0
ARC
  8
0
 10
-197.574982
 20
-121.661606
 40
6.100002
 50
17.728853
 51
50.398064
  0
ARC
  8
0
 10
-180.974991
 20
-122.886223
 40
0.999996
 50
51.457478
 51
90.000000
  0
ARC
  8
0
 10
-218.780670
 20
-127.178085
 40
0.755692
 50
0.000000
 51
14.106391
  0
ARC
  8
0
 10
-218.978226
 20
-127.250511
 40
0.965201
 50
15.417976
 51
51.388996
  0
ARC
  8
0
 10
-219.524979
 20
-128.049316
 40
1.931886
 50
53.502457
 51
126.497543
  0
ARC
  8
0
 10
-220.071732
 20
-127.250511
 40
0.965195
 50
128.611008
 51
164.582031
  0
ARC
  8
0
 10
-220.269287
 20
-127.178085
 40
0.755698
 50
165.893616
 51
180.000000
  0
ARC
  8
0
 10
-238.155289
 20
-130.040878
 40
2.130294
 50
3.762753
 51
11.773612
  0
ARC
  8
0
 10
-238.372849
 20
-130.107346
 40
2.356934
 50
12.276262
 51
45.305832
  0
ARC
  8
0
 10
-238.974991
 20
-130.840439
 40
3.302730
 50
46.824921
 51
133.175262
  0
ARC
  8
0
 10
-239.577133
 20
-130.107346
 40
2.356923
 50
134.694427
 51
167.724106
  0
ARC
  8
0
 10
-239.794693
 20
-130.040878
 40
2.130295
 50
168.226791
 51
183.763168
  0
ARC
  8
0
 10
-227.306305
 20
-119.682762
 40
0.425082
 50
345.892914
 51
14.106079
  0
ARC
  8
0
 10
-227.417435
 20
-119.723503
 40
0.542930
 50
15.417746
 51
51.388477
  0
ARC
  8
0
 10
-227.724976
 20
-120.172829
 40
1.086684
 50
53.502438
 51
126.497322
  0
ARC
  8
0
 10
-228.032516
 20
-119.723495
 40
0.542927
 50
128.611526
 51
164.582260
  0
ARC
  8
0
 10
-228.143646
 20
-119.682762
 40
0.425082
 50
165.892929
 51
194.106079
  0
ARC
  8
0
 10
-228.032516
 20
-119.642021
 40
0.542930
 50
195.417740
 51
231.388474
  0
ARC
  8
0
 10
-227.724976
 20
-119.192696
 40
1.086684
 50
233.502441
 51
306.497314
  0
ARC
  8
0
 10
-227.417435
 20
-119.642029
 40
0.542927
 50
308.611511
 51
344.582245
  0
ARC
  8
0
 10
-240.438782
 20
-130.040878
 40
1.486205
 50
174.646164
 51
194.106583
  0
ARC
  8
0
 10
-240.050247
 20
-129.898453
 40
1.898237
 50
195.417709
 51
231.388245
  0
ARC
  8
0
 10
-238.974991
 20
-128.327499
 40
3.799348
 50
233.502106
 51
306.497894
  0
ARC
  8
0
 10
-237.899734
 20
-129.898453
 40
1.898228
 50
308.611755
 51
344.582306
  0
ARC
  8
0
 10
-237.511200
 20
-130.040878
 40
1.486209
 50
345.893433
 51
5.330769
  0
ARC
  8
0
 10
-238.975006
 20
-133.442398
 40
4.532878
 50
65.111641
 51
114.901993
  0
ARC
  8
0
 10
-226.980667
 20
-119.682762
 40
0.755698
 50
345.893616
 51
14.106391
  0
ARC
  8
0
 10
-227.178223
 20
-119.755188
 40
0.965201
 50
15.417976
 51
51.388996
  0
ARC
  8
0
 10
-227.724976
 20
-120.553986
 40
1.931880
 50
53.502323
 51
126.497673
  0
ARC
  8
0
 10
-228.271729
 20
-119.755188
 40
0.965195
 50
128.611008
 51
164.582031
  0
ARC
  8
0
 10
-228.469284
 20
-119.682762
 40
0.755698
 50
165.893616
 51
194.106384
  0
ARC
  8
0
 10
-228.271729
 20
-119.610336
 40
0.965201
 50
195.417969
 51
231.388992
  0
ARC
  8
0
 10
-227.724976
 20
-118.811539
 40
1.931880
 50
233.502319
 51
306.497681
  0
ARC
  8
0
 10
-227.178223
 20
-119.610336
 40
0.965195
 50
308.610992
 51
344.582031
  0
ARC
  8
0
 10
-218.705276
 20
-115.015854
 40
2.130294
 50
3.762753
 51
11.773612
  0
ARC
  8
0
 10
-218.922836
 20
-115.082321
 40
2.356934
 50
12.276262
 51
45.305832
  0
ARC
  8
0
 10
-219.524979
 20
-115.815422
 40
3.302735
 50
46.825008
 51
133.175171
  0
ARC
  8
0
 10
-220.127121
 20
-115.082321
 40
2.356923
 50
134.694427
 51
167.724106
  0
ARC
  8
0
 10
-220.344681
 20
-115.015854
 40
2.130295
 50
168.226791
 51
183.762756
  0
ARC
  8
0
 10
-220.988770
 20
-115.015854
 40
1.486206
 50
174.645584
 51
194.106293
  0
ARC
  8
0
 10
-220.600235
 20
-114.873421
 40
1.898237
 50
195.417709
 51
231.388382
  0
ARC
  8
0
 10
-219.524979
 20
-113.302475
 40
3.799348
 50
233.502106
 51
306.497894
  0
ARC
  8
0
 10
-218.449722
 20
-114.873421
 40
1.898234
 50
308.611603
 51
344.582062
  0
ARC
  8
0
 10
-218.061188
 20
-115.015854
 40
1.486209
 50
345.893433
 51
5.331355
  0
ARC
  8
0
 10
-219.524994
 20
-118.417358
 40
4.532878
 50
65.111641
 51
114.902168
  0
ARC
  8
0
 10
-190.824982
 20
-106.934250
 40
1.264351
 50
270.000000
 51
282.242828
  0
ARC
  8
0
 10
-190.583328
 20
-108.019691
 40
0.152467
 50
279.993530
 51
312.511688
  0
ARC
  8
0
 10
-190.496017
 20
-108.118103
 40
0.021033
 50
318.352661
 51
41.647346
  0
ARC
  8
0
 10
-190.583328
 20
-108.216515
 40
0.152466
 50
47.488319
 51
80.006470
  0
ARC
  8
0
 10
-190.824982
 20
-109.301956
 40
1.264350
 50
77.757172
 51
90.000000
  0
ARC
  8
0
 10
-222.274994
 20
-113.514160
 40
2.317954
 50
57.783920
 51
126.503288
  0
ARC
  8
0
 10
-222.930878
 20
-112.556076
 40
1.158442
 50
128.616669
 51
164.585159
  0
ARC
  8
0
 10
-223.167862
 20
-112.469208
 40
0.907137
 50
165.895966
 51
175.402756
  0
ARC
  8
0
 10
-219.415497
 20
-166.917267
 40
1.259494
 50
165.893219
 51
194.106110
  0
ARC
  8
0
 10
-219.086227
 20
-166.796555
 40
1.608672
 50
195.417755
 51
231.388229
  0
ARC
  8
0
 10
-218.174988
 20
-165.465240
 40
3.219791
 50
233.501984
 51
306.497833
  0
ARC
  8
0
 10
-217.263748
 20
-166.796555
 40
1.608684
 50
308.611420
 51
344.581726
  0
ARC
  8
0
 10
-216.934479
 20
-166.917267
 40
1.259494
 50
345.893219
 51
14.106111
  0
ARC
  8
0
 10
-217.263748
 20
-167.037979
 40
1.608672
 50
15.417753
 51
51.388233
  0
ARC
  8
0
 10
-218.174988
 20
-168.369293
 40
3.219791
 50
53.501991
 51
126.497849
  0
ARC
  8
0
 10
-219.086227
 20
-167.037979
 40
1.608684
 50
128.611435
 51
164.581726
  0
ARC
  8
0
 10
-219.167389
 20
-166.917267
 40
1.007603
 50
165.893677
 51
194.106323
  0
ARC
  8
0
 10
-218.903976
 20
-166.820694
 40
1.286946
 50
195.418076
 51
231.388565
  0
ARC
  8
0
 10
-218.174988
 20
-165.755646
 40
2.575839
 50
233.502167
 51
306.497833
  0
ARC
  8
0
 10
-217.445999
 20
-166.820709
 40
1.286935
 50
308.611847
 51
344.582581
  0
ARC
  8
0
 10
-217.182587
 20
-166.917267
 40
1.007603
 50
345.893677
 51
14.106320
  0
ARC
  8
0
 10
-217.445999
 20
-167.013840
 40
1.286946
 50
15.418074
 51
51.388569
  0
ARC
  8
0
 10
-218.174988
 20
-168.078888
 40
2.575839
 50
53.502167
 51
126.497833
  0
ARC
  8
0
 10
-218.903976
 20
-167.013824
 40
1.286935
 50
128.611847
 51
164.582581
  0
ARC
  8
0
 10
-218.174988
 20
-137.677643
 40
5.667250
 50
266.953522
 51
293.923187
  0
ARC
  8
0
 10
-216.439423
 20
-141.624084
 40
1.356107
 50
294.508942
 51
333.999176
  0
ARC
  8
0
 10
-215.812317
 20
-141.981903
 40
0.637327
 50
338.200378
 51
0.001372
  0
ARC
  8
0
 10
-218.174255
 20
-149.931503
 40
3.081497
 50
269.986389
 51
318.019287
  0
ARC
  8
0
 10
-218.002991
 20
-150.117172
 40
2.830074
 50
318.494354
 51
349.270111
  0
ARC
  8
0
 10
-217.940918
 20
-150.134186
 40
2.765925
 50
349.376984
 51
0.017701
  0
ARC
  8
0
 10
-201.701706
 20
-123.876503
 40
4.507529
 50
64.054848
 51
113.048012
  0
ARC
  8
0
 10
-201.701706
 20
-121.423630
 40
2.477041
 50
253.413376
 51
286.648132
  0
ARC
  8
0
 10
-201.701706
 20
-120.616745
 40
3.348552
 50
251.540115
 51
288.511902
  0
ARC
  8
0
 10
-201.701706
 20
-119.811424
 40
4.507531
 50
246.955978
 51
298.150421
  0
ARC
  8
0
 10
-209.974991
 20
-121.059265
 40
11.527037
 50
304.530334
 51
306.497223
  0
ARC
  8
0
 10
-206.712631
 20
-125.825645
 40
5.758930
 50
308.610901
 51
344.581787
  0
ARC
  8
0
 10
-205.533844
 20
-126.257797
 40
4.508849
 50
345.893341
 51
14.106644
  0
ARC
  8
0
 10
-206.712631
 20
-126.689949
 40
5.758924
 50
15.418210
 51
24.330647
  0
POLYLINE
  8
0
 66
     1
  0
VERTEX
  8
0
 10
-242.674973
 20
-172.250000
  0
VERTEX
  8
0
 10
-243.559586
 20
-172.093338
  0
VERTEX
  8
0
 10
-244.354980
 20
-171.604279
  0
VERTEX
  8
0
 10
-244.744644
 20
-170.921219
  0
VERTEX
  8
0
 10
-244.866760
 20
-170.066513
  0
VERTEX
  8
0
 10
-244.834976
 20
-169.103455
  0
VERTEX
  8
0
 10
-244.768692
 20
-168.334732
  0
VERTEX
  8
0
 10
-244.673538
 20
-167.615494
  0
VERTEX
  8
0
 10
-244.532440
 20
-166.899719
  0
VERTEX
  8
0
 10
-244.328308
 20
-166.141327
  0
VERTEX
  8
0
 10
-244.019501
 20
-165.259567
  0
VERTEX
  8
0
 10
-243.635620
 20
-164.392395
  0
VERTEX
  8
0
 10
-243.184753
 20
-163.552719
  0
VERTEX
  8
0
 10
-242.674973
 20
-162.753418
  0
SEQEND
  0
POLYLINE
  8
0
 66
     1
  0
VERTEX
  8
0
 10
-242.674973
 20
-147.746582
  0
VERTEX
  8
0
 10
-243.189865
 20
-146.930450
  0
VERTEX
  8
0
 10
-243.649246
 20
-146.062729
  0
VERTEX
  8
0
 10
-244.034836
 20
-145.189957
  0
VERTEX
  8
0
 10
-244.328308
 20
-144.358673
  0
VERTEX
  8
0
 10
-244.517944
 20
-143.639191
  0
VERTEX
  8
0
 10
-244.662125
 20
-142.898499
  0
VERTEX
  8
0
 10
-244.766068
 20
-142.147369
  0
VERTEX
  8
0
 10
-244.834991
 20
-141.396530
  0
VERTEX
  8
0
 10
-244.845886
 20
-140.451294
  0
VERTEX
  8
0
 10
-244.706772
 20
-139.559525
  0
VERTEX
  8
0
 10
-244.354980
 20
-138.895721
  0
VERTEX
  8
0
 10
-243.590454
 20
-138.438324
  0
VERTEX
  8
0
 10
-242.674988
 20
-138.250000
  0
SEQEND
  0
POINT
  8
0
 10
-37.174984
 20
-55.250000
  0
POINT
  8
0
 10
-76.674988
 20
-55.250000
  0
LINE
  8
0
 10
-113.727379
 20
-12.540985
 11
-102.484390
 21
-23.783981
  0
LINE
  8
0
 10
-119.384254
 20
-18.197842
 11
-108.141258
 21
-29.440844
  0
LINE
  8
0
 10
-115.070908
 20
-22.511166
 11
-109.414062
 21
-16.854313
  0
LINE
  8
0
 10
-108.141235
 20
-30.006487
 11
-101.918701
 21
-23.783947
  0
LINE
  8
0
 10
-108.848358
 20
-16.854332
 11
-101.918701
 21
-23.783981
  0
LINE
  8
0
 10
-115.070908
 20
-23.076881
 11
-108.141266
 21
-30.006527
  0
LINE
  8
0
 10
-109.626167
 20
-27.955881
 11
-103.969315
 21
-22.299034
  0
LINE
  8
0
 10
-116.202271
 20
-24.208223
 11
-114.788055
 21
-22.794010
  0
LINE
  8
0
 10
-120.232796
 20
-19.470570
 11
-119.172134
 21
-18.409908
  0
LINE
  8
0
 10
-109.131195
 20
-17.137157
 11
-107.716988
 21
-15.722942
  0
LINE
  8
0
 10
-111.747498
 20
-11.692459
 11
-107.716980
 21
-15.722973
  0
LINE
  8
0
 10
-120.232773
 20
-20.177742
 11
-116.202271
 21
-24.208248
  0
LINE
  8
0
 10
-113.515282
 20
-12.753052
 11
-112.454620
 21
-11.692394
  0
LINE
  8
0
 10
-108.848343
 20
-28.026642
 11
-109.555450
 21
-28.026642
  0
LINE
  8
0
 10
-103.898590
 20
-23.076870
 11
-103.898590
 21
-22.369762
  0
LINE
  8
0
 10
-108.141235
 20
-29.440794
 11
-102.484390
 21
-23.783947
  0
LINE
  8
0
 10
-109.201904
 20
-28.380138
 11
-103.545059
 21
-22.723297
  0
LINE
  8
0
 10
-105.312790
 20
-20.955547
 11
-110.969643
 21
-26.612400
  0
LINE
  8
0
 10
-97.116257
 20
-25.616327
 11
-96.037086
 21
-26.695503
  0
LINE
  8
0
 10
-102.837830
 20
-22.016079
 11
-94.706207
 21
-30.147703
  0
LINE
  8
0
 10
-103.262207
 20
-22.440449
 11
-102.837952
 21
-22.016190
  0
LINE
  8
0
 10
-102.201546
 20
-23.501102
 11
-101.777283
 21
-23.076839
  0
LINE
  8
0
 10
-114.434525
 20
-12.540932
 11
-119.384262
 21
-17.490677
  0
LINE
  8
0
 10
-94.706207
 20
-30.147701
 11
-98.595711
 21
-34.037205
  0
LINE
  8
0
 10
-119.384003
 20
-92.302383
 11
-108.141006
 21
-81.059395
  0
LINE
  8
0
 10
-113.727150
 20
-97.959259
 11
-102.484146
 21
-86.716263
  0
LINE
  8
0
 10
-109.413834
 20
-93.645920
 11
-115.070686
 21
-87.989059
  0
LINE
  8
0
 10
-101.918495
 20
-86.716255
 11
-108.141037
 21
-80.493713
  0
LINE
  8
0
 10
-115.070663
 20
-87.423363
 11
-108.141006
 21
-80.493713
  0
LINE
  8
0
 10
-108.848114
 20
-93.645920
 11
-101.918465
 21
-86.716270
  0
LINE
  8
0
 10
-103.969116
 20
-88.201180
 11
-109.625961
 21
-82.544327
  0
LINE
  8
0
 10
-107.716774
 20
-94.777267
 11
-109.130989
 21
-93.363052
  0
LINE
  8
0
 10
-112.454407
 20
-98.807800
 11
-113.515060
 21
-97.747139
  0
LINE
  8
0
 10
-114.787842
 20
-87.706207
 11
-116.202057
 21
-86.291985
  0
LINE
  8
0
 10
-120.232529
 20
-90.322502
 11
-116.202019
 21
-86.291992
  0
LINE
  8
0
 10
-111.747253
 20
-98.807785
 11
-107.716743
 21
-94.777275
  0
LINE
  8
0
 10
-119.171921
 20
-92.090286
 11
-120.232574
 21
-91.029617
  0
LINE
  8
0
 10
-103.898346
 20
-87.423347
 11
-103.898346
 21
-88.130455
  0
LINE
  8
0
 10
-108.848122
 20
-82.473602
 11
-109.555229
 21
-82.473602
  0
LINE
  8
0
 10
-102.484192
 20
-86.716255
 11
-108.141037
 21
-81.059402
  0
LINE
  8
0
 10
-103.544853
 20
-87.776909
 11
-109.201698
 21
-82.120064
  0
LINE
  8
0
 10
-110.969437
 20
-83.887810
 11
-105.312584
 21
-89.544662
  0
LINE
  8
0
 10
-109.484543
 20
-81.837219
 11
-109.648254
 21
-81.673508
  0
LINE
  8
0
 10
-108.423882
 20
-80.776566
 11
-108.479790
 21
-80.720657
  0
LINE
  8
0
 10
-101.777077
 20
-87.423370
 11
-102.201340
 21
-86.999107
  0
LINE
  8
0
 10
-102.837845
 20
-88.483910
 11
-94.352661
 21
-79.998734
  0
LINE
  8
0
 10
-102.837746
 20
-88.484024
 11
-103.262009
 21
-88.059761
  0
LINE
  8
0
 10
-97.116272
 20
-84.883659
 11
-96.037094
 21
-83.804489
  0
LINE
  8
0
 10
-119.384033
 20
-93.009506
 11
-114.434296
 21
-97.959259
  0
LINE
  8
0
 10
-93.675308
 20
-48.149998
 11
-114.875168
 21
-26.950142
  0
LINE
  8
0
 10
-114.859589
 20
-83.534286
 11
-93.675308
 21
-62.350006
  0
LINE
  8
0
 10
-114.859421
 20
-83.534454
 11
-130.675293
 21
-67.718567
  0
LINE
  8
0
 10
-130.675323
 20
-42.781456
 11
-114.859444
 21
-26.965574
  0
LINE
  8
0
 10
-93.675308
 20
-62.350006
 11
-93.675308
 21
-48.149998
  0
LINE
  8
0
 10
-130.675308
 20
-67.749710
 11
-130.675308
 21
-42.750286
  0
LINE
  8
0
 10
-108.000648
 20
-32.834702
 11
-104.252983
 21
-29.087040
  0
LINE
  8
0
 10
-102.838768
 20
-38.986538
 11
-98.596123
 21
-34.743896
  0
LINE
  8
0
 10
-107.317169
 20
-77.005280
 11
-107.823875
 21
-76.498573
  0
LINE
  8
0
 10
-103.003822
 20
-72.691933
 11
-103.510529
 21
-72.185226
  0
LINE
  8
0
 10
-103.227676
 20
-29.405241
 11
-102.661568
 21
-28.839132
  0
LINE
  8
0
 10
-98.914330
 20
-33.718582
 11
-98.348221
 21
-33.152477
  0
LINE
  8
0
 10
-98.446693
 20
-34.186222
 11
-103.695297
 21
-28.937616
  0
LINE
  8
0
 10
-107.317146
 20
-77.005272
 11
-103.003799
 21
-72.691925
  0
LINE
  8
0
 10
-102.661575
 20
-28.839140
 11
-98.348221
 21
-33.152496
  0
LINE
  8
0
 10
-98.596115
 20
-34.743904
 11
-98.446686
 21
-34.186226
  0
LINE
  8
0
 10
-104.252968
 20
-29.087049
 11
-103.695297
 21
-28.937622
  0
LINE
  8
0
 10
-98.596115
 20
-34.743896
 11
-104.252968
 21
-29.087044
  0
LINE
  8
0
 10
-119.501251
 20
-64.723938
 11
-115.878059
 21
-62.459919
  0
LINE
  8
0
 10
-123.740601
 20
-57.939556
 11
-120.117416
 21
-55.675533
  0
LINE
  8
0
 10
-119.801071
 20
-64.734428
 11
-123.573372
 21
-62.728661
  0
LINE
  8
0
 10
-116.045303
 20
-57.670853
 11
-119.817596
 21
-55.665085
  0
LINE
  8
0
 10
-123.732491
 20
-62.474239
 11
-123.881592
 21
-58.204453
  0
LINE
  8
0
 10
-115.737366
 20
-62.195049
 11
-115.886475
 21
-57.925255
  0
LINE
  8
0
 10
-119.110130
 20
-62.073544
 11
-121.186981
 21
-58.749889
  0
LINE
  8
0
 10
-118.431686
 20
-61.649593
 11
-120.508545
 21
-58.325935
  0
LINE
  8
0
 10
-116.340950
 20
-53.221390
 11
-115.452667
 21
-49.042358
  0
LINE
  8
0
 10
-124.166153
 20
-51.558098
 11
-123.277870
 21
-47.379070
  0
LINE
  8
0
 10
-116.541611
 20
-53.444347
 11
-120.604904
 21
-54.764587
  0
LINE
  8
0
 10
-119.013763
 20
-45.835888
 11
-123.077042
 21
-47.156128
  0
LINE
  8
0
 10
-120.898407
 20
-54.702286
 11
-124.073410
 21
-51.843502
  0
LINE
  8
0
 10
-115.545349
 20
-48.757122
 11
-118.720352
 21
-45.898331
  0
LINE
  8
0
 10
-117.975723
 20
-51.098938
 11
-121.809265
 21
-50.284092
  0
LINE
  8
0
 10
-117.809395
 20
-50.316422
 11
-121.642929
 21
-49.501575
  0
LINE
  8
0
 10
-80.674988
 20
-78.935440
 11
-80.674988
 21
-67.899475
  0
LINE
  8
0
 10
-80.674988
 20
-43.407280
 11
-80.674988
 21
-31.564562
  0
LINE
  8
0
 10
-114.875023
 20
-83.550003
 11
-130.675018
 21
-67.750008
  0
LINE
  8
0
 10
-130.675003
 20
-42.749977
 11
-114.875000
 21
-26.949970
  0
LINE
  8
0
 10
-112.555908
 20
-82.220543
 11
-107.606155
 21
-77.270798
  0
LINE
  8
0
 10
-111.636658
 20
-81.866989
 11
-107.959709
 21
-78.190033
  0
LINE
  8
0
 10
-108.795113
 20
-81.076057
 11
-108.750648
 21
-81.031593
  0
LINE
  8
0
 10
-107.959709
 20
-78.190048
 11
-108.242554
 21
-77.907204
  0
LINE
  8
0
 10
-111.636673
 20
-81.866997
 11
-111.919510
 21
-81.584152
  0
LINE
  8
0
 10
-107.606171
 20
-77.270790
 11
-108.101135
 21
-76.775818
  0
LINE
  8
0
 10
-112.555908
 20
-82.220551
 11
-113.050880
 21
-81.725578
  0
LINE
  8
0
 10
-102.738289
 20
-72.402931
 11
-97.788536
 21
-67.453178
  0
LINE
  8
0
 10
-101.819038
 20
-72.049370
 11
-98.142090
 21
-68.372421
  0
LINE
  8
0
 10
-98.142097
 20
-68.372421
 11
-98.424942
 21
-68.089577
  0
LINE
  8
0
 10
-101.819046
 20
-72.049377
 11
-102.101891
 21
-71.766533
  0
LINE
  8
0
 10
-102.738281
 20
-72.402931
 11
-103.233253
 21
-71.907959
  0
LINE
  8
0
 10
-97.788528
 20
-43.046822
 11
-102.343788
 21
-38.491562
  0
LINE
  8
0
 10
-98.142090
 20
-42.127579
 11
-101.819038
 21
-38.450623
  0
LINE
  8
0
 10
-98.933022
 20
-39.286026
 11
-98.977486
 21
-39.241562
  0
LINE
  8
0
 10
-101.819046
 20
-38.450615
 11
-102.101883
 21
-38.733459
  0
LINE
  8
0
 10
-98.142090
 20
-42.127567
 11
-98.424927
 21
-42.410412
  0
LINE
  8
0
 10
-97.788544
 20
-43.046825
 11
-98.283508
 21
-43.541798
  0
LINE
  8
0
 10
-107.606155
 20
-33.229198
 11
-112.555893
 21
-28.279451
  0
LINE
  8
0
 10
-107.959702
 20
-32.309959
 11
-111.636658
 21
-28.633003
  0
LINE
  8
0
 10
-108.750641
 20
-29.468405
 11
-108.795105
 21
-29.423943
  0
LINE
  8
0
 10
-111.636673
 20
-28.633001
 11
-111.919510
 21
-28.915844
  0
LINE
  8
0
 10
-107.959694
 20
-32.309952
 11
-108.242538
 21
-32.592793
  0
LINE
  8
0
 10
-112.555908
 20
-28.279448
 11
-113.050880
 21
-28.774422
  0
LINE
  8
0
 10
-107.606148
 20
-33.229198
 11
-108.101120
 21
-33.724171
  0
LINE
  8
0
 10
-67.906860
 20
-45.633347
 11
-71.725243
 21
-41.814972
  0
LINE
  8
0
 10
-87.988693
 20
-55.250000
 11
-74.553665
 21
-41.814972
  0
LINE
  8
0
 10
-97.783844
 20
-69.994896
 11
-93.999107
 21
-66.210159
  0
LINE
  8
0
 10
-107.387695
 20
-77.626984
 11
-99.727257
 21
-71.199104
  0
LINE
  8
0
 10
-93.999107
 20
-66.210159
 11
-90.455673
 21
-61.149609
  0
LINE
  8
0
 10
-74.553665
 20
-41.814972
 11
-71.725243
 21
-41.814972
  0
LINE
  8
0
 10
-73.563721
 20
-51.290203
 11
-67.906860
 21
-45.633347
  0
LINE
  8
0
 10
-77.382095
 20
-61.613960
 11
-83.038948
 21
-55.957108
  0
LINE
  8
0
 10
-75.967880
 20
-61.613960
 11
-70.311028
 21
-55.957108
  0
LINE
  8
0
 10
-83.038948
 20
-54.542892
 11
-77.382095
 21
-48.886040
  0
LINE
  8
0
 10
-77.382095
 20
-62.321068
 11
-83.746056
 21
-55.957108
  0
LINE
  8
0
 10
-75.967880
 20
-62.321068
 11
-69.603920
 21
-55.957108
  0
LINE
  8
0
 10
-69.603920
 20
-54.542892
 11
-72.361633
 21
-51.785175
  0
LINE
  8
0
 10
-83.746056
 20
-54.542892
 11
-77.382095
 21
-48.178932
  0
LINE
  8
0
 10
-67.058334
 20
-46.481876
 11
-63.239960
 21
-50.300255
  0
LINE
  8
0
 10
-76.674988
 20
-66.563705
 11
-63.239960
 21
-53.128677
  0
LINE
  8
0
 10
-91.419884
 20
-76.358856
 11
-87.635147
 21
-72.574120
  0
LINE
  8
0
 10
-72.715187
 20
-52.138729
 11
-67.058334
 21
-46.481876
  0
LINE
  8
0
 10
-99.051971
 20
-85.962708
 11
-92.624092
 21
-78.302269
  0
LINE
  8
0
 10
-87.635147
 20
-72.574112
 11
-82.574600
 21
-69.030678
  0
LINE
  8
0
 10
-63.239960
 20
-53.128681
 11
-63.239960
 21
-50.300251
  0
LINE
  8
0
 10
-73.210167
 20
-50.936649
 11
-75.967880
 21
-48.178932
  0
LINE
  8
0
 10
-69.321075
 20
-47.047562
 11
-68.472549
 21
-47.896088
  0
LINE
  8
0
 10
-72.856613
 20
-50.583096
 11
-72.008087
 21
-51.431625
  0
LINE
  8
0
 10
-80.623451
 20
-44.066380
 11
-75.837791
 21
-39.280716
  0
LINE
  8
0
 10
-74.871864
 20
-39.021900
 11
-72.078796
 21
-41.814972
  0
LINE
  8
0
 10
-80.882271
 20
-45.032307
 11
-79.326637
 21
-46.587944
  0
LINE
  8
0
 10
-80.882271
 20
-45.032307
 11
-74.871864
 21
-39.021900
  0
LINE
  8
0
 10
-80.882271
 20
-45.032307
 11
-80.623451
 21
-44.066380
  0
LINE
  8
0
 10
-74.871864
 20
-39.021912
 11
-75.837784
 21
-39.280731
  0
LINE
  8
0
 10
-100.363068
 20
-76.838074
 11
-100.363068
 21
-81.038078
  0
LINE
  8
0
 10
-102.463066
 20
-78.938080
 11
-98.263062
 21
-78.938080
  0
LINE
  8
0
 10
-107.929108
 20
-79.433052
 11
-100.858047
 21
-86.504120
  0
LINE
  8
0
 10
-107.929108
 20
-79.433052
 11
-101.423721
 21
-72.927673
  0
LINE
  8
0
 10
-98.595299
 20
-72.927673
 11
-94.352661
 21
-77.170311
  0
LINE
  8
0
 10
-107.915482
 20
-31.080564
 11
-107.080994
 21
-31.915051
  0
LINE
  8
0
 10
-109.648247
 20
-28.826485
 11
-109.484749
 21
-28.662989
  0
LINE
  8
0
 10
-108.479782
 20
-29.779339
 11
-108.424088
 21
-29.723642
  0
LINE
  8
0
 10
-97.788528
 20
-67.453186
 11
-98.283501
 21
-66.958214
  0
LINE
  8
0
 10
-84.988235
 20
-74.750000
 11
-86.431618
 21
-72.250000
  0
LINE
  8
0
 10
-86.431618
 20
-72.250000
 11
-87.172279
 21
-72.250000
  0
LINE
  8
0
 10
-89.318367
 20
-77.250000
 11
-90.413757
 21
-75.352730
  0
LINE
  8
0
 10
-86.431618
 20
-77.250000
 11
-89.318367
 21
-77.250000
  0
LINE
  8
0
 10
-84.988235
 20
-74.750000
 11
-86.431618
 21
-77.250000
  0
LINE
  8
0
 10
-84.988235
 20
-35.750000
 11
-86.431610
 21
-33.250000
  0
LINE
  8
0
 10
-86.431610
 20
-33.250000
 11
-89.318359
 21
-33.250000
  0
LINE
  8
0
 10
-90.761742
 20
-35.750000
 11
-89.318359
 21
-33.250000
  0
LINE
  8
0
 10
-89.318359
 20
-38.250000
 11
-90.761742
 21
-35.750000
  0
LINE
  8
0
 10
-86.431610
 20
-38.250000
 11
-89.318359
 21
-38.250000
  0
LINE
  8
0
 10
-84.988235
 20
-35.750000
 11
-86.431610
 21
-38.250000
  0
LINE
  8
0
 10
-102.838768
 20
-43.595295
 11
-103.838768
 21
-44.172646
  0
LINE
  8
0
 10
-103.838768
 20
-44.172646
 11
-103.838768
 21
-45.327347
  0
LINE
  8
0
 10
-102.838768
 20
-45.904694
 11
-103.838768
 21
-45.327347
  0
LINE
  8
0
 10
-101.838768
 20
-45.327347
 11
-102.838768
 21
-45.904694
  0
LINE
  8
0
 10
-101.838768
 20
-44.172646
 11
-101.838768
 21
-45.327347
  0
LINE
  8
0
 10
-102.838768
 20
-43.595295
 11
-101.838768
 21
-44.172646
  0
LINE
  8
0
 10
-102.838760
 20
-64.595299
 11
-103.838768
 21
-65.172646
  0
LINE
  8
0
 10
-103.838768
 20
-65.172646
 11
-103.838768
 21
-66.327347
  0
LINE
  8
0
 10
-102.838768
 20
-66.904694
 11
-103.838768
 21
-66.327347
  0
LINE
  8
0
 10
-101.838760
 20
-66.327347
 11
-102.838768
 21
-66.904701
  0
LINE
  8
0
 10
-101.838768
 20
-65.172646
 11
-101.838768
 21
-66.327347
  0
LINE
  8
0
 10
-102.838768
 20
-64.595299
 11
-101.838768
 21
-65.172646
  0
LINE
  8
0
 10
-108.113380
 20
-69.745689
 11
-112.413383
 21
-69.745689
  0
LINE
  8
0
 10
-110.263382
 20
-67.595688
 11
-110.263382
 21
-71.895691
  0
LINE
  8
0
 10
-108.113388
 20
-40.754303
 11
-112.413391
 21
-40.754303
  0
LINE
  8
0
 10
-110.263390
 20
-38.604305
 11
-110.263390
 21
-42.904305
  0
LINE
  8
0
 10
-90.705917
 20
-80.153320
 11
-90.155357
 21
-79.199715
  0
LINE
  8
0
 10
-91.138931
 20
-79.903320
 11
-90.588371
 21
-78.949715
  0
LINE
  8
0
 10
-91.138931
 20
-30.596682
 11
-90.588364
 21
-31.550287
  0
LINE
  8
0
 10
-90.705917
 20
-30.346682
 11
-90.155357
 21
-31.300287
  0
LINE
  8
0
 10
-107.959717
 20
-78.190041
 11
-108.242554
 21
-77.907196
  0
LINE
  8
0
 10
-81.504623
 20
-19.955902
 11
-81.820808
 21
-21.135914
  0
LINE
  8
0
 10
-71.845360
 20
-19.955906
 11
-71.529175
 21
-21.135918
  0
LINE
  8
0
 10
-81.504608
 20
-90.544090
 11
-81.820786
 21
-89.364090
  0
LINE
  8
0
 10
-71.845360
 20
-90.544098
 11
-71.529182
 21
-89.364082
  0
LINE
  8
0
 10
-49.704231
 20
-76.763451
 11
-48.524216
 21
-77.079636
  0
LINE
  8
0
 10
-44.558422
 20
-67.850632
 11
-43.694592
 21
-68.714462
  0
LINE
  8
0
 10
-44.558414
 20
-42.649372
 11
-43.694580
 21
-41.785538
  0
LINE
  8
0
 10
-49.704227
 20
-33.736565
 11
-48.524216
 21
-33.420383
  0
LINE
  8
0
 10
-107.626953
 20
-77.250000
 11
-103.250351
 21
-77.250000
  0
LINE
  8
0
 10
-75.967880
 20
-48.886036
 11
-70.311028
 21
-54.542892
  0
LINE
  8
0
 10
-75.667000
 20
-49.894024
 11
-71.319016
 21
-54.242016
  0
LINE
  8
0
 10
-70.858826
 20
-53.995094
 11
-71.319008
 21
-54.242020
  0
LINE
  8
0
 10
-75.420074
 20
-49.433842
 11
-75.667000
 21
-49.894028
  0
LINE
  8
0
 10
-77.929893
 20
-49.433838
 11
-77.682968
 21
-49.894024
  0
LINE
  8
0
 10
-82.491150
 20
-53.995090
 11
-82.030960
 21
-54.242012
  0
LINE
  8
0
 10
-82.030960
 20
-54.242012
 11
-77.682976
 21
-49.894024
  0
LINE
  8
0
 10
-82.491150
 20
-56.504906
 11
-82.030960
 21
-56.257984
  0
LINE
  8
0
 10
-77.929901
 20
-61.066158
 11
-77.682976
 21
-60.605972
  0
LINE
  8
0
 10
-77.682976
 20
-60.605976
 11
-82.030960
 21
-56.257988
  0
LINE
  8
0
 10
-75.420082
 20
-61.066162
 11
-75.667007
 21
-60.605976
  0
LINE
  8
0
 10
-70.858826
 20
-56.504910
 11
-71.319016
 21
-56.257988
  0
LINE
  8
0
 10
-71.319016
 20
-56.257988
 11
-75.667000
 21
-60.605976
  0
CIRCLE
  8
0
 10
-65.424995
 20
-35.764423
 40
3.300000
  0
CIRCLE
  8
0
 10
-110.121140
 20
-21.804073
 40
2.500000
  0
CIRCLE
  8
0
 10
-110.121140
 20
-21.804073
 40
2.000000
  0
ARC
  8
0
 10
-119.030678
 20
-17.844273
 40
0.500001
 50
135.000000
 51
225.000000
  0
ARC
  8
0
 10
-114.080933
 20
-12.894524
 40
0.500006
 50
44.999382
 51
134.999374
  0
ARC
  8
0
 10
-112.101028
 20
-12.045998
 40
0.499995
 50
45.000618
 51
135.000626
  0
ARC
  8
0
 10
-119.879211
 20
-19.824169
 40
0.499995
 50
134.999374
 51
225.000626
  0
ARC
  8
0
 10
-115.352676
 20
-16.572525
 40
3.501483
 50
83.957436
 51
186.042511
  0
ARC
  8
0
 10
-76.674988
 20
-55.250000
 40
36.000004
 50
124.597847
 51
127.016380
  0
CIRCLE
  8
0
 10
-110.120918
 20
-88.696144
 40
2.500000
  0
CIRCLE
  8
0
 10
-110.120918
 20
-88.696144
 40
2.000000
  0
ARC
  8
0
 10
-114.080719
 20
-97.605682
 40
0.500006
 50
225.000626
 51
314.999390
  0
ARC
  8
0
 10
-119.030472
 20
-92.655937
 40
0.499995
 50
134.999374
 51
225.000626
  0
ARC
  8
0
 10
-119.878998
 20
-90.676041
 40
0.499995
 50
134.999374
 51
225.000626
  0
ARC
  8
0
 10
-112.100822
 20
-98.454216
 40
0.500001
 50
225.000000
 51
315.000000
  0
ARC
  8
0
 10
-115.352463
 20
-93.927681
 40
3.501483
 50
173.956818
 51
276.043060
  0
CIRCLE
  8
0
 10
-110.263382
 20
-69.745682
 40
5.000000
  0
CIRCLE
  8
0
 10
-110.263390
 20
-40.754303
 40
5.000000
  0
CIRCLE
  8
0
 10
-102.838768
 20
-55.249996
 40
0.750000
  0
CIRCLE
  8
0
 10
-102.838768
 20
-55.249996
 40
7.200000
  0
ARC
  8
0
 10
-102.838768
 20
-55.249996
 40
7.999997
 50
105.358879
 51
254.641083
  0
ARC
  8
0
 10
-109.615677
 20
-70.393402
 40
6.999995
 50
289.169312
 51
340.830719
  0
ARC
  8
0
 10
-104.960083
 20
-35.451004
 40
7.000000
 50
19.169226
 51
70.830704
  0
CIRCLE
  8
0
 10
-119.809326
 20
-60.199745
 40
2.000000
  0
CIRCLE
  8
0
 10
-119.809326
 20
-60.199745
 40
1.750000
  0
CIRCLE
  8
0
 10
-119.809326
 20
-60.199745
 40
4.000000
  0
ARC
  8
0
 10
-123.432526
 20
-62.463768
 40
0.300003
 50
181.999542
 51
242.000534
  0
ARC
  8
0
 10
-119.660217
 20
-64.469536
 40
0.299999
 50
242.000534
 51
302.000122
  0
ARC
  8
0
 10
-116.037033
 20
-62.205513
 40
0.300002
 50
302.000977
 51
2.000267
  0
ARC
  8
0
 10
-116.186127
 20
-57.935722
 40
0.299995
 50
1.999590
 51
62.000542
  0
ARC
  8
0
 10
-119.958435
 20
-55.929955
 40
0.299999
 50
62.000542
 51
122.000984
  0
ARC
  8
0
 10
-123.581619
 20
-58.193977
 40
0.300005
 50
122.000595
 51
181.999542
  0
CIRCLE
  8
0
 10
-119.809326
 20
-50.300247
 40
2.000000
  0
CIRCLE
  8
0
 10
-119.809326
 20
-50.300247
 40
1.750000
  0
CIRCLE
  8
0
 10
-119.809326
 20
-50.300247
 40
4.000000
  0
ARC
  8
0
 10
-120.697601
 20
-54.479279
 40
0.300003
 50
227.999084
 51
287.998596
  0
ARC
  8
0
 10
-116.634323
 20
-53.159035
 40
0.299999
 50
287.999969
 51
347.999786
  0
ARC
  8
0
 10
-115.746040
 20
-48.980007
 40
0.300005
 50
348.000092
 51
48.000172
  0
ARC
  8
0
 10
-118.921051
 20
-46.121216
 40
0.300000
 50
47.998600
 51
107.999969
  0
ARC
  8
0
 10
-122.984337
 20
-47.441460
 40
0.299999
 50
107.999969
 51
168.000092
  0
ARC
  8
0
 10
-123.872620
 20
-51.620487
 40
0.299998
 50
167.999786
 51
228.001740
  0
ARC
  8
0
 10
-102.838768
 20
-55.249996
 40
8.000001
 50
285.358856
 51
74.641129
  0
ARC
  8
0
 10
-76.674988
 20
-55.250000
 40
12.500001
 50
108.662926
 51
193.450134
  0
ARC
  8
0
 10
-76.674988
 20
-55.250000
 40
29.000000
 50
108.662926
 51
142.181396
  0
ARC
  8
0
 10
-84.674988
 20
-78.935440
 40
4.000002
 50
251.337097
 51
0.000000
  0
ARC
  8
0
 10
-84.674988
 20
-31.564562
 40
4.000000
 50
0.000027
 51
108.662903
  0
ARC
  8
0
 10
-101.953583
 20
-35.628769
 40
2.999998
 50
293.385895
 51
322.181488
  0
CIRCLE
  8
0
 10
-110.263382
 20
-69.745682
 40
4.700000
  0
CIRCLE
  8
0
 10
-110.263390
 20
-40.754303
 40
4.700000
  0
CIRCLE
  8
0
 10
-102.838768
 20
-65.750000
 40
2.600000
  0
CIRCLE
  8
0
 10
-102.838768
 20
-65.750000
 40
3.500000
  0
CIRCLE
  8
0
 10
-102.838768
 20
-44.749996
 40
2.600000
  0
CIRCLE
  8
0
 10
-102.838768
 20
-44.749996
 40
3.500000
  0
ARC
  8
0
 10
-110.916428
 20
-78.954735
 40
3.000000
 50
256.108948
 51
315.000092
  0
ARC
  8
0
 10
-110.871964
 20
-78.910271
 40
2.999998
 50
315.000092
 51
13.891067
  0
ARC
  8
0
 10
-101.098816
 20
-69.137115
 40
3.000000
 50
256.108948
 51
275.124786
  0
ARC
  8
0
 10
-101.054344
 20
-41.407341
 40
3.000000
 50
346.108948
 51
44.999897
  0
ARC
  8
0
 10
-101.098808
 20
-41.362881
 40
3.000000
 50
44.999947
 51
103.891068
  0
ARC
  8
0
 10
-110.871964
 20
-31.589724
 40
3.000000
 50
346.108978
 51
44.999947
  0
ARC
  8
0
 10
-110.916428
 20
-31.545259
 40
3.000002
 50
44.999973
 51
103.891068
  0
ARC
  8
0
 10
-76.674988
 20
-55.250000
 40
38.000008
 50
216.076736
 51
217.439117
  0
ARC
  8
0
 10
-102.742958
 20
-52.545967
 40
15.000003
 50
325.000000
 51
349.614563
  0
ARC
  8
0
 10
-101.319382
 20
-66.459366
 40
4.999998
 50
288.567719
 51
314.999939
  0
ARC
  8
0
 10
-82.331841
 20
-55.250000
 40
1.000001
 50
135.000000
 51
225.000000
  0
ARC
  8
0
 10
-76.674988
 20
-60.906853
 40
1.000001
 50
225.000000
 51
315.000000
  0
ARC
  8
0
 10
-71.018135
 20
-55.250000
 40
1.000001
 50
315.000000
 51
45.000000
  0
ARC
  8
0
 10
-76.674988
 20
-49.593147
 40
1.000001
 50
45.000000
 51
135.000000
  0
ARC
  8
0
 10
-83.038948
 20
-55.250000
 40
1.000001
 50
135.000000
 51
225.000000
  0
ARC
  8
0
 10
-76.674988
 20
-61.613960
 40
1.000001
 50
225.000000
 51
315.000000
  0
ARC
  8
0
 10
-70.311028
 20
-55.250000
 40
1.000001
 50
315.000000
 51
45.000000
  0
ARC
  8
0
 10
-76.674988
 20
-48.886040
 40
1.000001
 50
45.000000
 51
135.000000
  0
ARC
  8
0
 10
-73.970955
 20
-81.317970
 40
14.999996
 50
100.385422
 51
124.999985
  0
ARC
  8
0
 10
-87.884354
 20
-79.894394
 40
5.000005
 50
135.000000
 51
161.432297
  0
CIRCLE
  8
0
 10
-100.363068
 20
-78.938080
 40
3.500000
  0
ARC
  8
0
 10
-95.766869
 20
-78.584526
 40
1.999991
 50
315.000000
 51
45.000156
  0
ARC
  8
0
 10
-100.009514
 20
-74.341881
 40
2.000002
 50
45.000000
 51
135.000000
  0
ARC
  8
0
 10
-76.674988
 20
-55.250000
 40
36.000000
 50
234.141602
 51
235.402100
  0
ARC
  8
0
 10
-76.674988
 20
-55.250000
 40
34.500000
 50
234.322006
 51
126.666924
  0
ARC
  8
0
 10
-76.674988
 20
-55.250000
 40
28.999998
 50
235.143723
 51
251.337097
  0
ARC
  8
0
 10
-101.054344
 20
-69.092651
 40
2.999995
 50
331.241699
 51
13.891067
  0
ARC
  8
0
 10
-76.674988
 20
-55.250000
 40
38.000004
 50
232.560822
 51
233.923264
  0
CIRCLE
  8
0
 10
-87.874985
 20
-35.750000
 40
5.000000
  0
ARC
  8
0
 10
-87.874985
 20
-35.750000
 40
6.100003
 50
122.348854
 51
117.651161
  0
ARC
  8
0
 10
-87.874992
 20
-74.750000
 40
6.100004
 50
217.168976
 51
237.651215
  0
ARC
  8
0
 10
-87.874992
 20
-74.750000
 40
4.399998
 50
207.283371
 51
56.951603
  0
CIRCLE
  8
0
 10
-87.874985
 20
-35.750000
 40
4.400000
  0
ARC
  8
0
 10
-87.874992
 20
-74.750000
 40
4.999999
 50
210.855759
 51
54.205894
  0
ARC
  8
0
 10
-87.874992
 20
-74.750000
 40
6.100004
 50
242.348846
 51
50.642982
  0
ARC
  8
0
 10
-76.674988
 20
-21.250000
 40
5.000006
 50
14.999969
 51
165.000015
  0
ARC
  8
0
 10
-76.674988
 20
-89.250000
 40
5.000000
 50
195.000031
 51
344.999969
  0
ARC
  8
0
 10
-47.230125
 20
-72.250000
 40
4.999998
 50
255.000046
 51
45.000031
  0
ARC
  8
0
 10
-47.230118
 20
-38.250004
 40
4.999997
 50
314.999969
 51
105.000023
  0
ARC
  8
0
 10
-76.674988
 20
-55.250000
 40
39.500004
 50
232.272110
 51
127.727867
  0
ARC
  8
0
 10
-76.674988
 20
-55.250000
 40
5.449997
 50
349.341705
 51
10.658333
  0
ARC
  8
0
 10
-76.674988
 20
-21.250000
 40
2.100003
 50
12.061609
 51
167.938354
  0
ARC
  8
0
 10
-76.674988
 20
-89.250000
 40
2.100004
 50
192.061707
 51
347.938232
  0
ARC
  8
0
 10
-47.230125
 20
-72.250000
 40
2.099994
 50
252.061615
 51
47.938457
  0
ARC
  8
0
 10
-47.230122
 20
-38.250000
 40
2.099999
 50
312.061523
 51
107.938553
  0
ARC
  8
0
 10
-76.674988
 20
-55.250000
 40
5.449998
 50
79.341667
 51
100.658333
  0
ARC
  8
0
 10
-76.674988
 20
-55.250000
 40
5.449998
 50
169.341660
 51
190.658340
  0
ARC
  8
0
 10
-76.674988
 20
-55.250000
 40
5.450002
 50
259.341675
 51
280.658325
  0
ARC
  8
0
 10
-76.674988
 20
-55.250000
 40
5.950003
 50
167.824402
 51
192.175552
  0
ARC
  8
0
 10
-76.674988
 20
-55.250000
 40
5.950000
 50
257.824341
 51
282.175598
  0
ARC
  8
0
 10
-76.674988
 20
-55.250000
 40
5.949996
 50
347.824310
 51
12.175594
  0
ARC
  8
0
 10
-76.674988
 20
-55.250000
 40
5.950000
 50
77.824326
 51
102.175598
  0
ENDSEC
  0
EOF
