  0
SECTION
  2
HEADER
  0
ENDSEC
  0
SECTION
  2
TABLES
  0
TABLE
  2
LTYPE
 70
     4
  0
LTYPE
  2
CONTINUOUS
 70
    64
  3
Solid line
 72
    65
 73
     0
 40
0.000000
  0
LTYPE
  2
DASHED
 70
    64
  3
__ __ __ __ __ __ __ __ __ __ __ __ __ __ __
 72
    65
 73
     2
 40
3.500000
 49
2.000000
 49
-1.500000
  0
LTYPE
  2
CENTER
 70
    64
  3
____ _ ____ _ ____ _ ____ _ ____ _ ____ _ ____
 72
    65
 73
     4
 40
17.500000
 49
13.000000
 49
-1.500000
 49
1.500000
 49
-1.500000
  0
LTYPE
  2
PHANTOM
 70
    64
  3
_____ _ _ _____ _ _ _____ _ _ _____ _ _ ____  
 72
    65
 73
     6
 40
15.500000
 49
8.000000
 49
-1.500000
 49
1.500000
 49
-1.500000
 49
1.500000
 49
-1.500000
  0
LTYPE
  2
DASHED1
 70
    64
  3
__ __ __ __ __ __ __ __ __ __ __ __ __ __ __
 72
    65
 73
     2
 40
1.500000
 49
1.000000
 49
-0.500000
  0
LTYPE
  2
DASHED2
 70
    64
  3
__ __ __ __ __ __ __ __ __ __ __ __ __ __ __
 72
    65
 73
     2
 40
3.500000
 49
2.500000
 49
-1.000000
  0
LTYPE
  2
DASHED3
 70
    64
  3
__ __ __ __ __ __ __ __ __ __ __ __ __ __ __
 72
    65
 73
     2
 40
6.000000
 49
4.000000
 49
-2.000000
  0
LTYPE
  2
DASHED4
 70
    64
  3
__ __ __ __ __ __ __ __ __ __ __ __ __ __ __
 72
    65
 73
     2
 40
12.000000
 49
10.000000
 49
-2.000000
  0
LTYPE
  2
DASHED5
 70
    64
  3
__ __ __ __ __ __ __ __ __ __ __ __ __ __ __
 72
    65
 73
     2
 40
17.000000
 49
15.000000
 49
-2.000000
  0
LTYPE
  2
DASHED6
 70
    64
  3
__ __ __ __ __ __ __ __ __ __ __ __ __ __ __
 72
    65
 73
     2
 40
29.000000
 49
27.000000
 49
-2.000000
  0
LTYPE
  2
PHANTOM1
 70
    64
  3
_____ _ _ _____ _ _ _____ _ _ _____ _ _ ____  
 72
    65
 73
     6
 40
31.000000
 49
25.000000
 49
-1.500000
 49
1.000000
 49
-1.000000
 49
1.000000
 49
-1.500000
  0
LTYPE
  2
PHANTOM2
 70
    64
  3
_____ _ _ _____ _ _ _____ _ _ _____ _ _ ____  
 72
    65
 73
     6
 40
36.000000
 49
27.000000
 49
-1.500000
 49
2.500000
 49
-1.000000
 49
2.500000
 49
-1.500000
  0
LTYPE
  2
PHANTOM3
 70
    64
  3
_____ _ _ _____ _ _ _____ _ _ _____ _ _ ____  
 72
    65
 73
     6
 40
78.000000
 49
64.000000
 49
-2.000000
 49
4.000000
 49
-2.000000
 49
4.000000
 49
-2.000000
  0
LTYPE
  2
CENTER1
 70
    64
  3
____ _ ____ _ ____ _ ____ _ ____ _ ____ _ ____
 72
    65
 73
     4
 40
19.000000
 49
14.000000
 49
-1.000000
 49
3.000000
 49
-1.000000
  0
LTYPE
  2
CENTER2
 70
    64
  3
____ _ ____ _ ____ _ ____ _ ____ _ ____ _ ____
 72
    65
 73
     4
 40
28.500000
 49
25.000000
 49
-1.000000
 49
1.500000
 49
-1.000000
  0
LTYPE
  2
CENTER3
 70
    64
  3
____ _ ____ _ ____ _ ____ _ ____ _ ____ _ ____
 72
    65
 73
     4
 40
31.500000
 49
27.000000
 49
-1.000000
 49
2.500000
 49
-1.000000
  0
LTYPE
  2
CENTER4
 70
    64
  3
____ _ ____ _ ____ _ ____ _ ____ _ ____ _ ____
 72
    65
 73
     4
 40
50.000000
 49
45.000000
 49
-1.000000
 49
3.000000
 49
-1.000000
  0
LTYPE
  2
CENTER5
 70
    64
  3
____ _ ____ _ ____ _ ____ _ ____ _ ____ _ ____
 72
    65
 73
     4
 40
100.000000
 49
92.000000
 49
-2.000000
 49
4.000000
 49
-2.000000
  0
LTYPE
  2
SBK1
 70
    64
  3
______ _ _ _ ______ _ _ _ ______ _ _ _ _____  
 72
    65
 73
     8
 40
60.500000
 49
45.000000
 49
-2.000000
 49
2.500000
 49
-2.000000
 49
2.500000
 49
-2.000000
 49
2.500000
 49
-2.000000
  0
LTYPE
  2
SBK2
 70
    64
  3
______ _ _ _ ______ _ _ _ ______ _ _ _ _____  
 72
    65
 73
     8
 40
84.000000
 49
64.000000
 49
-2.000000
 49
4.000000
 49
-2.000000
 49
4.000000
 49
-2.000000
 49
4.000000
 49
-2.000000
  0
LTYPE
  2
STCH
 70
    64
  3
__ __ __ __ __ __ __ __ __ __ __ __ __ __ __
 72
    65
 73
     2
 40
3.000000
 49
1.000000
 49
-2.000000
  0
LTYPE
  2
MTCH
 70
    64
  3
_____ _ _ _____ _ _ _____ _ _ _____ _ _ ____  
 72
    65
 73
     6
 40
80.000000
 49
66.000000
 49
-2.000000
 49
4.000000
 49
-2.000000
 49
4.000000
 49
-2.000000
  0
ENDTAB
  0
TABLE
  2
LAYER
 70
     1
  0
LAYER
  2
0
 70
     0
 62
     7
  6
CONTINUOUS
  0
ENDTAB
  0
TABLE
  2
STYLE
 70
     1
  0
STYLE
  2
STANDARD
 70
     0
 40
0.000000
 41
1.000000
 50
0.000000
 71
     0
 42
0.200000
  3
txt
  4
BIGFONT
  0
ENDTAB
  0
TABLE
  2
VIEW
 70
     0
  0
ENDTAB
  0
ENDSEC
  0
SECTION
  2
BLOCKS
  0
ENDSEC
  0
SECTION
  2
ENTITIES
  0
LINE
  8
0
 10
-181.250000
 20
195.500000
 11
-181.250000
 21
180.500000
  0
LINE
  8
0
 10
182.099976
 20
195.500000
 11
182.099976
 21
180.500000
  0
LINE
  8
0
 10
-281.250000
 20
180.500000
 11
-181.250000
 21
180.500000
  0
LINE
  8
0
 10
182.099976
 20
-175.000000
 11
182.099976
 21
-195.000000
  0
LINE
  8
0
 10
182.099976
 20
180.500000
 11
282.099976
 21
180.500000
  0
LINE
  8
0
 10
182.099976
 20
-175.000000
 11
282.099976
 21
-175.000000
  0
LINE
  8
0
 10
-297.000000
 20
210.000000
 11
297.000000
 21
210.000000
  0
LINE
  8
0
 10
-297.000000
 20
-210.000000
 11
297.000000
 21
-210.000000
  0
LINE
  8
0
 10
297.000000
 20
210.000000
 11
297.000000
 21
-210.000000
  0
LINE
  8
0
 10
-297.000000
 20
210.000000
 11
-297.000000
 21
-210.000000
  0
LINE
  8
0
 10
-281.250000
 20
195.500000
 11
282.099976
 21
195.500000
  0
LINE
  8
0
 10
-281.250000
 20
195.500000
 11
-281.250000
 21
-195.000000
  0
LINE
  8
0
 10
282.099976
 20
195.500000
 11
282.099976
 21
-195.000000
  0
LINE
  8
0
 10
-281.250000
 20
-195.000000
 11
282.099976
 21
-195.000000
  0
LINE
  8
0
 10
-281.250000
 20
-4.750000
 11
282.099976
 21
-4.750000
  0
LINE
  8
0
 10
-281.250000
 20
-14.750000
 11
282.099976
 21
-14.750000
  0
LINE
  8
0
 10
0.424988
 20
195.500000
 11
0.424988
 21
-195.000000
  0
LINE
  8
0
 10
-281.250000
 20
-185.000000
 11
0.424988
 21
-185.000000
  0
TEXT
  8
0
 10
188.021667
 20
183.779999
 40
5.800000
  1
DATE: MAY ,1992
 50
0.000000
 41
1.052632
 51
0.000000
  7
STANDARD
  0
TEXT
  8
0
 10
178.000870
 20
-190.300003
 40
7.000000
  1
ＫＯＧＡＮＥＩ，ＣＯＲＰ．
 50
0.000000
 41
0.902367
 51
15.000000
  7
STANDARD
  0
TEXT
  8
0
 10
-275.328308
 20
183.779999
 40
5.800000
  1
ROTARY ACTUATER
 50
0.000000
 41
1.052632
 51
0.000000
  7
STANDARD
  0
TEXT
  8
0
 10
-198.376572
 20
-13.250000
 40
5.000000
  1
SWING ANGLE : 90 DEGREE
 50
0.000000
 41
1.052632
 51
0.000000
  7
STANDARD
  0
TEXT
  8
0
 10
80.798424
 20
-13.250000
 40
5.000000
  1
SWING ANGLE : 180 DEGREE
 50
0.000000
 41
1.052632
 51
0.000000
  7
STANDARD
  0
TEXT
  8
0
 10
-200.876572
 20
-193.500000
 40
5.000000
  1
SWING ANGLE : 270 DEGREE
 50
0.000000
 41
1.052632
 51
0.000000
  7
STANDARD
  0
TEXT
  8
0
 10
92.655602
 20
-109.275002
 40
6.000000
  1
MODEL : RAK50-US
 50
0.000000
 41
1.052632
 51
0.000000
  7
STANDARD
  0
POINT
  8
0
 10
-230.000000
 20
130.000000
  0
POINT
  8
0
 10
-210.500000
 20
130.000000
  0
LINE
  8
0
 10
-228.800003
 20
164.500000
 11
-228.800003
 21
109.397911
  0
LINE
  8
0
 10
-235.000000
 20
164.500000
 11
-235.000000
 21
109.397911
  0
LINE
  8
0
 10
-235.000000
 20
95.500000
 11
-228.799988
 21
95.500000
  0
LINE
  8
0
 10
-235.000015
 20
164.500000
 11
-228.800018
 21
164.500000
  0
LINE
  8
0
 10
-221.500000
 20
140.000000
 11
-221.500000
 21
120.000000
  0
LINE
  8
0
 10
-213.300003
 20
140.000000
 11
-213.300003
 21
118.297394
  0
LINE
  8
0
 10
-212.099991
 20
140.000000
 11
-212.099991
 21
111.968781
  0
LINE
  8
0
 10
-221.500000
 20
140.000000
 11
-212.099991
 21
140.000000
  0
LINE
  8
0
 10
-211.299988
 20
137.500000
 11
-211.299988
 21
122.500008
  0
LINE
  8
0
 10
-212.099991
 20
137.500000
 11
-211.299988
 21
137.500000
  0
LINE
  8
0
 10
-212.099991
 20
122.500000
 11
-211.299988
 21
122.500000
  0
LINE
  8
0
 10
-221.500000
 20
120.000000
 11
-213.300003
 21
120.000000
  0
LINE
  8
0
 10
-219.500000
 20
102.352142
 11
-212.099991
 21
102.352142
  0
LINE
  8
0
 10
-220.299988
 20
100.372238
 11
-211.300003
 21
100.372238
  0
LINE
  8
0
 10
-220.299988
 20
94.922485
 11
-211.300003
 21
94.922485
  0
LINE
  8
0
 10
-219.500000
 20
94.073959
 11
-212.099991
 21
94.073959
  0
LINE
  8
0
 10
-219.500000
 20
106.736191
 11
-212.099991
 21
106.736191
  0
LINE
  8
0
 10
-211.600006
 20
106.236191
 11
-211.600006
 21
101.437927
  0
LINE
  8
0
 10
-210.800003
 20
104.821983
 11
-210.800003
 21
95.422485
  0
LINE
  8
0
 10
-220.000000
 20
106.236191
 11
-220.000000
 21
101.437927
  0
LINE
  8
0
 10
-220.799988
 20
104.821983
 11
-220.799988
 21
95.422485
  0
LINE
  8
0
 10
-219.500000
 20
100.937927
 11
-212.099991
 21
100.937927
  0
LINE
  8
0
 10
-221.300003
 20
105.321983
 11
-220.000000
 21
105.321983
  0
LINE
  8
0
 10
-220.000000
 20
94.922485
 11
-220.000000
 21
94.573959
  0
LINE
  8
0
 10
-211.600006
 20
94.922485
 11
-211.600006
 21
94.573959
  0
LINE
  8
0
 10
-211.599991
 20
105.321983
 11
-210.299988
 21
105.321983
  0
LINE
  8
0
 10
-227.300003
 20
105.039139
 11
-221.300003
 21
105.039139
  0
LINE
  8
0
 10
-210.299988
 20
105.321983
 11
-210.299988
 21
99.382286
  0
LINE
  8
0
 10
-221.300003
 20
105.321983
 11
-221.300003
 21
99.382278
  0
LINE
  8
0
 10
-212.299988
 20
112.534470
 11
-212.299988
 21
106.736191
  0
LINE
  8
0
 10
-219.299988
 20
112.534470
 11
-219.299988
 21
106.736191
  0
LINE
  8
0
 10
-210.299988
 20
105.039139
 11
-205.299988
 21
105.039139
  0
LINE
  8
0
 10
-214.299957
 20
109.706047
 11
-214.299957
 21
112.534470
  0
LINE
  8
0
 10
-217.300003
 20
109.706039
 11
-217.300003
 21
112.534470
  0
LINE
  8
0
 10
-214.299988
 20
112.534470
 11
-212.299988
 21
112.534470
  0
LINE
  8
0
 10
-205.299988
 20
110.483864
 11
-205.299988
 21
99.382286
  0
LINE
  8
0
 10
-227.300003
 20
111.615250
 11
-227.300003
 21
101.255341
  0
LINE
  8
0
 10
-227.300003
 20
99.382278
 11
-221.300003
 21
99.382278
  0
LINE
  8
0
 10
-221.300003
 20
99.665123
 11
-220.799988
 21
99.665123
  0
LINE
  8
0
 10
-210.800003
 20
99.665123
 11
-210.299988
 21
99.665123
  0
LINE
  8
0
 10
-210.299988
 20
99.382278
 11
-205.299988
 21
99.382278
  0
LINE
  8
0
 10
-227.300003
 20
110.483864
 11
-219.299988
 21
110.483864
  0
LINE
  8
0
 10
-217.300003
 20
110.908127
 11
-214.300003
 21
110.908127
  0
LINE
  8
0
 10
-217.300003
 20
111.968781
 11
-214.299988
 21
111.968781
  0
LINE
  8
0
 10
-217.300003
 20
110.483864
 11
-214.300003
 21
110.483864
  0
LINE
  8
0
 10
-212.299988
 20
110.483864
 11
-205.299988
 21
110.483864
  0
LINE
  8
0
 10
-212.299988
 20
110.908127
 11
-207.299988
 21
110.908127
  0
LINE
  8
0
 10
-212.299988
 20
111.968781
 11
-207.299988
 21
111.968781
  0
LINE
  8
0
 10
-207.299988
 20
111.968781
 11
-207.299988
 21
110.483864
  0
LINE
  8
0
 10
-220.299988
 20
111.615250
 11
-219.299988
 21
110.908142
  0
LINE
  8
0
 10
-220.299988
 20
112.675896
 11
-219.299988
 21
111.968796
  0
LINE
  8
0
 10
-228.800003
 20
112.675903
 11
-220.299988
 21
112.675903
  0
LINE
  8
0
 10
-227.300003
 20
111.615250
 11
-220.299988
 21
111.615250
  0
LINE
  8
0
 10
-220.299988
 20
112.675903
 11
-220.299988
 21
111.615250
  0
LINE
  8
0
 10
-203.300003
 20
106.832031
 11
-203.300003
 21
101.832031
  0
LINE
  8
0
 10
-205.299988
 20
106.832031
 11
-203.300003
 21
106.832031
  0
LINE
  8
0
 10
-203.300003
 20
106.332031
 11
-188.222092
 21
106.332031
  0
LINE
  8
0
 10
-203.300003
 20
102.332031
 11
-188.222076
 21
102.332031
  0
LINE
  8
0
 10
-205.299988
 20
101.832031
 11
-203.300003
 21
101.832031
  0
LINE
  8
0
 10
-240.799988
 20
109.397911
 11
-239.300003
 21
109.397911
  0
LINE
  8
0
 10
-242.299988
 20
108.326416
 11
-239.300003
 21
108.326416
  0
LINE
  8
0
 10
-242.299988
 20
101.255341
 11
-239.300003
 21
101.255341
  0
LINE
  8
0
 10
-228.800003
 20
101.255341
 11
-228.800003
 21
95.500000
  0
LINE
  8
0
 10
-242.299988
 20
111.403114
 11
-242.299988
 21
101.255341
  0
LINE
  8
0
 10
-240.799988
 20
110.255829
 11
-240.799988
 21
109.397911
  0
LINE
  8
0
 10
-239.300003
 20
112.463776
 11
-239.300003
 21
108.326416
  0
LINE
  8
0
 10
-235.300003
 20
112.463776
 11
-235.300003
 21
108.326416
  0
LINE
  8
0
 10
-235.300003
 20
109.397911
 11
-228.800003
 21
109.397911
  0
LINE
  8
0
 10
-239.300003
 20
109.558731
 11
-235.300003
 21
109.558731
  0
LINE
  8
0
 10
-239.300003
 20
100.366341
 11
-235.300003
 21
100.366341
  0
LINE
  8
0
 10
-235.300003
 20
101.255341
 11
-227.300003
 21
101.255341
  0
LINE
  8
0
 10
-235.300003
 20
108.326416
 11
-227.300003
 21
108.326416
  0
LINE
  8
0
 10
-239.300003
 20
101.255341
 11
-239.300003
 21
100.366341
  0
LINE
  8
0
 10
-235.300003
 20
101.255341
 11
-235.300003
 21
100.366341
  0
LINE
  8
0
 10
-235.000000
 20
101.255341
 11
-235.000000
 21
95.500000
  0
LINE
  8
0
 10
-239.300003
 20
112.463776
 11
-235.300003
 21
112.463776
  0
LINE
  8
0
 10
-242.299988
 20
111.403114
 11
-239.300003
 21
111.403114
  0
LINE
  8
0
 10
-242.299988
 20
110.255829
 11
-239.300003
 21
110.255829
  0
LINE
  8
0
 10
-235.300003
 20
111.403114
 11
-235.000000
 21
111.403114
  0
LINE
  8
0
 10
-235.300003
 20
110.255829
 11
-235.000000
 21
110.255829
  0
LINE
  8
0
 10
-219.299988
 20
114.761856
 11
-212.099991
 21
114.761856
  0
LINE
  8
0
 10
-219.299988
 20
118.297386
 11
-212.099991
 21
118.297386
  0
LINE
  8
0
 10
-219.299988
 20
118.297394
 11
-219.299988
 21
112.675903
  0
LINE
  8
0
 10
-219.299988
 20
113.913330
 11
-213.300003
 21
113.913330
  0
LINE
  8
0
 10
-213.300003
 20
113.913330
 11
-213.300003
 21
112.534470
  0
LINE
  8
0
 10
-217.500000
 20
142.162247
 11
-220.964111
 21
140.748032
  0
LINE
  8
0
 10
-220.964081
 20
140.748032
 11
-220.964081
 21
140.000000
  0
LINE
  8
0
 10
-214.035873
 20
140.748032
 11
-217.499985
 21
142.162247
  0
LINE
  8
0
 10
-214.035889
 20
140.000000
 11
-214.035889
 21
140.748032
  0
LINE
  8
0
 10
-217.499985
 20
142.162247
 11
-217.499985
 21
140.000000
  0
LINE
  8
0
 10
-215.500000
 20
142.025269
 11
-215.500000
 21
141.345764
  0
LINE
  8
0
 10
-219.499969
 20
142.029816
 11
-219.499969
 21
141.345764
  0
LINE
  8
0
 10
-188.222076
 20
106.332031
 11
-188.222076
 21
102.332031
  0
LINE
  8
0
 10
-188.222076
 20
104.032028
 11
-185.222076
 21
104.032028
  0
LINE
  8
0
 10
-188.222076
 20
104.632027
 11
-185.222076
 21
104.632027
  0
LINE
  8
0
 10
-188.222076
 20
103.032028
 11
-185.222076
 21
103.032028
  0
LINE
  8
0
 10
-188.222076
 20
105.632027
 11
-185.222076
 21
105.632027
  0
LINE
  8
0
 10
-185.222076
 20
105.632027
 11
-185.222076
 21
104.632027
  0
LINE
  8
0
 10
-185.222076
 20
104.032028
 11
-185.222076
 21
103.032028
  0
LINE
  8
0
 10
-185.222076
 20
105.507027
 11
-183.722076
 21
105.507027
  0
LINE
  8
0
 10
-185.222076
 20
105.382027
 11
-183.722076
 21
105.382027
  0
LINE
  8
0
 10
-185.222076
 20
105.257027
 11
-183.722076
 21
105.257027
  0
LINE
  8
0
 10
-185.222076
 20
105.132027
 11
-183.722076
 21
105.132027
  0
LINE
  8
0
 10
-185.222076
 20
105.007027
 11
-183.722076
 21
105.007027
  0
LINE
  8
0
 10
-185.222076
 20
104.882027
 11
-183.722076
 21
104.882027
  0
LINE
  8
0
 10
-185.222076
 20
104.757027
 11
-183.722076
 21
104.757027
  0
LINE
  8
0
 10
-185.222076
 20
103.907028
 11
-183.722076
 21
103.907028
  0
LINE
  8
0
 10
-185.222076
 20
103.782028
 11
-183.722076
 21
103.782028
  0
LINE
  8
0
 10
-185.222076
 20
103.657028
 11
-183.722076
 21
103.657028
  0
LINE
  8
0
 10
-185.222076
 20
103.532028
 11
-183.722076
 21
103.532028
  0
LINE
  8
0
 10
-185.222076
 20
103.407028
 11
-183.722076
 21
103.407028
  0
LINE
  8
0
 10
-185.222076
 20
103.282028
 11
-183.722076
 21
103.282028
  0
LINE
  8
0
 10
-185.222076
 20
103.157028
 11
-183.722076
 21
103.157028
  0
LINE
  8
0
 10
-227.300003
 20
101.255341
 11
-227.300003
 21
99.382278
  0
LINE
  8
0
 10
-227.500000
 20
142.199997
 11
-227.500000
 21
135.296600
  0
LINE
  8
0
 10
-210.500000
 20
135.449997
 11
-210.500000
 21
124.550003
  0
LINE
  8
0
 10
-244.000000
 20
159.000000
 11
-244.000000
 21
101.000000
  0
LINE
  8
0
 10
-227.500000
 20
124.000000
 11
-224.050003
 21
124.000000
  0
LINE
  8
0
 10
-227.500000
 20
136.000000
 11
-224.050003
 21
136.000000
  0
LINE
  8
0
 10
-228.800003
 20
142.500000
 11
-227.800003
 21
142.500000
  0
LINE
  8
0
 10
-241.176620
 20
155.235504
 11
-235.000000
 21
155.235504
  0
LINE
  8
0
 10
-227.499985
 20
142.200012
 11
-227.799988
 21
142.500015
  0
LINE
  8
0
 10
-244.000061
 20
101.000038
 11
-242.300003
 21
103.266792
  0
LINE
  8
0
 10
-244.000046
 20
158.999969
 11
-241.000046
 21
154.999954
  0
LINE
  8
0
 10
-224.000000
 20
135.949997
 11
-224.000000
 21
124.049995
  0
LINE
  8
0
 10
-224.000000
 20
124.050003
 11
-221.500000
 21
124.050003
  0
LINE
  8
0
 10
-224.000000
 20
135.949997
 11
-221.500000
 21
135.949997
  0
LINE
  8
0
 10
-211.000015
 20
124.050026
 11
-210.500031
 21
124.550018
  0
LINE
  8
0
 10
-211.000061
 20
135.949951
 11
-210.500061
 21
135.449951
  0
LINE
  8
0
 10
-211.000000
 20
135.949997
 11
-211.000000
 21
124.050003
  0
LINE
  8
0
 10
-224.049988
 20
136.000015
 11
-223.999985
 21
135.950012
  0
LINE
  8
0
 10
-224.050018
 20
123.999985
 11
-224.000031
 21
124.049980
  0
LINE
  8
0
 10
-223.500137
 20
128.745087
 11
-221.500000
 21
128.745087
  0
LINE
  8
0
 10
-223.500076
 20
124.183838
 11
-221.500000
 21
124.183838
  0
LINE
  8
0
 10
-223.500076
 20
124.183838
 11
-221.500000
 21
124.913666
  0
LINE
  8
0
 10
-211.000000
 20
128.745071
 11
-210.499985
 21
128.992004
  0
LINE
  8
0
 10
-211.000061
 20
124.183899
 11
-210.500061
 21
124.644081
  0
LINE
  8
0
 10
-211.000031
 20
124.183800
 11
-211.299988
 21
124.293259
  0
LINE
  8
0
 10
-223.500000
 20
131.254913
 11
-221.500000
 21
131.254913
  0
LINE
  8
0
 10
-211.000015
 20
135.816147
 11
-211.299988
 21
135.706696
  0
LINE
  8
0
 10
-223.500076
 20
135.816162
 11
-221.500000
 21
135.086334
  0
LINE
  8
0
 10
-211.000000
 20
131.254944
 11
-210.499985
 21
131.008011
  0
LINE
  8
0
 10
-223.500076
 20
135.816162
 11
-221.500000
 21
135.816162
  0
LINE
  8
0
 10
-211.000000
 20
135.816162
 11
-210.500000
 21
135.355988
  0
LINE
  8
0
 10
-241.000000
 20
148.421844
 11
-241.000000
 21
136.750000
  0
LINE
  8
0
 10
-241.000000
 20
123.250000
 11
-241.000000
 21
111.578148
  0
LINE
  8
0
 10
-240.000000
 20
135.750000
 11
-235.000000
 21
135.750000
  0
LINE
  8
0
 10
-240.000000
 20
124.250000
 11
-235.000000
 21
124.250000
  0
LINE
  8
0
 10
-227.500000
 20
117.800003
 11
-228.800003
 21
117.800003
  0
LINE
  8
0
 10
-227.500000
 20
124.703392
 11
-227.500000
 21
117.800003
  0
LINE
  8
0
 10
-211.299988
 20
135.949997
 11
-211.000000
 21
135.949997
  0
LINE
  8
0
 10
-211.299988
 20
124.050003
 11
-211.000000
 21
124.050003
  0
LINE
  8
0
 10
-217.300003
 20
112.534470
 11
-219.299988
 21
112.534470
  0
LINE
  8
0
 10
-223.500076
 20
135.816162
 11
-223.500000
 21
131.254913
  0
LINE
  8
0
 10
-223.500137
 20
128.745087
 11
-223.500076
 21
124.183838
  0
LINE
  8
0
 10
-211.299988
 20
131.364349
 11
-211.000015
 21
131.254883
  0
LINE
  8
0
 10
-221.500000
 20
131.984711
 11
-223.500000
 21
131.254898
  0
LINE
  8
0
 10
-211.299988
 20
131.254913
 11
-211.000000
 21
131.254913
  0
LINE
  8
0
 10
-211.299988
 20
128.745087
 11
-211.000000
 21
128.745087
  0
LINE
  8
0
 10
-221.500000
 20
128.015244
 11
-223.500137
 21
128.745102
  0
LINE
  8
0
 10
-211.299988
 20
128.635651
 11
-211.000031
 21
128.745117
  0
LINE
  8
0
 10
-211.299988
 20
135.816162
 11
-211.000000
 21
135.816162
  0
LINE
  8
0
 10
-211.299988
 20
124.183838
 11
-211.000000
 21
124.183838
  0
ARC
  8
0
 10
-232.144592
 20
130.000000
 40
7.044596
 50
298.344604
 51
61.655350
  0
ARC
  8
0
 10
-219.500000
 20
106.236191
 40
0.500000
 50
90.000000
 51
180.000000
  0
ARC
  8
0
 10
-212.099991
 20
106.236191
 40
0.500000
 50
0.000000
 51
90.000000
  0
ARC
  8
0
 10
-211.300003
 20
104.821983
 40
0.500000
 50
0.000000
 51
90.000000
  0
ARC
  8
0
 10
-220.299988
 20
104.821983
 40
0.500000
 50
90.000000
 51
180.000000
  0
ARC
  8
0
 10
-220.299988
 20
95.422485
 40
0.500000
 50
180.000000
 51
270.000000
  0
ARC
  8
0
 10
-211.300003
 20
95.422485
 40
0.500000
 50
270.000000
 51
0.000000
  0
ARC
  8
0
 10
-212.099991
 20
94.573959
 40
0.500000
 50
270.000000
 51
0.000000
  0
ARC
  8
0
 10
-219.500000
 20
94.573959
 40
0.500000
 50
180.000000
 51
270.000000
  0
ARC
  8
0
 10
-212.099991
 20
101.437927
 40
0.500000
 50
270.000000
 51
0.000000
  0
ARC
  8
0
 10
-219.500000
 20
101.437927
 40
0.500000
 50
180.000000
 51
270.000000
  0
ARC
  8
0
 10
-240.000000
 20
136.750000
 40
1.000000
 50
180.000000
 51
270.000000
  0
ARC
  8
0
 10
-240.000000
 20
123.250000
 40
1.000000
 50
90.000000
 51
180.000000
  0
ARC
  8
0
 10
-216.544296
 20
109.706039
 40
0.755692
 50
180.000000
 51
194.106384
  0
ARC
  8
0
 10
-216.346741
 20
109.778465
 40
0.965201
 50
195.417969
 51
231.388992
  0
ARC
  8
0
 10
-215.799988
 20
110.577271
 40
1.931886
 50
233.502457
 51
306.497528
  0
ARC
  8
0
 10
-215.253235
 20
109.778465
 40
0.965195
 50
308.610992
 51
344.582031
  0
ARC
  8
0
 10
-215.055679
 20
109.706039
 40
0.755698
 50
345.893616
 51
0.000000
  0
ARC
  8
0
 10
-238.119705
 20
104.790878
 40
2.130295
 50
176.237045
 51
191.773209
  0
ARC
  8
0
 10
-237.902145
 20
104.857346
 40
2.356930
 50
192.275894
 51
225.305573
  0
ARC
  8
0
 10
-237.300003
 20
105.590446
 40
3.302724
 50
226.824829
 51
313.174988
  0
ARC
  8
0
 10
-236.697861
 20
104.857346
 40
2.356934
 50
314.694183
 51
347.723724
  0
ARC
  8
0
 10
-236.480301
 20
104.790878
 40
2.130298
 50
348.226379
 51
356.237244
  0
ARC
  8
0
 10
-223.581314
 20
102.210709
 40
0.425080
 50
345.893921
 51
14.107077
  0
ARC
  8
0
 10
-223.692444
 20
102.169975
 40
0.542930
 50
15.417746
 51
51.388477
  0
ARC
  8
0
 10
-223.999985
 20
101.720642
 40
1.086690
 50
53.502678
 51
126.497559
  0
ARC
  8
0
 10
-224.307526
 20
102.169968
 40
0.542927
 50
128.611526
 51
164.582260
  0
ARC
  8
0
 10
-224.418655
 20
102.210709
 40
0.425080
 50
165.893921
 51
194.107071
  0
ARC
  8
0
 10
-224.307526
 20
102.251442
 40
0.542930
 50
195.417740
 51
231.388474
  0
ARC
  8
0
 10
-223.999985
 20
102.700775
 40
1.086690
 50
233.502686
 51
306.497559
  0
ARC
  8
0
 10
-223.692444
 20
102.251450
 40
0.542927
 50
308.611511
 51
344.582245
  0
ARC
  8
0
 10
-235.836212
 20
104.790878
 40
1.486211
 50
354.668640
 51
14.106581
  0
ARC
  8
0
 10
-236.224747
 20
104.648445
 40
1.898239
 50
15.417928
 51
51.388382
  0
ARC
  8
0
 10
-237.300003
 20
103.077499
 40
3.799348
 50
53.502098
 51
126.497902
  0
ARC
  8
0
 10
-238.375259
 20
104.648445
 40
1.898234
 50
128.611618
 51
164.582291
  0
ARC
  8
0
 10
-238.763794
 20
104.790878
 40
1.486207
 50
165.893707
 51
185.354126
  0
ARC
  8
0
 10
-237.300018
 20
108.192398
 40
4.532875
 50
245.098007
 51
294.888367
  0
ARC
  8
0
 10
-223.255676
 20
102.210709
 40
0.755698
 50
345.893616
 51
14.106391
  0
ARC
  8
0
 10
-223.453232
 20
102.138283
 40
0.965201
 50
15.417976
 51
51.388996
  0
ARC
  8
0
 10
-223.999985
 20
101.339485
 40
1.931880
 50
53.502323
 51
126.497673
  0
ARC
  8
0
 10
-224.546738
 20
102.138283
 40
0.965195
 50
128.611008
 51
164.582031
  0
ARC
  8
0
 10
-224.744293
 20
102.210709
 40
0.755698
 50
165.893616
 51
194.106384
  0
ARC
  8
0
 10
-224.546738
 20
102.283134
 40
0.965201
 50
195.417969
 51
231.388992
  0
ARC
  8
0
 10
-223.999985
 20
103.081932
 40
1.931880
 50
233.502319
 51
306.497681
  0
ARC
  8
0
 10
-223.453232
 20
102.283134
 40
0.965195
 50
308.610992
 51
344.582031
  0
ARC
  8
0
 10
-216.619690
 20
97.543808
 40
2.130294
 50
176.237244
 51
191.773209
  0
ARC
  8
0
 10
-216.402130
 20
97.610275
 40
2.356930
 50
192.275894
 51
225.305573
  0
ARC
  8
0
 10
-215.799988
 20
98.343376
 40
3.302724
 50
226.824829
 51
313.174988
  0
ARC
  8
0
 10
-215.197845
 20
97.610275
 40
2.356934
 50
314.694183
 51
347.723724
  0
ARC
  8
0
 10
-214.980286
 20
97.543808
 40
2.130298
 50
348.226379
 51
356.237030
  0
ARC
  8
0
 10
-214.336197
 20
97.543808
 40
1.486211
 50
354.668640
 51
14.106581
  0
ARC
  8
0
 10
-214.724731
 20
97.401375
 40
1.898239
 50
15.417928
 51
51.388382
  0
ARC
  8
0
 10
-215.799988
 20
95.830429
 40
3.799348
 50
53.502098
 51
126.497902
  0
ARC
  8
0
 10
-216.875244
 20
97.401375
 40
1.898234
 50
128.611618
 51
164.582291
  0
ARC
  8
0
 10
-217.263779
 20
97.543808
 40
1.486207
 50
165.893707
 51
185.354416
  0
ARC
  8
0
 10
-215.800003
 20
100.945312
 40
4.532881
 50
245.097824
 51
294.888367
  0
ARC
  8
0
 10
-216.706360
 20
142.020813
 40
2.862149
 50
3.361654
 51
11.306458
  0
ARC
  8
0
 10
-216.917007
 20
141.959030
 40
3.080874
 50
11.665107
 51
43.965561
  0
ARC
  8
0
 10
-217.500000
 20
141.277634
 40
3.974458
 50
45.201271
 51
134.799500
  0
ARC
  8
0
 10
-218.082993
 20
141.959030
 40
3.080867
 50
136.035446
 51
168.336060
  0
ARC
  8
0
 10
-218.293640
 20
142.020813
 40
2.862145
 50
168.694794
 51
178.338379
  0
ARC
  8
0
 10
-216.507599
 20
142.020813
 40
1.007606
 50
359.789154
 51
14.106320
  0
ARC
  8
0
 10
-216.770996
 20
141.924255
 40
1.286927
 50
15.417600
 51
51.388676
  0
ARC
  8
0
 10
-217.500000
 20
140.859177
 40
2.575851
 50
53.502369
 51
126.497635
  0
ARC
  8
0
 10
-218.229004
 20
141.924240
 40
1.286937
 50
128.610901
 51
164.581741
  0
ARC
  8
0
 10
-218.492401
 20
142.020813
 40
1.007603
 50
165.893677
 51
180.568329
  0
ARC
  8
0
 10
-216.167465
 20
142.197327
 40
2.352350
 50
324.592285
 51
344.582336
  0
ARC
  8
0
 10
-215.685989
 20
142.020813
 40
1.841760
 50
345.893982
 51
14.106933
  0
ARC
  8
0
 10
-216.167465
 20
141.844299
 40
2.352361
 50
15.418393
 51
51.388714
  0
ARC
  8
0
 10
-217.500000
 20
139.897461
 40
4.708373
 50
53.502361
 51
126.497749
  0
ARC
  8
0
 10
-218.832535
 20
141.844299
 40
2.352356
 50
128.611511
 51
164.582321
  0
ARC
  8
0
 10
-219.314011
 20
142.020813
 40
1.841760
 50
165.893982
 51
194.106934
  0
ARC
  8
0
 10
-218.832535
 20
142.197327
 40
2.352361
 50
195.418396
 51
215.377914
  0
POLYLINE
  8
0
 66
     1
  0
VERTEX
  8
0
 10
-241.000000
 20
123.250000
  0
VERTEX
  8
0
 10
-240.950134
 20
123.749786
  0
VERTEX
  8
0
 10
-241.000000
 20
124.250000
  0
VERTEX
  8
0
 10
-241.141968
 20
124.708038
  0
VERTEX
  8
0
 10
-241.405502
 20
125.151512
  0
VERTEX
  8
0
 10
-241.873978
 20
125.665482
  0
VERTEX
  8
0
 10
-242.290314
 20
126.112198
  0
VERTEX
  8
0
 10
-242.427673
 20
126.307999
  0
VERTEX
  8
0
 10
-242.613358
 20
126.666664
  0
VERTEX
  8
0
 10
-243.004776
 20
127.583206
  0
VERTEX
  8
0
 10
-243.272202
 20
128.484848
  0
VERTEX
  8
0
 10
-243.389069
 20
129.237106
  0
VERTEX
  8
0
 10
-243.425430
 20
130.000000
  0
VERTEX
  8
0
 10
-243.394501
 20
130.737808
  0
VERTEX
  8
0
 10
-243.272202
 20
131.515152
  0
VERTEX
  8
0
 10
-242.963379
 20
132.514832
  0
VERTEX
  8
0
 10
-242.613358
 20
133.333344
  0
VERTEX
  8
0
 10
-242.488251
 20
133.585922
  0
VERTEX
  8
0
 10
-242.290314
 20
133.887802
  0
VERTEX
  8
0
 10
-241.837433
 20
134.383530
  0
VERTEX
  8
0
 10
-241.405502
 20
134.848480
  0
VERTEX
  8
0
 10
-241.154053
 20
135.275360
  0
VERTEX
  8
0
 10
-241.000000
 20
135.750000
  0
VERTEX
  8
0
 10
-240.949982
 20
136.250916
  0
VERTEX
  8
0
 10
-241.000000
 20
136.750000
  0
SEQEND
  0
POLYLINE
  8
0
 66
     1
  0
VERTEX
  8
0
 10
-241.203735
 20
155.491226
  0
VERTEX
  8
0
 10
-242.048935
 20
155.257584
  0
VERTEX
  8
0
 10
-242.834610
 20
154.871887
  0
VERTEX
  8
0
 10
-243.417755
 20
154.230057
  0
VERTEX
  8
0
 10
-243.526230
 20
153.389465
  0
VERTEX
  8
0
 10
-243.216583
 20
152.410858
  0
VERTEX
  8
0
 10
-242.704926
 20
151.443451
  0
VERTEX
  8
0
 10
-242.207336
 20
150.636414
  0
VERTEX
  8
0
 10
-241.814056
 20
149.972717
  0
VERTEX
  8
0
 10
-241.459198
 20
149.333664
  0
VERTEX
  8
0
 10
-241.203735
 20
148.843903
  0
VERTEX
  8
0
 10
-241.100906
 20
148.633865
  0
VERTEX
  8
0
 10
-241.000000
 20
148.421844
  0
SEQEND
  0
POLYLINE
  8
0
 66
     1
  0
VERTEX
  8
0
 10
-242.299164
 20
109.215736
  0
VERTEX
  8
0
 10
-242.816193
 20
108.296616
  0
VERTEX
  8
0
 10
-243.249222
 20
107.314774
  0
VERTEX
  8
0
 10
-243.486862
 20
106.421967
  0
VERTEX
  8
0
 10
-243.417755
 20
105.769951
  0
VERTEX
  8
0
 10
-242.926117
 20
105.251350
  0
VERTEX
  8
0
 10
-242.299957
 20
104.876472
  0
SEQEND
  0
POINT
  8
0
 10
-210.500000
 20
35.000000
  0
POINT
  8
0
 10
-230.000000
 20
35.000000
  0
LINE
  8
0
 10
-228.800003
 20
69.500000
 11
-228.800003
 21
63.744656
  0
LINE
  8
0
 10
-235.000000
 20
69.500000
 11
-235.000000
 21
63.744656
  0
LINE
  8
0
 10
-235.000000
 20
0.500000
 11
-228.799988
 21
0.500000
  0
LINE
  8
0
 10
-235.000015
 20
69.500000
 11
-228.800018
 21
69.500000
  0
LINE
  8
0
 10
-221.500000
 20
25.000000
 11
-221.500000
 21
45.000000
  0
LINE
  8
0
 10
-213.300003
 20
24.999996
 11
-213.300003
 21
46.702614
  0
LINE
  8
0
 10
-212.099991
 20
24.999996
 11
-212.099991
 21
53.031219
  0
LINE
  8
0
 10
-221.500000
 20
25.000000
 11
-212.099991
 21
25.000000
  0
LINE
  8
0
 10
-211.299988
 20
27.499996
 11
-211.299988
 21
42.499996
  0
LINE
  8
0
 10
-212.099991
 20
27.500000
 11
-211.299988
 21
27.500000
  0
LINE
  8
0
 10
-212.099991
 20
42.500000
 11
-211.299988
 21
42.500000
  0
LINE
  8
0
 10
-221.500000
 20
45.000000
 11
-213.300003
 21
45.000000
  0
LINE
  8
0
 10
-219.500000
 20
7.352139
 11
-212.099991
 21
7.352139
  0
LINE
  8
0
 10
-220.299988
 20
5.372234
 11
-211.300003
 21
5.372234
  0
LINE
  8
0
 10
-220.299988
 20
-0.077515
 11
-211.300003
 21
-0.077515
  0
LINE
  8
0
 10
-219.500000
 20
-0.926044
 11
-212.099991
 21
-0.926044
  0
LINE
  8
0
 10
-219.500000
 20
11.736193
 11
-212.099991
 21
11.736193
  0
LINE
  8
0
 10
-211.600006
 20
11.236195
 11
-211.600006
 21
6.437929
  0
LINE
  8
0
 10
-210.800003
 20
9.821983
 11
-210.800003
 21
0.422485
  0
LINE
  8
0
 10
-220.000000
 20
11.236193
 11
-220.000000
 21
6.437927
  0
LINE
  8
0
 10
-220.799988
 20
9.821981
 11
-220.799988
 21
0.422485
  0
LINE
  8
0
 10
-219.500000
 20
5.937927
 11
-212.099991
 21
5.937927
  0
LINE
  8
0
 10
-221.300003
 20
10.321981
 11
-220.000000
 21
10.321981
  0
LINE
  8
0
 10
-220.000000
 20
-0.077515
 11
-220.000000
 21
-0.426044
  0
LINE
  8
0
 10
-211.600006
 20
-0.077515
 11
-211.600006
 21
-0.426044
  0
LINE
  8
0
 10
-211.599991
 20
10.321981
 11
-210.299988
 21
10.321981
  0
LINE
  8
0
 10
-227.300003
 20
10.039137
 11
-221.300003
 21
10.039137
  0
LINE
  8
0
 10
-210.299988
 20
10.321981
 11
-210.299988
 21
4.382284
  0
LINE
  8
0
 10
-221.300003
 20
10.321981
 11
-221.300003
 21
4.382282
  0
LINE
  8
0
 10
-212.299988
 20
17.534472
 11
-212.299988
 21
11.736195
  0
LINE
  8
0
 10
-219.299988
 20
17.534470
 11
-219.299988
 21
11.736193
  0
LINE
  8
0
 10
-210.299988
 20
10.039137
 11
-205.299988
 21
10.039137
  0
LINE
  8
0
 10
-214.299957
 20
14.706045
 11
-214.299957
 21
17.534470
  0
LINE
  8
0
 10
-217.300003
 20
14.706038
 11
-217.300003
 21
17.534468
  0
LINE
  8
0
 10
-219.299988
 20
17.534470
 11
-217.300003
 21
17.534470
  0
LINE
  8
0
 10
-214.299988
 20
17.534470
 11
-212.299988
 21
17.534470
  0
LINE
  8
0
 10
-205.299988
 20
15.483864
 11
-205.299988
 21
4.382284
  0
LINE
  8
0
 10
-227.300003
 20
16.615253
 11
-227.300003
 21
6.255344
  0
LINE
  8
0
 10
-227.300003
 20
4.382282
 11
-221.300003
 21
4.382282
  0
LINE
  8
0
 10
-221.300003
 20
4.665125
 11
-220.799988
 21
4.665125
  0
LINE
  8
0
 10
-210.800003
 20
4.665125
 11
-210.299988
 21
4.665125
  0
LINE
  8
0
 10
-210.299988
 20
4.382282
 11
-205.299988
 21
4.382282
  0
LINE
  8
0
 10
-227.300003
 20
15.483862
 11
-219.299988
 21
15.483862
  0
LINE
  8
0
 10
-217.300003
 20
15.908125
 11
-214.300003
 21
15.908125
  0
LINE
  8
0
 10
-217.300003
 20
16.968779
 11
-214.299988
 21
16.968779
  0
LINE
  8
0
 10
-217.300003
 20
15.483862
 11
-214.300003
 21
15.483862
  0
LINE
  8
0
 10
-212.299988
 20
15.483862
 11
-205.299988
 21
15.483862
  0
LINE
  8
0
 10
-212.299988
 20
15.908125
 11
-207.299988
 21
15.908125
  0
LINE
  8
0
 10
-212.299988
 20
16.968779
 11
-207.299988
 21
16.968779
  0
LINE
  8
0
 10
-207.299988
 20
16.968781
 11
-207.299988
 21
15.483864
  0
LINE
  8
0
 10
-220.299973
 20
16.615253
 11
-219.299988
 21
15.908150
  0
LINE
  8
0
 10
-220.299988
 20
17.675901
 11
-219.299988
 21
16.968798
  0
LINE
  8
0
 10
-228.800003
 20
17.675907
 11
-220.299988
 21
17.675907
  0
LINE
  8
0
 10
-227.300003
 20
16.615253
 11
-220.299988
 21
16.615253
  0
LINE
  8
0
 10
-220.299988
 20
17.675907
 11
-220.299988
 21
16.615253
  0
LINE
  8
0
 10
-203.300003
 20
11.832031
 11
-203.300003
 21
6.832031
  0
LINE
  8
0
 10
-205.299988
 20
11.832029
 11
-203.300003
 21
11.832029
  0
LINE
  8
0
 10
-203.300003
 20
11.332029
 11
-188.222092
 21
11.332029
  0
LINE
  8
0
 10
-203.300003
 20
7.332029
 11
-188.222076
 21
7.332029
  0
LINE
  8
0
 10
-205.299988
 20
6.832029
 11
-203.300003
 21
6.832029
  0
LINE
  8
0
 10
-240.799988
 20
14.397913
 11
-239.300003
 21
14.397913
  0
LINE
  8
0
 10
-242.299988
 20
13.326418
 11
-239.300003
 21
13.326418
  0
LINE
  8
0
 10
-242.299988
 20
6.255344
 11
-239.300003
 21
6.255344
  0
LINE
  8
0
 10
-228.800003
 20
6.255344
 11
-228.800003
 21
0.500000
  0
LINE
  8
0
 10
-242.299988
 20
16.403116
 11
-242.299988
 21
6.255344
  0
LINE
  8
0
 10
-240.799988
 20
15.255829
 11
-240.799988
 21
14.397913
  0
LINE
  8
0
 10
-239.300003
 20
17.463774
 11
-239.300003
 21
13.326418
  0
LINE
  8
0
 10
-235.300003
 20
17.463774
 11
-235.300003
 21
13.326418
  0
LINE
  8
0
 10
-235.300003
 20
14.397913
 11
-228.800003
 21
14.397913
  0
LINE
  8
0
 10
-239.300003
 20
14.558729
 11
-235.300003
 21
14.558729
  0
LINE
  8
0
 10
-239.300003
 20
5.366339
 11
-235.300003
 21
5.366339
  0
LINE
  8
0
 10
-235.300003
 20
6.255344
 11
-227.300003
 21
6.255344
  0
LINE
  8
0
 10
-235.300003
 20
13.326418
 11
-227.300003
 21
13.326418
  0
LINE
  8
0
 10
-239.300003
 20
6.255344
 11
-239.300003
 21
5.366339
  0
LINE
  8
0
 10
-235.300003
 20
6.255344
 11
-235.300003
 21
5.366339
  0
LINE
  8
0
 10
-235.000000
 20
6.255344
 11
-235.000000
 21
0.500000
  0
LINE
  8
0
 10
-239.300003
 20
17.463774
 11
-235.300003
 21
17.463774
  0
LINE
  8
0
 10
-242.299988
 20
16.403116
 11
-239.300003
 21
16.403116
  0
LINE
  8
0
 10
-242.299988
 20
15.255829
 11
-239.300003
 21
15.255829
  0
LINE
  8
0
 10
-235.300003
 20
16.403116
 11
-235.000000
 21
16.403116
  0
LINE
  8
0
 10
-235.300003
 20
15.255829
 11
-235.000000
 21
15.255829
  0
LINE
  8
0
 10
-219.300003
 20
50.238144
 11
-212.099991
 21
50.238144
  0
LINE
  8
0
 10
-219.300003
 20
46.702610
 11
-212.099991
 21
46.702610
  0
LINE
  8
0
 10
-219.299988
 20
46.702614
 11
-219.299988
 21
52.606926
  0
LINE
  8
0
 10
-219.300003
 20
51.086674
 11
-213.300003
 21
51.086674
  0
LINE
  8
0
 10
-213.300003
 20
51.086678
 11
-213.300003
 21
52.465530
  0
LINE
  8
0
 10
-217.500000
 20
22.837761
 11
-220.964111
 21
24.251980
  0
LINE
  8
0
 10
-220.964081
 20
24.251974
 11
-220.964081
 21
25.000000
  0
LINE
  8
0
 10
-214.035873
 20
24.251976
 11
-217.499985
 21
22.837757
  0
LINE
  8
0
 10
-214.035889
 20
25.000000
 11
-214.035889
 21
24.251972
  0
LINE
  8
0
 10
-217.499985
 20
22.837753
 11
-217.499985
 21
25.000000
  0
LINE
  8
0
 10
-215.500000
 20
22.974735
 11
-215.500000
 21
23.654242
  0
LINE
  8
0
 10
-219.499969
 20
22.970194
 11
-219.499969
 21
23.654240
  0
LINE
  8
0
 10
-219.500000
 20
62.647861
 11
-212.100006
 21
62.647861
  0
LINE
  8
0
 10
-220.300003
 20
64.627762
 11
-211.300003
 21
64.627762
  0
LINE
  8
0
 10
-220.300003
 20
70.077515
 11
-211.300003
 21
70.077515
  0
LINE
  8
0
 10
-219.500000
 20
70.926041
 11
-212.100006
 21
70.926041
  0
LINE
  8
0
 10
-219.500000
 20
58.263809
 11
-212.100006
 21
58.263809
  0
LINE
  8
0
 10
-211.600006
 20
58.763809
 11
-211.600006
 21
63.562073
  0
LINE
  8
0
 10
-210.800003
 20
60.178020
 11
-210.800003
 21
69.577515
  0
LINE
  8
0
 10
-220.000000
 20
58.763809
 11
-220.000000
 21
63.562073
  0
LINE
  8
0
 10
-220.799988
 20
60.178017
 11
-220.799988
 21
69.577515
  0
LINE
  8
0
 10
-219.500000
 20
64.062073
 11
-212.100006
 21
64.062073
  0
LINE
  8
0
 10
-221.300003
 20
59.678017
 11
-220.000000
 21
59.678017
  0
LINE
  8
0
 10
-220.000000
 20
70.077515
 11
-220.000000
 21
70.426041
  0
LINE
  8
0
 10
-211.600006
 20
70.077515
 11
-211.600006
 21
70.426041
  0
LINE
  8
0
 10
-211.600006
 20
59.678017
 11
-210.300003
 21
59.678017
  0
LINE
  8
0
 10
-227.300003
 20
59.960861
 11
-221.300003
 21
59.960861
  0
LINE
  8
0
 10
-210.299988
 20
59.678017
 11
-210.299988
 21
65.617722
  0
LINE
  8
0
 10
-221.300003
 20
59.678017
 11
-221.300003
 21
65.617722
  0
LINE
  8
0
 10
-212.299988
 20
52.465530
 11
-212.299988
 21
58.263809
  0
LINE
  8
0
 10
-219.299988
 20
52.465530
 11
-219.299988
 21
58.263809
  0
LINE
  8
0
 10
-210.300003
 20
59.960861
 11
-205.300003
 21
59.960861
  0
LINE
  8
0
 10
-214.299957
 20
55.293961
 11
-214.299957
 21
52.465534
  0
LINE
  8
0
 10
-217.300003
 20
55.293968
 11
-217.300003
 21
52.465538
  0
LINE
  8
0
 10
-219.300003
 20
52.465530
 11
-217.300003
 21
52.465530
  0
LINE
  8
0
 10
-214.300003
 20
52.465530
 11
-212.300003
 21
52.465530
  0
LINE
  8
0
 10
-205.299988
 20
54.516140
 11
-205.299988
 21
65.617722
  0
LINE
  8
0
 10
-227.300003
 20
53.384747
 11
-227.300003
 21
63.744656
  0
LINE
  8
0
 10
-227.300003
 20
65.617722
 11
-221.300003
 21
65.617722
  0
LINE
  8
0
 10
-221.300003
 20
65.334877
 11
-220.800003
 21
65.334877
  0
LINE
  8
0
 10
-210.800003
 20
65.334877
 11
-210.300003
 21
65.334877
  0
LINE
  8
0
 10
-210.300003
 20
65.617722
 11
-205.300003
 21
65.617722
  0
LINE
  8
0
 10
-227.300003
 20
54.516136
 11
-219.300003
 21
54.516136
  0
LINE
  8
0
 10
-217.300003
 20
54.091873
 11
-214.300003
 21
54.091873
  0
LINE
  8
0
 10
-217.300003
 20
53.031219
 11
-214.300003
 21
53.031219
  0
LINE
  8
0
 10
-217.300003
 20
54.516136
 11
-214.300003
 21
54.516136
  0
LINE
  8
0
 10
-212.300003
 20
54.516136
 11
-205.300003
 21
54.516136
  0
LINE
  8
0
 10
-212.300003
 20
54.091873
 11
-207.300003
 21
54.091873
  0
LINE
  8
0
 10
-212.300003
 20
53.031219
 11
-207.300003
 21
53.031219
  0
LINE
  8
0
 10
-207.299988
 20
53.031223
 11
-207.299988
 21
54.516140
  0
LINE
  8
0
 10
-220.299973
 20
53.384754
 11
-219.299988
 21
54.091858
  0
LINE
  8
0
 10
-220.299973
 20
52.324097
 11
-219.299988
 21
53.031204
  0
LINE
  8
0
 10
-228.800003
 20
52.324093
 11
-220.299988
 21
52.324093
  0
LINE
  8
0
 10
-227.300003
 20
53.384747
 11
-220.299988
 21
53.384747
  0
LINE
  8
0
 10
-220.299988
 20
52.324093
 11
-220.299988
 21
53.384747
  0
LINE
  8
0
 10
-203.300003
 20
58.167973
 11
-203.300003
 21
63.167973
  0
LINE
  8
0
 10
-205.300003
 20
58.167969
 11
-203.300003
 21
58.167969
  0
LINE
  8
0
 10
-203.300003
 20
58.667969
 11
-188.222092
 21
58.667969
  0
LINE
  8
0
 10
-203.300003
 20
62.667969
 11
-188.222092
 21
62.667969
  0
LINE
  8
0
 10
-205.300003
 20
63.167969
 11
-203.300003
 21
63.167969
  0
LINE
  8
0
 10
-240.800003
 20
55.602089
 11
-239.300003
 21
55.602089
  0
LINE
  8
0
 10
-242.300003
 20
56.673584
 11
-239.300003
 21
56.673584
  0
LINE
  8
0
 10
-242.300003
 20
63.744656
 11
-239.300003
 21
63.744656
  0
LINE
  8
0
 10
-242.299988
 20
53.596886
 11
-242.299988
 21
63.744656
  0
LINE
  8
0
 10
-240.799988
 20
54.744171
 11
-240.799988
 21
55.602089
  0
LINE
  8
0
 10
-239.300003
 20
52.536224
 11
-239.300003
 21
56.673584
  0
LINE
  8
0
 10
-235.300003
 20
52.536224
 11
-235.300003
 21
56.673584
  0
LINE
  8
0
 10
-235.300003
 20
55.602089
 11
-228.800003
 21
55.602089
  0
LINE
  8
0
 10
-239.300003
 20
55.441269
 11
-235.300003
 21
55.441269
  0
LINE
  8
0
 10
-239.300003
 20
64.633659
 11
-235.300003
 21
64.633659
  0
LINE
  8
0
 10
-235.300003
 20
63.744656
 11
-227.300003
 21
63.744656
  0
LINE
  8
0
 10
-235.300003
 20
56.673584
 11
-227.300003
 21
56.673584
  0
LINE
  8
0
 10
-239.300003
 20
63.744656
 11
-239.300003
 21
64.633659
  0
LINE
  8
0
 10
-235.300003
 20
63.744656
 11
-235.300003
 21
64.633659
  0
LINE
  8
0
 10
-239.300003
 20
52.536224
 11
-235.300003
 21
52.536224
  0
LINE
  8
0
 10
-242.300003
 20
53.596886
 11
-239.300003
 21
53.596886
  0
LINE
  8
0
 10
-242.300003
 20
54.744171
 11
-239.300003
 21
54.744171
  0
LINE
  8
0
 10
-235.300003
 20
53.596886
 11
-235.000015
 21
53.596886
  0
LINE
  8
0
 10
-235.300003
 20
54.744171
 11
-235.000015
 21
54.744171
  0
LINE
  8
0
 10
-228.800003
 20
55.602089
 11
-228.800003
 21
14.397913
  0
LINE
  8
0
 10
-235.000000
 20
55.602089
 11
-235.000000
 21
14.397913
  0
LINE
  8
0
 10
-188.222092
 20
11.332029
 11
-188.222092
 21
7.332029
  0
LINE
  8
0
 10
-188.222092
 20
9.032030
 11
-185.222092
 21
9.032030
  0
LINE
  8
0
 10
-188.222092
 20
9.632029
 11
-185.222092
 21
9.632029
  0
LINE
  8
0
 10
-188.222092
 20
8.032030
 11
-185.222092
 21
8.032030
  0
LINE
  8
0
 10
-188.222092
 20
10.632029
 11
-185.222092
 21
10.632029
  0
LINE
  8
0
 10
-185.222092
 20
10.632029
 11
-185.222092
 21
9.632029
  0
LINE
  8
0
 10
-185.222092
 20
9.032030
 11
-185.222092
 21
8.032030
  0
LINE
  8
0
 10
-185.222092
 20
10.507029
 11
-183.722092
 21
10.507029
  0
LINE
  8
0
 10
-185.222092
 20
10.382029
 11
-183.722092
 21
10.382029
  0
LINE
  8
0
 10
-185.222092
 20
10.257029
 11
-183.722092
 21
10.257029
  0
LINE
  8
0
 10
-185.222092
 20
10.132029
 11
-183.722092
 21
10.132029
  0
LINE
  8
0
 10
-185.222092
 20
10.007029
 11
-183.722092
 21
10.007029
  0
LINE
  8
0
 10
-185.222092
 20
9.882029
 11
-183.722092
 21
9.882029
  0
LINE
  8
0
 10
-185.222092
 20
9.757029
 11
-183.722092
 21
9.757029
  0
LINE
  8
0
 10
-185.222092
 20
8.907030
 11
-183.722092
 21
8.907030
  0
LINE
  8
0
 10
-185.222092
 20
8.782030
 11
-183.722092
 21
8.782030
  0
LINE
  8
0
 10
-185.222092
 20
8.657030
 11
-183.722092
 21
8.657030
  0
LINE
  8
0
 10
-185.222092
 20
8.532030
 11
-183.722092
 21
8.532030
  0
LINE
  8
0
 10
-185.222092
 20
8.407030
 11
-183.722092
 21
8.407030
  0
LINE
  8
0
 10
-185.222092
 20
8.282030
 11
-183.722092
 21
8.282030
  0
LINE
  8
0
 10
-185.222092
 20
8.157030
 11
-183.722092
 21
8.157030
  0
LINE
  8
0
 10
-188.222092
 20
62.667969
 11
-188.222092
 21
58.667969
  0
LINE
  8
0
 10
-188.222092
 20
60.367973
 11
-185.222092
 21
60.367973
  0
LINE
  8
0
 10
-188.222092
 20
60.967972
 11
-185.222092
 21
60.967972
  0
LINE
  8
0
 10
-188.222092
 20
59.367973
 11
-185.222092
 21
59.367973
  0
LINE
  8
0
 10
-188.222092
 20
61.967972
 11
-185.222092
 21
61.967972
  0
LINE
  8
0
 10
-185.222092
 20
61.967972
 11
-185.222092
 21
60.967972
  0
LINE
  8
0
 10
-185.222092
 20
60.367973
 11
-185.222092
 21
59.367973
  0
LINE
  8
0
 10
-185.222092
 20
61.842972
 11
-183.722092
 21
61.842972
  0
LINE
  8
0
 10
-185.222092
 20
61.717972
 11
-183.722092
 21
61.717972
  0
LINE
  8
0
 10
-185.222092
 20
61.592972
 11
-183.722092
 21
61.592972
  0
LINE
  8
0
 10
-185.222092
 20
61.467972
 11
-183.722092
 21
61.467972
  0
LINE
  8
0
 10
-185.222092
 20
61.342972
 11
-183.722092
 21
61.342972
  0
LINE
  8
0
 10
-185.222092
 20
61.217972
 11
-183.722092
 21
61.217972
  0
LINE
  8
0
 10
-185.222092
 20
61.092972
 11
-183.722092
 21
61.092972
  0
LINE
  8
0
 10
-185.222092
 20
60.242973
 11
-183.722092
 21
60.242973
  0
LINE
  8
0
 10
-185.222092
 20
60.117973
 11
-183.722092
 21
60.117973
  0
LINE
  8
0
 10
-185.222092
 20
59.992973
 11
-183.722092
 21
59.992973
  0
LINE
  8
0
 10
-185.222092
 20
59.867973
 11
-183.722092
 21
59.867973
  0
LINE
  8
0
 10
-185.222092
 20
59.742973
 11
-183.722092
 21
59.742973
  0
LINE
  8
0
 10
-185.222092
 20
59.617973
 11
-183.722092
 21
59.617973
  0
LINE
  8
0
 10
-185.222092
 20
59.492973
 11
-183.722092
 21
59.492973
  0
LINE
  8
0
 10
-227.300003
 20
6.255344
 11
-227.300003
 21
4.382282
  0
LINE
  8
0
 10
-227.300003
 20
63.744656
 11
-227.300003
 21
65.617722
  0
LINE
  8
0
 10
-227.500000
 20
47.200001
 11
-227.500000
 21
22.799999
  0
LINE
  8
0
 10
-244.000000
 20
64.000000
 11
-244.000000
 21
6.000000
  0
LINE
  8
0
 10
-243.437500
 20
6.750000
 11
-242.299988
 21
6.750000
  0
LINE
  8
0
 10
-240.999985
 20
18.000000
 11
-235.000000
 21
18.000000
  0
LINE
  8
0
 10
-228.800003
 20
22.500000
 11
-227.800003
 21
22.500000
  0
LINE
  8
0
 10
-228.800003
 20
47.500000
 11
-227.800003
 21
47.500000
  0
LINE
  8
0
 10
-240.999985
 20
52.000000
 11
-235.000000
 21
52.000000
  0
LINE
  8
0
 10
-243.437500
 20
63.250000
 11
-242.299988
 21
63.250000
  0
LINE
  8
0
 10
-227.799988
 20
22.499989
 11
-227.499985
 21
22.799988
  0
LINE
  8
0
 10
-227.799988
 20
47.500011
 11
-227.499985
 21
47.200012
  0
LINE
  8
0
 10
-244.000046
 20
6.000034
 11
-242.299988
 21
8.266768
  0
LINE
  8
0
 10
-244.000046
 20
63.999966
 11
-242.299988
 21
61.733231
  0
LINE
  8
0
 10
-240.999985
 20
16.403116
 11
-240.999985
 21
18.000008
  0
LINE
  8
0
 10
-240.999985
 20
52.000008
 11
-240.999985
 21
53.596886
  0
LINE
  8
0
 10
-240.999985
 20
27.496590
 11
-240.999985
 21
42.503418
  0
LINE
  8
0
 10
-210.500000
 20
40.450001
 11
-210.500000
 21
29.549999
  0
LINE
  8
0
 10
-227.500000
 20
29.000000
 11
-224.050003
 21
29.000000
  0
LINE
  8
0
 10
-227.500000
 20
41.000000
 11
-224.050003
 21
41.000000
  0
LINE
  8
0
 10
-224.000000
 20
40.950001
 11
-224.000000
 21
29.049995
  0
LINE
  8
0
 10
-224.000000
 20
29.049999
 11
-221.500000
 21
29.049999
  0
LINE
  8
0
 10
-224.000000
 20
40.950001
 11
-221.500000
 21
40.950001
  0
LINE
  8
0
 10
-211.000015
 20
29.050026
 11
-210.500031
 21
29.550020
  0
LINE
  8
0
 10
-211.000061
 20
40.949955
 11
-210.500061
 21
40.449955
  0
LINE
  8
0
 10
-211.000000
 20
40.950001
 11
-211.000000
 21
29.050003
  0
LINE
  8
0
 10
-223.500137
 20
33.745094
 11
-221.500000
 21
33.745094
  0
LINE
  8
0
 10
-223.500076
 20
29.183838
 11
-221.500000
 21
29.183838
  0
LINE
  8
0
 10
-223.500076
 20
29.183838
 11
-221.500000
 21
29.913666
  0
LINE
  8
0
 10
-211.000000
 20
33.745079
 11
-210.499985
 21
33.992004
  0
LINE
  8
0
 10
-211.000061
 20
29.183895
 11
-210.500061
 21
29.644085
  0
LINE
  8
0
 10
-211.000031
 20
29.183804
 11
-211.299988
 21
29.293259
  0
LINE
  8
0
 10
-223.500000
 20
36.254906
 11
-221.500000
 21
36.254906
  0
LINE
  8
0
 10
-211.000015
 20
40.816154
 11
-211.299988
 21
40.706696
  0
LINE
  8
0
 10
-223.500076
 20
40.816162
 11
-221.500000
 21
40.086334
  0
LINE
  8
0
 10
-211.000000
 20
36.254940
 11
-210.499985
 21
36.008018
  0
LINE
  8
0
 10
-223.500076
 20
40.816162
 11
-221.500000
 21
40.816162
  0
LINE
  8
0
 10
-211.000000
 20
40.816170
 11
-210.500000
 21
40.355980
  0
LINE
  8
0
 10
-211.299988
 20
40.950001
 11
-211.000000
 21
40.950001
  0
LINE
  8
0
 10
-211.299988
 20
29.049999
 11
-211.000000
 21
29.049999
  0
LINE
  8
0
 10
-211.299988
 20
36.364346
 11
-211.000015
 21
36.254887
  0
LINE
  8
0
 10
-221.500000
 20
36.984707
 11
-223.500000
 21
36.254906
  0
LINE
  8
0
 10
-211.299988
 20
36.254906
 11
-211.000000
 21
36.254906
  0
LINE
  8
0
 10
-211.299988
 20
33.745094
 11
-211.000076
 21
33.745094
  0
LINE
  8
0
 10
-221.500000
 20
33.015247
 11
-223.500137
 21
33.745094
  0
LINE
  8
0
 10
-211.299988
 20
33.635654
 11
-211.000031
 21
33.745113
  0
LINE
  8
0
 10
-223.500076
 20
40.816162
 11
-223.500076
 21
29.183840
  0
LINE
  8
0
 10
-211.299988
 20
40.816162
 11
-211.000000
 21
40.816162
  0
LINE
  8
0
 10
-224.050003
 20
29.000000
 11
-224.000000
 21
29.049995
  0
LINE
  8
0
 10
-224.050003
 20
41.000000
 11
-224.000000
 21
40.950001
  0
ARC
  8
0
 10
-232.144592
 20
12.500000
 40
7.044593
 50
47.284801
 51
61.655357
  0
ARC
  8
0
 10
-219.500000
 20
11.236193
 40
0.500000
 50
90.000000
 51
180.000000
  0
ARC
  8
0
 10
-212.099991
 20
11.236195
 40
0.500000
 50
0.000000
 51
90.000000
  0
ARC
  8
0
 10
-211.300003
 20
9.821983
 40
0.500000
 50
0.000000
 51
90.000000
  0
ARC
  8
0
 10
-220.299988
 20
9.821981
 40
0.500000
 50
90.000000
 51
180.000000
  0
ARC
  8
0
 10
-220.299988
 20
0.422485
 40
0.500000
 50
180.000000
 51
270.000000
  0
ARC
  8
0
 10
-211.300003
 20
0.422485
 40
0.500000
 50
270.000000
 51
0.000000
  0
ARC
  8
0
 10
-212.099991
 20
-0.426044
 40
0.500000
 50
270.000000
 51
0.000000
  0
ARC
  8
0
 10
-219.500000
 20
-0.426044
 40
0.500000
 50
180.000000
 51
270.000000
  0
ARC
  8
0
 10
-212.099991
 20
6.437929
 40
0.500000
 50
270.000000
 51
0.000000
  0
ARC
  8
0
 10
-219.500000
 20
6.437927
 40
0.500000
 50
180.000000
 51
270.000000
  0
ARC
  8
0
 10
-219.500000
 20
58.763809
 40
0.500000
 50
180.000000
 51
270.000000
  0
ARC
  8
0
 10
-212.100006
 20
58.763809
 40
0.500000
 50
270.000000
 51
0.000000
  0
ARC
  8
0
 10
-211.300003
 20
60.178020
 40
0.500000
 50
270.000000
 51
0.000000
  0
ARC
  8
0
 10
-220.300003
 20
60.178017
 40
0.500000
 50
180.000000
 51
270.000000
  0
ARC
  8
0
 10
-220.300003
 20
69.577515
 40
0.500000
 50
90.000000
 51
180.000000
  0
ARC
  8
0
 10
-211.300003
 20
69.577515
 40
0.500000
 50
0.000000
 51
90.000000
  0
ARC
  8
0
 10
-212.100006
 20
70.426041
 40
0.500000
 50
0.000000
 51
90.000000
  0
ARC
  8
0
 10
-219.500000
 20
70.426041
 40
0.500000
 50
90.000000
 51
180.000000
  0
ARC
  8
0
 10
-212.100006
 20
63.562073
 40
0.500000
 50
0.000000
 51
90.000000
  0
ARC
  8
0
 10
-219.500000
 20
63.562073
 40
0.500000
 50
90.000000
 51
180.000000
  0
ARC
  8
0
 10
-232.144592
 20
57.500000
 40
7.044596
 50
298.344604
 51
312.715179
  0
ARC
  8
0
 10
-216.544296
 20
14.706040
 40
0.755692
 50
179.999924
 51
194.106323
  0
ARC
  8
0
 10
-216.346741
 20
14.778464
 40
0.965201
 50
195.417816
 51
231.388931
  0
ARC
  8
0
 10
-215.799988
 20
15.577267
 40
1.931882
 50
233.502380
 51
306.497589
  0
ARC
  8
0
 10
-215.253235
 20
14.778463
 40
0.965195
 50
308.610992
 51
344.582031
  0
ARC
  8
0
 10
-215.055679
 20
14.706038
 40
0.755699
 50
345.893524
 51
359.999939
  0
ARC
  8
0
 10
-238.119705
 20
9.790884
 40
2.130294
 50
176.237167
 51
191.773331
  0
ARC
  8
0
 10
-237.902145
 20
9.857351
 40
2.356931
 50
192.276016
 51
225.305664
  0
ARC
  8
0
 10
-237.300003
 20
10.590449
 40
3.302726
 50
226.824860
 51
313.175049
  0
ARC
  8
0
 10
-236.697861
 20
9.857349
 40
2.356931
 50
314.694244
 51
347.723816
  0
ARC
  8
0
 10
-236.480301
 20
9.790880
 40
2.130297
 50
348.226501
 51
356.237183
  0
ARC
  8
0
 10
-223.581314
 20
7.210716
 40
0.425080
 50
345.893982
 51
14.106827
  0
ARC
  8
0
 10
-223.692444
 20
7.169976
 40
0.542931
 50
15.418230
 51
51.388634
  0
ARC
  8
0
 10
-223.999985
 20
6.720648
 40
1.086687
 50
53.502575
 51
126.497742
  0
ARC
  8
0
 10
-224.307526
 20
7.169971
 40
0.542924
 50
128.611710
 51
164.582596
  0
ARC
  8
0
 10
-224.418655
 20
7.210709
 40
0.425080
 50
165.893982
 51
194.106827
  0
ARC
  8
0
 10
-224.307526
 20
7.251449
 40
0.542931
 50
195.418228
 51
231.388626
  0
ARC
  8
0
 10
-223.999985
 20
7.700777
 40
1.086687
 50
233.502579
 51
306.497742
  0
ARC
  8
0
 10
-223.692444
 20
7.251454
 40
0.542924
 50
308.611725
 51
344.582581
  0
ARC
  8
0
 10
-235.836212
 20
9.790882
 40
1.486211
 50
354.668732
 51
14.106474
  0
ARC
  8
0
 10
-236.224747
 20
9.648450
 40
1.898238
 50
15.417817
 51
51.388348
  0
ARC
  8
0
 10
-237.300003
 20
8.077503
 40
3.799347
 50
53.502090
 51
126.497917
  0
ARC
  8
0
 10
-238.375259
 20
9.648449
 40
1.898233
 50
128.611649
 51
164.582214
  0
ARC
  8
0
 10
-238.763794
 20
9.790882
 40
1.486208
 50
165.893600
 51
185.354156
  0
ARC
  8
0
 10
-237.300018
 20
13.192391
 40
4.532880
 50
245.097824
 51
294.888367
  0
ARC
  8
0
 10
-223.255676
 20
7.210712
 40
0.755699
 50
345.893524
 51
14.106425
  0
ARC
  8
0
 10
-223.453232
 20
7.138288
 40
0.965201
 50
15.417894
 51
51.388977
  0
ARC
  8
0
 10
-223.999985
 20
6.339489
 40
1.931880
 50
53.502342
 51
126.497643
  0
ARC
  8
0
 10
-224.546738
 20
7.138288
 40
0.965195
 50
128.611008
 51
164.582047
  0
ARC
  8
0
 10
-224.744293
 20
7.210713
 40
0.755699
 50
165.893539
 51
194.106430
  0
ARC
  8
0
 10
-224.546738
 20
7.283137
 40
0.965201
 50
195.417892
 51
231.388977
  0
ARC
  8
0
 10
-223.999985
 20
8.081936
 40
1.931880
 50
233.502335
 51
306.497650
  0
ARC
  8
0
 10
-223.453232
 20
7.283136
 40
0.965195
 50
308.610992
 51
344.582062
  0
ARC
  8
0
 10
-216.619690
 20
2.543806
 40
2.130294
 50
176.237152
 51
191.773315
  0
ARC
  8
0
 10
-216.402130
 20
2.610273
 40
2.356931
 50
192.276001
 51
225.305664
  0
ARC
  8
0
 10
-215.799988
 20
3.343372
 40
3.302726
 50
226.824860
 51
313.175049
  0
ARC
  8
0
 10
-215.197845
 20
2.610271
 40
2.356931
 50
314.694244
 51
347.723816
  0
ARC
  8
0
 10
-214.980286
 20
2.543803
 40
2.130297
 50
348.226501
 51
356.237152
  0
ARC
  8
0
 10
-214.336197
 20
2.543804
 40
1.486212
 50
354.668610
 51
14.106447
  0
ARC
  8
0
 10
-214.724731
 20
2.401372
 40
1.898238
 50
15.417810
 51
51.388355
  0
ARC
  8
0
 10
-215.799988
 20
0.830426
 40
3.799347
 50
53.502087
 51
126.497925
  0
ARC
  8
0
 10
-216.875244
 20
2.401371
 40
1.898232
 50
128.611664
 51
164.582214
  0
ARC
  8
0
 10
-217.263779
 20
2.543804
 40
1.486208
 50
165.893585
 51
185.354126
  0
ARC
  8
0
 10
-215.800003
 20
5.945313
 40
4.532881
 50
245.097824
 51
294.888367
  0
ARC
  8
0
 10
-218.293640
 20
22.979193
 40
2.862135
 50
181.661667
 51
191.305206
  0
ARC
  8
0
 10
-218.082993
 20
23.040970
 40
3.080876
 50
191.663834
 51
223.964600
  0
ARC
  8
0
 10
-217.500000
 20
23.722368
 40
3.974451
 50
225.200546
 51
314.798645
  0
ARC
  8
0
 10
-216.917007
 20
23.040960
 40
3.080874
 50
316.034485
 51
348.335175
  0
ARC
  8
0
 10
-216.706360
 20
22.979177
 40
2.862139
 50
348.693848
 51
356.638550
  0
ARC
  8
0
 10
-218.492401
 20
22.979183
 40
1.007603
 50
179.431564
 51
194.106323
  0
ARC
  8
0
 10
-218.229004
 20
23.075748
 40
1.286929
 50
195.417923
 51
231.388779
  0
ARC
  8
0
 10
-217.500000
 20
24.140816
 40
2.575845
 50
233.502274
 51
306.497742
  0
ARC
  8
0
 10
-216.770996
 20
23.075748
 40
1.286929
 50
308.611206
 51
344.582001
  0
ARC
  8
0
 10
-216.507599
 20
22.979183
 40
1.007603
 50
345.893585
 51
0.210843
  0
ARC
  8
0
 10
-218.832535
 20
22.802675
 40
2.352365
 50
144.621933
 51
164.581833
  0
ARC
  8
0
 10
-219.314011
 20
22.979189
 40
1.841765
 50
165.893356
 51
194.106354
  0
ARC
  8
0
 10
-218.832535
 20
23.155701
 40
2.352356
 50
195.417908
 51
231.388565
  0
ARC
  8
0
 10
-217.500000
 20
25.102533
 40
4.708360
 50
233.502258
 51
306.497650
  0
ARC
  8
0
 10
-216.167465
 20
23.155695
 40
2.352367
 50
308.611328
 51
344.581818
  0
ARC
  8
0
 10
-215.685989
 20
22.979181
 40
1.841765
 50
345.893341
 51
14.106357
  0
ARC
  8
0
 10
-216.167465
 20
22.802670
 40
2.352356
 50
15.417901
 51
35.407795
  0
ARC
  8
0
 10
-215.055695
 20
55.293964
 40
0.755692
 50
0.000289
 51
14.106671
  0
ARC
  8
0
 10
-215.253250
 20
55.221542
 40
0.965201
 50
15.417976
 51
51.388996
  0
ARC
  8
0
 10
-215.800003
 20
54.422737
 40
1.931886
 50
53.502457
 51
126.497612
  0
ARC
  8
0
 10
-216.346756
 20
55.221539
 40
0.965195
 50
128.611008
 51
164.582031
  0
ARC
  8
0
 10
-216.544312
 20
55.293964
 40
0.755698
 50
165.893616
 51
180.000290
  0
ARC
  8
0
 10
-236.480301
 20
60.209118
 40
2.130294
 50
3.762855
 51
11.773512
  0
ARC
  8
0
 10
-236.697861
 20
60.142651
 40
2.356933
 50
12.276172
 51
45.305767
  0
ARC
  8
0
 10
-237.300003
 20
59.409550
 40
3.302732
 50
46.824963
 51
133.175125
  0
ARC
  8
0
 10
-237.902145
 20
60.142651
 40
2.356926
 50
134.694366
 51
167.724014
  0
ARC
  8
0
 10
-238.119705
 20
60.209118
 40
2.130296
 50
168.226685
 51
183.762848
  0
ARC
  8
0
 10
-238.763794
 20
60.209118
 40
1.486205
 50
174.645874
 51
194.106445
  0
ARC
  8
0
 10
-238.375259
 20
60.351551
 40
1.898238
 50
195.417816
 51
231.388306
  0
ARC
  8
0
 10
-237.300003
 20
61.922497
 40
3.799345
 50
233.502060
 51
306.497894
  0
ARC
  8
0
 10
-236.224747
 20
60.351551
 40
1.898234
 50
308.611603
 51
344.582184
  0
ARC
  8
0
 10
-235.836212
 20
60.209118
 40
1.486208
 50
345.893555
 51
5.331355
  0
ARC
  8
0
 10
-237.300034
 20
56.807610
 40
4.532872
 50
65.111595
 51
114.901993
  0
ARC
  8
0
 10
-223.255692
 20
62.789288
 40
0.755698
 50
345.893616
 51
14.106391
  0
ARC
  8
0
 10
-223.453247
 20
62.716862
 40
0.965201
 50
15.417976
 51
51.388996
  0
ARC
  8
0
 10
-224.000000
 20
61.918064
 40
1.931880
 50
53.502323
 51
126.497612
  0
ARC
  8
0
 10
-224.546753
 20
62.716866
 40
0.965195
 50
128.611008
 51
164.582245
  0
ARC
  8
0
 10
-224.744308
 20
62.789288
 40
0.755698
 50
165.893616
 51
194.106384
  0
ARC
  8
0
 10
-224.546753
 20
62.861713
 40
0.965201
 50
195.417969
 51
231.388992
  0
ARC
  8
0
 10
-224.000000
 20
63.660511
 40
1.931880
 50
233.502319
 51
306.497620
  0
ARC
  8
0
 10
-223.453247
 20
62.861710
 40
0.965195
 50
308.610992
 51
344.582245
  0
ARC
  8
0
 10
-223.581329
 20
62.789284
 40
0.425081
 50
345.893433
 51
14.106079
  0
ARC
  8
0
 10
-223.692459
 20
62.748547
 40
0.542929
 50
15.417357
 51
51.388226
  0
ARC
  8
0
 10
-224.000000
 20
62.299225
 40
1.086678
 50
53.502201
 51
126.497444
  0
ARC
  8
0
 10
-224.307541
 20
62.748550
 40
0.542930
 50
128.611267
 51
164.581863
  0
ARC
  8
0
 10
-224.418671
 20
62.789291
 40
0.425081
 50
165.893417
 51
194.106079
  0
ARC
  8
0
 10
-224.307541
 20
62.830029
 40
0.542929
 50
195.417358
 51
231.388229
  0
ARC
  8
0
 10
-224.000000
 20
63.279350
 40
1.086678
 50
233.502197
 51
306.497437
  0
ARC
  8
0
 10
-223.692459
 20
62.830025
 40
0.542930
 50
308.611267
 51
344.581879
  0
ARC
  8
0
 10
-215.800018
 20
64.054695
 40
4.532871
 50
65.111382
 51
114.902039
  0
ARC
  8
0
 10
-217.263779
 20
67.456192
 40
1.486206
 50
174.645584
 51
194.106293
  0
ARC
  8
0
 10
-216.875244
 20
67.598625
 40
1.898237
 50
195.417709
 51
231.388382
  0
ARC
  8
0
 10
-215.799988
 20
69.169571
 40
3.799348
 50
233.502106
 51
306.497894
  0
ARC
  8
0
 10
-214.724731
 20
67.598625
 40
1.898234
 50
308.611603
 51
344.582062
  0
ARC
  8
0
 10
-214.336197
 20
67.456192
 40
1.486209
 50
345.893433
 51
5.331647
  0
ARC
  8
0
 10
-214.980286
 20
67.456192
 40
2.130295
 50
3.762957
 51
11.773612
  0
ARC
  8
0
 10
-215.197845
 20
67.389725
 40
2.356934
 50
12.276262
 51
45.305832
  0
ARC
  8
0
 10
-215.799988
 20
66.656624
 40
3.302735
 50
46.825008
 51
133.175171
  0
ARC
  8
0
 10
-216.402130
 20
67.389725
 40
2.356923
 50
134.694427
 51
167.724106
  0
ARC
  8
0
 10
-216.619690
 20
67.456192
 40
2.130295
 50
168.226791
 51
183.762756
  0
POLYLINE
  8
0
 66
     1
  0
VERTEX
  8
0
 10
-240.999985
 20
18.000008
  0
VERTEX
  8
0
 10
-241.884598
 20
18.156660
  0
VERTEX
  8
0
 10
-242.679993
 20
18.645721
  0
VERTEX
  8
0
 10
-243.069656
 20
19.328779
  0
VERTEX
  8
0
 10
-243.191772
 20
20.183485
  0
VERTEX
  8
0
 10
-243.159988
 20
21.146538
  0
VERTEX
  8
0
 10
-243.093704
 20
21.915266
  0
VERTEX
  8
0
 10
-242.998550
 20
22.634499
  0
VERTEX
  8
0
 10
-242.857452
 20
23.350286
  0
VERTEX
  8
0
 10
-242.653320
 20
24.108673
  0
VERTEX
  8
0
 10
-242.344513
 20
24.990437
  0
VERTEX
  8
0
 10
-241.960632
 20
25.857603
  0
VERTEX
  8
0
 10
-241.509766
 20
26.697283
  0
VERTEX
  8
0
 10
-240.999985
 20
27.496590
  0
SEQEND
  0
POLYLINE
  8
0
 66
     1
  0
VERTEX
  8
0
 10
-240.999985
 20
42.503418
  0
VERTEX
  8
0
 10
-241.514877
 20
43.319550
  0
VERTEX
  8
0
 10
-241.974258
 20
44.187271
  0
VERTEX
  8
0
 10
-242.359848
 20
45.060043
  0
VERTEX
  8
0
 10
-242.653320
 20
45.891335
  0
VERTEX
  8
0
 10
-242.842957
 20
46.610821
  0
VERTEX
  8
0
 10
-242.987137
 20
47.351505
  0
VERTEX
  8
0
 10
-243.091080
 20
48.102638
  0
VERTEX
  8
0
 10
-243.160004
 20
48.853470
  0
VERTEX
  8
0
 10
-243.170898
 20
49.798714
  0
VERTEX
  8
0
 10
-243.031784
 20
50.690479
  0
VERTEX
  8
0
 10
-242.679993
 20
51.354286
  0
VERTEX
  8
0
 10
-241.915466
 20
51.811676
  0
VERTEX
  8
0
 10
-241.000000
 20
52.000008
  0
SEQEND
  0
POINT
  8
0
 10
-90.000000
 20
130.000000
  0
POINT
  8
0
 10
-50.499996
 20
130.000000
  0
LINE
  8
0
 10
-105.238159
 20
105.640167
 11
-114.359840
 21
114.761856
  0
LINE
  8
0
 10
-101.702629
 20
109.175705
 11
-102.551155
 21
110.024231
  0
LINE
  8
0
 10
-102.551147
 20
110.024231
 11
-84.586105
 21
121.592278
  0
LINE
  8
0
 10
-109.975769
 20
117.448860
 11
-98.407715
 21
135.413895
  0
LINE
  8
0
 10
-101.702621
 20
109.175705
 11
-105.238159
 21
105.640175
  0
LINE
  8
0
 10
-110.824295
 20
118.297386
 11
-114.359833
 21
114.761856
  0
LINE
  8
0
 10
-103.258255
 20
109.317131
 11
-105.379578
 21
107.195808
  0
LINE
  8
0
 10
-110.682877
 20
116.741753
 11
-112.804199
 21
114.620438
  0
LINE
  8
0
 10
-100.606606
 20
116.564972
 11
-104.849251
 21
112.322334
  0
LINE
  8
0
 10
-103.435028
 20
119.393402
 11
-107.677673
 21
115.150764
  0
LINE
  8
0
 10
-100.606606
 20
116.564972
 11
-103.435028
 21
119.393402
  0
LINE
  8
0
 10
-104.000717
 20
113.170860
 11
-106.829147
 21
115.999290
  0
LINE
  8
0
 10
-109.975777
 20
117.448853
 11
-110.824303
 21
118.297379
  0
LINE
  8
0
 10
-105.556358
 20
113.029434
 11
-106.970573
 21
114.443649
  0
LINE
  8
0
 10
-80.100502
 20
134.242645
 11
-85.757355
 21
139.899490
  0
LINE
  8
0
 10
-78.216698
 20
136.884323
 11
-83.115677
 21
141.783295
  0
LINE
  8
0
 10
-78.056541
 20
136.286606
 11
-80.100502
 21
134.242645
  0
LINE
  8
0
 10
-83.713394
 20
141.943451
 11
-85.757355
 21
139.899490
  0
LINE
  8
0
 10
-79.630913
 20
137.540649
 11
-81.514717
 21
135.656845
  0
LINE
  8
0
 10
-82.459335
 20
140.369080
 11
-84.343140
 21
138.485275
  0
LINE
  8
0
 10
-78.216682
 20
136.884323
 11
-78.056526
 21
136.286606
  0
LINE
  8
0
 10
-83.115677
 20
141.783295
 11
-83.713394
 21
141.943451
  0
LINE
  8
0
 10
-75.504311
 20
139.545944
 11
-80.454056
 21
144.495682
  0
LINE
  8
0
 10
-79.393394
 20
143.435028
 11
-82.080399
 21
140.748016
  0
LINE
  8
0
 10
-76.564972
 20
140.606598
 11
-79.251976
 21
137.919586
  0
LINE
  8
0
 10
-76.847809
 20
140.889435
 11
-79.534821
 21
138.202438
  0
LINE
  8
0
 10
-79.110550
 20
143.152191
 11
-81.797562
 21
140.465179
  0
LINE
  8
0
 10
-65.251274
 20
110.908127
 11
-70.908127
 21
105.251274
  0
LINE
  8
0
 10
-60.725792
 20
95.068924
 11
-71.968781
 21
106.311920
  0
LINE
  8
0
 10
-55.068935
 20
100.725769
 11
-66.311928
 21
111.968765
  0
LINE
  8
0
 10
-59.382294
 20
105.039139
 11
-65.039146
 21
99.382278
  0
LINE
  8
0
 10
-66.311943
 20
111.968773
 11
-71.968796
 21
106.311920
  0
LINE
  8
0
 10
-66.311943
 20
112.534454
 11
-72.534485
 21
106.311920
  0
LINE
  8
0
 10
-65.604828
 20
99.382271
 11
-72.534470
 21
106.311920
  0
LINE
  8
0
 10
-59.382286
 20
105.604813
 11
-66.311928
 21
112.534454
  0
LINE
  8
0
 10
-64.827019
 20
110.483864
 11
-70.483871
 21
104.827011
  0
LINE
  8
0
 10
-58.250931
 20
106.736191
 11
-59.665142
 21
105.321976
  0
LINE
  8
0
 10
-55.068939
 20
100.018684
 11
-60.018688
 21
95.068939
  0
LINE
  8
0
 10
-54.220425
 20
101.998573
 11
-55.281082
 21
100.937912
  0
LINE
  8
0
 10
-65.321999
 20
99.665131
 11
-66.736214
 21
98.250916
  0
LINE
  8
0
 10
-62.705688
 20
94.220398
 11
-66.736191
 21
98.250900
  0
LINE
  8
0
 10
-54.220409
 20
102.705666
 11
-58.250916
 21
106.736176
  0
LINE
  8
0
 10
-60.937943
 20
95.281059
 11
-61.998600
 21
94.220398
  0
LINE
  8
0
 10
-65.604828
 20
110.554604
 11
-64.897720
 21
110.554604
  0
LINE
  8
0
 10
-70.554581
 20
105.604813
 11
-70.554581
 21
104.897705
  0
LINE
  8
0
 10
-64.544167
 20
111.615234
 11
-64.968430
 21
111.190964
  0
LINE
  8
0
 10
-124.931076
 20
100.725792
 11
-113.688080
 21
111.968781
  0
LINE
  8
0
 10
-119.274231
 20
95.068932
 11
-108.031235
 21
106.311928
  0
LINE
  8
0
 10
-114.960876
 20
99.382278
 11
-120.617729
 21
105.039131
  0
LINE
  8
0
 10
-65.604828
 20
112.675888
 11
-66.029099
 21
112.251617
  0
LINE
  8
0
 10
-107.465553
 20
106.311928
 11
-113.688087
 21
112.534470
  0
LINE
  8
0
 10
-120.617729
 20
105.604828
 11
-113.688080
 21
112.534470
  0
LINE
  8
0
 10
-114.395187
 20
99.382278
 11
-107.465546
 21
106.311928
  0
LINE
  8
0
 10
-109.516144
 20
104.827003
 11
-115.172997
 21
110.483864
  0
LINE
  8
0
 10
-113.263817
 20
98.250916
 11
-114.678032
 21
99.665123
  0
LINE
  8
0
 10
-118.001442
 20
94.220398
 11
-119.062103
 21
95.281067
  0
LINE
  8
0
 10
-120.334885
 20
105.321983
 11
-121.749100
 21
106.736191
  0
LINE
  8
0
 10
-125.779610
 20
102.705688
 11
-121.749100
 21
106.736191
  0
LINE
  8
0
 10
-117.294334
 20
94.220406
 11
-113.263824
 21
98.250916
  0
LINE
  8
0
 10
-124.718956
 20
100.937920
 11
-125.779617
 21
101.998581
  0
LINE
  8
0
 10
-109.445412
 20
105.604820
 11
-109.445412
 21
104.897713
  0
LINE
  8
0
 10
-114.395187
 20
110.554565
 11
-115.102295
 21
110.554565
  0
LINE
  8
0
 10
-61.255348
 20
108.326401
 11
-65.604828
 21
112.675873
  0
LINE
  8
0
 10
-68.326416
 20
101.255341
 11
-72.675888
 21
105.604813
  0
LINE
  8
0
 10
-108.031235
 20
106.311920
 11
-113.688087
 21
111.968773
  0
LINE
  8
0
 10
-109.091888
 20
105.251274
 11
-114.748734
 21
110.908127
  0
LINE
  8
0
 10
-71.190971
 20
104.968430
 11
-71.615234
 21
104.544167
  0
LINE
  8
0
 10
-72.251633
 20
106.029083
 11
-72.675903
 21
105.604813
  0
LINE
  8
0
 10
-60.366341
 20
109.558716
 11
-61.445518
 21
110.637886
  0
LINE
  8
0
 10
-69.558731
 20
100.366333
 11
-70.637909
 21
101.445503
  0
LINE
  8
0
 10
-116.516510
 20
109.140358
 11
-110.859657
 21
103.483505
  0
LINE
  8
0
 10
-119.633675
 20
109.558731
 11
-118.554497
 21
110.637909
  0
LINE
  8
0
 10
-118.744667
 20
108.326416
 11
-114.395187
 21
112.675888
  0
LINE
  8
0
 10
-115.031586
 20
111.190971
 11
-115.455841
 21
111.615234
  0
LINE
  8
0
 10
-113.970932
 20
112.251617
 11
-114.395195
 21
112.675880
  0
LINE
  8
0
 10
-107.324127
 20
105.604813
 11
-107.748390
 21
106.029076
  0
LINE
  8
0
 10
-111.673599
 20
101.255341
 11
-107.324127
 21
105.604820
  0
LINE
  8
0
 10
-108.384781
 20
104.544167
 11
-108.809044
 21
104.968430
  0
LINE
  8
0
 10
-110.441284
 20
100.366341
 11
-109.362106
 21
101.445511
  0
LINE
  8
0
 10
-124.931091
 20
100.018677
 11
-119.981339
 21
95.068924
  0
LINE
  8
0
 10
-63.483528
 20
109.140366
 11
-69.140381
 21
103.483505
  0
LINE
  8
0
 10
-114.727386
 20
127.772614
 11
-110.272614
 21
132.227386
  0
LINE
  8
0
 10
-69.727386
 20
127.772614
 11
-65.272614
 21
132.227386
  0
LINE
  8
0
 10
-114.727386
 20
132.227386
 11
-110.272614
 21
127.772614
  0
LINE
  8
0
 10
-69.727386
 20
132.227386
 11
-65.272614
 21
127.772614
  0
LINE
  8
0
 10
-94.829636
 20
165.294098
 11
-95.145821
 21
164.114090
  0
LINE
  8
0
 10
-85.170372
 20
165.294098
 11
-84.854187
 21
164.114075
  0
LINE
  8
0
 10
-57.883434
 20
117.399368
 11
-57.019604
 21
116.535538
  0
LINE
  8
0
 10
-57.883427
 20
142.600632
 11
-57.019592
 21
143.464462
  0
LINE
  8
0
 10
-63.029240
 20
151.513428
 11
-61.849228
 21
151.829620
  0
LINE
  8
0
 10
-105.315880
 20
114.580299
 11
-101.838455
 21
118.057716
  0
LINE
  8
0
 10
-126.000000
 20
148.000000
 11
-125.500000
 21
148.000000
  0
LINE
  8
0
 10
-126.000000
 20
112.000000
 11
-125.500000
 21
112.000000
  0
LINE
  8
0
 10
-121.500000
 20
152.000000
 11
-116.575363
 21
152.000000
  0
LINE
  8
0
 10
-126.000000
 20
112.000000
 11
-126.000000
 21
148.000000
  0
LINE
  8
0
 10
-125.500000
 20
112.000000
 11
-125.500000
 21
148.000000
  0
LINE
  8
0
 10
-88.745087
 20
135.816162
 11
-84.183838
 21
131.254913
  0
LINE
  8
0
 10
-88.992012
 20
135.355972
 11
-84.644028
 21
131.007980
  0
LINE
  8
0
 10
-84.183838
 20
131.254898
 11
-84.644028
 21
131.007980
  0
LINE
  8
0
 10
-88.745087
 20
135.816162
 11
-88.992012
 21
135.355972
  0
LINE
  8
0
 10
-121.500000
 20
108.000000
 11
-118.495613
 21
108.000000
  0
LINE
  8
0
 10
-91.254906
 20
135.816162
 11
-91.007980
 21
135.355972
  0
LINE
  8
0
 10
-95.816162
 20
131.254913
 11
-91.254913
 21
135.816162
  0
LINE
  8
0
 10
-95.355972
 20
131.007980
 11
-91.007988
 21
135.355972
  0
LINE
  8
0
 10
-95.816162
 20
131.254913
 11
-95.355972
 21
131.007980
  0
LINE
  8
0
 10
-95.816162
 20
128.745087
 11
-95.355972
 21
128.992020
  0
LINE
  8
0
 10
-91.254913
 20
124.183838
 11
-95.816162
 21
128.745087
  0
LINE
  8
0
 10
-91.007988
 20
124.644028
 11
-95.355972
 21
128.992020
  0
LINE
  8
0
 10
-91.254913
 20
124.183838
 11
-91.007988
 21
124.644028
  0
LINE
  8
0
 10
-88.745094
 20
124.183838
 11
-88.992020
 21
124.644028
  0
LINE
  8
0
 10
-84.183838
 20
128.745087
 11
-88.745094
 21
124.183838
  0
LINE
  8
0
 10
-84.644028
 20
128.992004
 11
-88.992012
 21
124.644028
  0
LINE
  8
0
 10
-84.183838
 20
128.745087
 11
-84.644028
 21
128.992020
  0
ARC
  8
0
 10
-90.000000
 20
130.000000
 40
34.500000
 50
323.333069
 51
216.666870
  0
CIRCLE
  8
0
 10
-78.750008
 20
149.485580
 40
3.300000
  0
CIRCLE
  8
0
 10
-67.500000
 20
130.000000
 40
6.200000
  0
CIRCLE
  8
0
 10
-112.500000
 20
130.000000
 40
6.200000
  0
CIRCLE
  8
0
 10
-90.000000
 20
130.000000
 40
7.500000
  0
ARC
  8
0
 10
-90.000000
 20
130.000000
 40
10.000003
 50
302.778259
 51
147.221634
  0
CIRCLE
  8
0
 10
-90.000000
 20
130.000000
 40
6.150000
  0
ARC
  8
0
 10
-83.494614
 20
136.505386
 40
3.999994
 50
14.999827
 51
74.999931
  0
ARC
  8
0
 10
-79.394073
 20
136.363281
 40
1.200962
 50
348.625885
 51
101.373817
  0
ARC
  8
0
 10
-83.636719
 20
140.605927
 40
1.200970
 50
348.625977
 51
101.373466
  0
ARC
  8
0
 10
-78.725723
 20
141.274277
 40
3.655767
 50
331.785828
 51
118.214233
  0
ARC
  8
0
 10
-55.422489
 20
100.372215
 40
0.500001
 50
315.000000
 51
45.000000
  0
ARC
  8
0
 10
-60.372238
 20
95.422470
 40
0.500001
 50
225.000000
 51
315.000000
  0
ARC
  8
0
 10
-62.352135
 20
94.573944
 40
0.500006
 50
225.000626
 51
314.999390
  0
ARC
  8
0
 10
-54.573959
 20
102.352119
 40
0.500001
 50
315.000000
 51
45.000000
  0
ARC
  8
0
 10
-58.901119
 20
98.901100
 40
3.519528
 50
258.051605
 51
11.948429
  0
CIRCLE
  8
0
 10
-64.332031
 20
104.332016
 40
2.500000
  0
CIRCLE
  8
0
 10
-64.332031
 20
104.332016
 40
2.000000
  0
CIRCLE
  8
0
 10
-115.667984
 20
104.332031
 40
2.500000
  0
CIRCLE
  8
0
 10
-115.667984
 20
104.332031
 40
2.000000
  0
ARC
  8
0
 10
-119.627785
 20
95.422485
 40
0.500001
 50
225.000000
 51
315.000000
  0
ARC
  8
0
 10
-124.577530
 20
100.372238
 40
0.499995
 50
135.000626
 51
225.000626
  0
ARC
  8
0
 10
-125.426056
 20
102.352135
 40
0.500001
 50
135.000000
 51
225.000000
  0
ARC
  8
0
 10
-117.647881
 20
94.573959
 40
0.500006
 50
225.000626
 51
314.999390
  0
ARC
  8
0
 10
-121.098900
 20
98.901123
 40
3.519527
 50
168.051682
 51
281.948425
  0
ARC
  8
0
 10
-90.000000
 20
130.000000
 40
34.500004
 50
233.333054
 51
306.666901
  0
ARC
  8
0
 10
-90.000000
 20
130.000000
 40
36.000000
 50
304.597839
 51
307.979584
  0
ARC
  8
0
 10
-90.000000
 20
130.000000
 40
35.999996
 50
322.020325
 51
325.402069
  0
ARC
  8
0
 10
-90.000000
 20
130.000000
 40
36.000004
 50
214.597855
 51
217.979614
  0
ARC
  8
0
 10
-90.000000
 20
130.000000
 40
35.999996
 50
232.020340
 51
235.402100
  0
ARC
  8
0
 10
-90.000000
 20
164.000000
 40
5.000007
 50
15.000010
 51
164.999969
  0
ARC
  8
0
 10
-60.555138
 20
113.000000
 40
4.999998
 50
259.769379
 51
45.000031
  0
ARC
  8
0
 10
-60.555130
 20
147.000000
 40
5.000000
 50
314.999939
 51
105.000053
  0
ARC
  8
0
 10
-121.500000
 20
112.000000
 40
4.000000
 50
180.000000
 51
269.999878
  0
ARC
  8
0
 10
-121.500000
 20
148.000000
 40
4.000000
 50
90.000000
 51
180.000000
  0
ARC
  8
0
 10
-90.000000
 20
130.000000
 40
39.500004
 50
233.736923
 51
306.263000
  0
CIRCLE
  8
0
 10
-90.000000
 20
130.000000
 40
5.950000
  0
ARC
  8
0
 10
-90.000000
 20
130.000000
 40
5.449996
 50
349.341736
 51
10.658412
  0
ARC
  8
0
 10
-130.057312
 20
159.080276
 40
9.999996
 50
307.678986
 51
324.021637
  0
ARC
  8
0
 10
-130.057312
 20
100.919724
 40
9.999999
 50
34.851940
 51
52.321041
  0
ARC
  8
0
 10
-90.000000
 20
164.000000
 40
2.100004
 50
12.061711
 51
167.938248
  0
ARC
  8
0
 10
-119.444855
 20
147.000015
 40
2.099993
 50
72.061714
 51
227.938309
  0
ARC
  8
0
 10
-119.444862
 20
113.000000
 40
2.099999
 50
132.061676
 51
287.938232
  0
ARC
  8
0
 10
-60.555138
 20
113.000000
 40
2.099994
 50
252.061615
 51
47.938457
  0
ARC
  8
0
 10
-60.555134
 20
147.000000
 40
2.100002
 50
312.061462
 51
107.938583
  0
ARC
  8
0
 10
-90.000000
 20
130.000000
 40
5.449998
 50
79.341667
 51
100.658333
  0
ARC
  8
0
 10
-90.000000
 20
130.000000
 40
5.449996
 50
169.341751
 51
190.658249
  0
ARC
  8
0
 10
-90.000000
 20
130.000000
 40
5.449998
 50
259.341675
 51
280.658325
  0
ARC
  8
0
 10
-90.000000
 20
130.000000
 40
39.500004
 50
323.736938
 51
144.021622
  0
POINT
  8
0
 10
49.999874
 20
130.000000
  0
POINT
  8
0
 10
69.499878
 20
130.000000
  0
LINE
  8
0
 10
51.199871
 20
164.500000
 11
51.199871
 21
109.397911
  0
LINE
  8
0
 10
44.999866
 20
164.500000
 11
44.999866
 21
109.397911
  0
LINE
  8
0
 10
44.999886
 20
95.500000
 11
51.199890
 21
95.500000
  0
LINE
  8
0
 10
44.999847
 20
164.500000
 11
51.199852
 21
164.500000
  0
LINE
  8
0
 10
60.499886
 20
102.352142
 11
67.899887
 21
102.352142
  0
LINE
  8
0
 10
59.699890
 20
100.372238
 11
68.699883
 21
100.372238
  0
LINE
  8
0
 10
59.699890
 20
94.922485
 11
68.699883
 21
94.922485
  0
LINE
  8
0
 10
60.499886
 20
94.073959
 11
67.899887
 21
94.073959
  0
LINE
  8
0
 10
60.499886
 20
106.736191
 11
67.899887
 21
106.736191
  0
LINE
  8
0
 10
68.399872
 20
106.236198
 11
68.399872
 21
101.437935
  0
LINE
  8
0
 10
69.199875
 20
104.821991
 11
69.199875
 21
95.422493
  0
LINE
  8
0
 10
59.999874
 20
106.236198
 11
59.999874
 21
101.437927
  0
LINE
  8
0
 10
59.199879
 20
104.821983
 11
59.199879
 21
95.422485
  0
LINE
  8
0
 10
60.499886
 20
100.937927
 11
67.899887
 21
100.937927
  0
LINE
  8
0
 10
58.699883
 20
105.321983
 11
59.999886
 21
105.321983
  0
LINE
  8
0
 10
59.999874
 20
94.922485
 11
59.999874
 21
94.573959
  0
LINE
  8
0
 10
68.399872
 20
94.922493
 11
68.399872
 21
94.573959
  0
LINE
  8
0
 10
68.399887
 20
105.321983
 11
69.699890
 21
105.321983
  0
LINE
  8
0
 10
52.699883
 20
105.039139
 11
58.699883
 21
105.039139
  0
LINE
  8
0
 10
69.699875
 20
105.321983
 11
69.699875
 21
99.382294
  0
LINE
  8
0
 10
58.699871
 20
105.321983
 11
58.699871
 21
99.382286
  0
LINE
  8
0
 10
67.699875
 20
112.534477
 11
67.699875
 21
106.736198
  0
LINE
  8
0
 10
60.699879
 20
112.534470
 11
60.699879
 21
106.736198
  0
LINE
  8
0
 10
69.699890
 20
105.039139
 11
74.699890
 21
105.039139
  0
LINE
  8
0
 10
65.699921
 20
156.516479
 11
65.699921
 21
147.465515
  0
LINE
  8
0
 10
62.699871
 20
156.516495
 11
62.699871
 21
147.465515
  0
LINE
  8
0
 10
60.699886
 20
112.534470
 11
62.699879
 21
112.534470
  0
LINE
  8
0
 10
65.699890
 20
112.534470
 11
67.699890
 21
112.534470
  0
LINE
  8
0
 10
74.699875
 20
110.483871
 11
74.699875
 21
99.382294
  0
LINE
  8
0
 10
52.699871
 20
111.615250
 11
52.699871
 21
101.255341
  0
LINE
  8
0
 10
52.699883
 20
99.382278
 11
58.699883
 21
99.382278
  0
LINE
  8
0
 10
58.699883
 20
99.665123
 11
59.199890
 21
99.665123
  0
LINE
  8
0
 10
69.199883
 20
99.665123
 11
69.699890
 21
99.665123
  0
LINE
  8
0
 10
69.699890
 20
99.382278
 11
74.699890
 21
99.382278
  0
LINE
  8
0
 10
52.699879
 20
110.483864
 11
60.699890
 21
110.483864
  0
LINE
  8
0
 10
62.699883
 20
110.908127
 11
65.699883
 21
110.908127
  0
LINE
  8
0
 10
62.699879
 20
111.968781
 11
65.699890
 21
111.968781
  0
LINE
  8
0
 10
62.699883
 20
110.483864
 11
65.699883
 21
110.483864
  0
LINE
  8
0
 10
67.699890
 20
110.483864
 11
74.699890
 21
110.483864
  0
LINE
  8
0
 10
67.699890
 20
110.908127
 11
72.699890
 21
110.908127
  0
LINE
  8
0
 10
67.699890
 20
111.968781
 11
72.699890
 21
111.968781
  0
LINE
  8
0
 10
72.699875
 20
111.968788
 11
72.699875
 21
110.483871
  0
LINE
  8
0
 10
59.699905
 20
111.615257
 11
60.699898
 21
110.908157
  0
LINE
  8
0
 10
59.699909
 20
112.675903
 11
60.699902
 21
111.968803
  0
LINE
  8
0
 10
51.199879
 20
112.675903
 11
59.699894
 21
112.675903
  0
LINE
  8
0
 10
52.699879
 20
111.615250
 11
59.699894
 21
111.615250
  0
LINE
  8
0
 10
59.699886
 20
112.675911
 11
59.699886
 21
111.615257
  0
LINE
  8
0
 10
76.699875
 20
106.832039
 11
76.699875
 21
101.832039
  0
LINE
  8
0
 10
74.699890
 20
106.832031
 11
76.699883
 21
106.832031
  0
LINE
  8
0
 10
76.699883
 20
106.332031
 11
91.777794
 21
106.332031
  0
LINE
  8
0
 10
76.699883
 20
102.332031
 11
91.777802
 21
102.332031
  0
LINE
  8
0
 10
74.699890
 20
101.832031
 11
76.699883
 21
101.832031
  0
LINE
  8
0
 10
39.199890
 20
109.397911
 11
40.699883
 21
109.397911
  0
LINE
  8
0
 10
37.699890
 20
108.326416
 11
40.699883
 21
108.326416
  0
LINE
  8
0
 10
37.699890
 20
101.255341
 11
40.699883
 21
101.255341
  0
LINE
  8
0
 10
51.199871
 20
101.255341
 11
51.199871
 21
95.500000
  0
LINE
  8
0
 10
37.699879
 20
111.403114
 11
37.699879
 21
101.255341
  0
LINE
  8
0
 10
39.199879
 20
110.255829
 11
39.199879
 21
109.397911
  0
LINE
  8
0
 10
40.699871
 20
112.463768
 11
40.699871
 21
108.326416
  0
LINE
  8
0
 10
44.699871
 20
112.463776
 11
44.699871
 21
108.326416
  0
LINE
  8
0
 10
44.699879
 20
109.397911
 11
51.199879
 21
109.397911
  0
LINE
  8
0
 10
40.699883
 20
109.558731
 11
44.699879
 21
109.558731
  0
LINE
  8
0
 10
40.699883
 20
100.366341
 11
44.699883
 21
100.366341
  0
LINE
  8
0
 10
44.699883
 20
101.255341
 11
52.699883
 21
101.255341
  0
LINE
  8
0
 10
44.699879
 20
108.326416
 11
52.699879
 21
108.326416
  0
LINE
  8
0
 10
40.699871
 20
101.255341
 11
40.699871
 21
100.366333
  0
LINE
  8
0
 10
44.699871
 20
101.255341
 11
44.699871
 21
100.366333
  0
LINE
  8
0
 10
44.999866
 20
101.255341
 11
44.999866
 21
95.500000
  0
LINE
  8
0
 10
40.699879
 20
112.463776
 11
44.699879
 21
112.463776
  0
LINE
  8
0
 10
37.699886
 20
111.403114
 11
40.699879
 21
111.403114
  0
LINE
  8
0
 10
37.699890
 20
110.255829
 11
40.699883
 21
110.255829
  0
LINE
  8
0
 10
44.699879
 20
111.403114
 11
44.999874
 21
111.403114
  0
LINE
  8
0
 10
44.699879
 20
110.255829
 11
44.999874
 21
110.255829
  0
LINE
  8
0
 10
60.499870
 20
165.926041
 11
67.899872
 21
165.926041
  0
LINE
  8
0
 10
59.699875
 20
165.077515
 11
59.999870
 21
165.077515
  0
LINE
  8
0
 10
60.499870
 20
161.749084
 11
67.899872
 21
161.749084
  0
LINE
  8
0
 10
58.699867
 20
160.334854
 11
60.699875
 21
160.334854
  0
LINE
  8
0
 10
59.999874
 20
165.426041
 11
59.999874
 21
160.334854
  0
LINE
  8
0
 10
68.399872
 20
165.426041
 11
68.399872
 21
160.334869
  0
LINE
  8
0
 10
69.199875
 20
164.577515
 11
69.199875
 21
160.334869
  0
LINE
  8
0
 10
59.199879
 20
164.577515
 11
59.199879
 21
160.334854
  0
LINE
  8
0
 10
58.699871
 20
160.617706
 11
58.699871
 21
160.334854
  0
LINE
  8
0
 10
69.699875
 20
160.617706
 11
69.699875
 21
160.617706
  0
LINE
  8
0
 10
52.699867
 20
160.617706
 11
58.699867
 21
160.617706
  0
LINE
  8
0
 10
69.699875
 20
160.617706
 11
74.699875
 21
160.617706
  0
LINE
  8
0
 10
68.399872
 20
165.077515
 11
68.699867
 21
165.077515
  0
LINE
  8
0
 10
67.899872
 20
161.324814
 11
67.899872
 21
160.334869
  0
LINE
  8
0
 10
60.499874
 20
161.324814
 11
60.499874
 21
160.334854
  0
LINE
  8
0
 10
60.499870
 20
161.324814
 11
67.899864
 21
161.324814
  0
LINE
  8
0
 10
60.699875
 20
153.688065
 11
72.699883
 21
153.688065
  0
LINE
  8
0
 10
60.699879
 20
147.465515
 11
62.699871
 21
147.465515
  0
LINE
  8
0
 10
62.699871
 20
109.706039
 11
62.699871
 21
112.534470
  0
LINE
  8
0
 10
65.699921
 20
109.706055
 11
65.699921
 21
112.534477
  0
LINE
  8
0
 10
60.699879
 20
161.324814
 11
60.699879
 21
147.465515
  0
LINE
  8
0
 10
67.699890
 20
161.324814
 11
67.699890
 21
147.465515
  0
LINE
  8
0
 10
65.699921
 20
147.465515
 11
67.699883
 21
147.465515
  0
LINE
  8
0
 10
67.699883
 20
160.334854
 11
69.699875
 21
160.334854
  0
LINE
  8
0
 10
52.699871
 20
160.617706
 11
52.699871
 21
158.744644
  0
LINE
  8
0
 10
74.699875
 20
160.617706
 11
74.699875
 21
149.516129
  0
LINE
  8
0
 10
76.699875
 20
158.167969
 11
76.699875
 21
153.167969
  0
LINE
  8
0
 10
62.699867
 20
155.172974
 11
65.699921
 21
155.172974
  0
LINE
  8
0
 10
62.699867
 20
154.748718
 11
65.699921
 21
154.748718
  0
LINE
  8
0
 10
62.699871
 20
148.031204
 11
65.699921
 21
148.031204
  0
LINE
  8
0
 10
67.699883
 20
154.748718
 11
72.699883
 21
154.748718
  0
LINE
  8
0
 10
67.699883
 20
148.031204
 11
72.699883
 21
148.031204
  0
LINE
  8
0
 10
72.699890
 20
154.748718
 11
72.699890
 21
148.031204
  0
LINE
  8
0
 10
72.699883
 20
149.516129
 11
74.699875
 21
149.516129
  0
LINE
  8
0
 10
74.699875
 20
158.167969
 11
76.699875
 21
158.167969
  0
LINE
  8
0
 10
76.699875
 20
157.667969
 11
91.777786
 21
157.667969
  0
LINE
  8
0
 10
76.699875
 20
153.667969
 11
91.777794
 21
153.667969
  0
LINE
  8
0
 10
74.699875
 20
153.167969
 11
76.699875
 21
153.167969
  0
LINE
  8
0
 10
67.699883
 20
155.172974
 11
74.699875
 21
155.172974
  0
LINE
  8
0
 10
59.699875
 20
154.395172
 11
60.699871
 21
153.688080
  0
LINE
  8
0
 10
59.699875
 20
155.455841
 11
60.699867
 21
154.748734
  0
LINE
  8
0
 10
52.699867
 20
155.455856
 11
59.699883
 21
155.455856
  0
LINE
  8
0
 10
51.199871
 20
154.395187
 11
59.699883
 21
154.395187
  0
LINE
  8
0
 10
51.199871
 20
147.324112
 11
59.699871
 21
147.324112
  0
LINE
  8
0
 10
59.699867
 20
154.395203
 11
59.699883
 21
155.455856
  0
LINE
  8
0
 10
59.699856
 20
147.324127
 11
60.699863
 21
148.031219
  0
LINE
  8
0
 10
37.699875
 20
158.744644
 11
40.699867
 21
158.744644
  0
LINE
  8
0
 10
39.199883
 20
157.673157
 11
40.699867
 21
157.673157
  0
LINE
  8
0
 10
51.199867
 20
158.744644
 11
52.699867
 21
158.744644
  0
LINE
  8
0
 10
37.699875
 20
156.815247
 11
40.699867
 21
156.815247
  0
LINE
  8
0
 10
37.699875
 20
155.667953
 11
44.999863
 21
155.667953
  0
LINE
  8
0
 10
37.699879
 20
158.744644
 11
37.699879
 21
148.596878
  0
LINE
  8
0
 10
39.199886
 20
157.673157
 11
39.199886
 21
156.815247
  0
LINE
  8
0
 10
40.699871
 20
159.633652
 11
40.699871
 21
155.667953
  0
LINE
  8
0
 10
44.699879
 20
159.633652
 11
44.699879
 21
155.667953
  0
LINE
  8
0
 10
44.699875
 20
157.673157
 11
44.999863
 21
157.673157
  0
LINE
  8
0
 10
44.699875
 20
158.744644
 11
44.999863
 21
158.744644
  0
LINE
  8
0
 10
44.699875
 20
156.815247
 11
44.999863
 21
156.815247
  0
LINE
  8
0
 10
40.699867
 20
156.728607
 11
44.699875
 21
156.728607
  0
LINE
  8
0
 10
40.699867
 20
159.633652
 11
44.699875
 21
159.633652
  0
LINE
  8
0
 10
40.699871
 20
148.596878
 11
40.699871
 21
147.536224
  0
LINE
  8
0
 10
44.699879
 20
148.596878
 11
44.699879
 21
147.536224
  0
LINE
  8
0
 10
40.699871
 20
147.536224
 11
44.699879
 21
147.536224
  0
LINE
  8
0
 10
37.699879
 20
148.596878
 11
41.647381
 21
148.596878
  0
LINE
  8
0
 10
40.699879
 20
152.132416
 11
40.699879
 21
149.798950
  0
LINE
  8
0
 10
44.699879
 20
152.132416
 11
44.699879
 21
149.798950
  0
LINE
  8
0
 10
43.753628
 20
148.596878
 11
44.999866
 21
148.596878
  0
LINE
  8
0
 10
91.777802
 20
106.332031
 11
91.777802
 21
102.332031
  0
LINE
  8
0
 10
91.777802
 20
104.032028
 11
94.777802
 21
104.032028
  0
LINE
  8
0
 10
91.777802
 20
104.632027
 11
94.777802
 21
104.632027
  0
LINE
  8
0
 10
91.777802
 20
103.032028
 11
94.777802
 21
103.032028
  0
LINE
  8
0
 10
91.777802
 20
105.632027
 11
94.777802
 21
105.632027
  0
LINE
  8
0
 10
94.777802
 20
105.632027
 11
94.777802
 21
104.632027
  0
LINE
  8
0
 10
94.777802
 20
104.032028
 11
94.777802
 21
103.032028
  0
LINE
  8
0
 10
94.777802
 20
105.507027
 11
96.277802
 21
105.507027
  0
LINE
  8
0
 10
94.777802
 20
105.382027
 11
96.277802
 21
105.382027
  0
LINE
  8
0
 10
94.777802
 20
105.257027
 11
96.277802
 21
105.257027
  0
LINE
  8
0
 10
94.777802
 20
105.132027
 11
96.277802
 21
105.132027
  0
LINE
  8
0
 10
94.777802
 20
105.007027
 11
96.277802
 21
105.007027
  0
LINE
  8
0
 10
94.777802
 20
104.882027
 11
96.277802
 21
104.882027
  0
LINE
  8
0
 10
94.777802
 20
104.757027
 11
96.277802
 21
104.757027
  0
LINE
  8
0
 10
94.777802
 20
103.907028
 11
96.277802
 21
103.907028
  0
LINE
  8
0
 10
94.777802
 20
103.782028
 11
96.277802
 21
103.782028
  0
LINE
  8
0
 10
94.777802
 20
103.657028
 11
96.277802
 21
103.657028
  0
LINE
  8
0
 10
94.777802
 20
103.532028
 11
96.277802
 21
103.532028
  0
LINE
  8
0
 10
94.777802
 20
103.407028
 11
96.277802
 21
103.407028
  0
LINE
  8
0
 10
94.777802
 20
103.282028
 11
96.277802
 21
103.282028
  0
LINE
  8
0
 10
94.777802
 20
103.157028
 11
96.277802
 21
103.157028
  0
LINE
  8
0
 10
91.777802
 20
157.667969
 11
91.777802
 21
153.667969
  0
LINE
  8
0
 10
91.777802
 20
155.367966
 11
94.777802
 21
155.367966
  0
LINE
  8
0
 10
91.777802
 20
155.967972
 11
94.777802
 21
155.967972
  0
LINE
  8
0
 10
91.777802
 20
154.367966
 11
94.777802
 21
154.367966
  0
LINE
  8
0
 10
91.777802
 20
156.967972
 11
94.777802
 21
156.967972
  0
LINE
  8
0
 10
94.777802
 20
156.967972
 11
94.777802
 21
155.967972
  0
LINE
  8
0
 10
94.777802
 20
155.367966
 11
94.777802
 21
154.367966
  0
LINE
  8
0
 10
94.777802
 20
156.842972
 11
96.277802
 21
156.842972
  0
LINE
  8
0
 10
94.777802
 20
156.717972
 11
96.277802
 21
156.717972
  0
LINE
  8
0
 10
94.777802
 20
156.592972
 11
96.277802
 21
156.592972
  0
LINE
  8
0
 10
94.777802
 20
156.467972
 11
96.277802
 21
156.467972
  0
LINE
  8
0
 10
94.777802
 20
156.342972
 11
96.277802
 21
156.342972
  0
LINE
  8
0
 10
94.777802
 20
156.217972
 11
96.277802
 21
156.217972
  0
LINE
  8
0
 10
94.777802
 20
156.092972
 11
96.277802
 21
156.092972
  0
LINE
  8
0
 10
94.777802
 20
155.242966
 11
96.277802
 21
155.242966
  0
LINE
  8
0
 10
94.777802
 20
155.117966
 11
96.277802
 21
155.117966
  0
LINE
  8
0
 10
94.777802
 20
154.992966
 11
96.277802
 21
154.992966
  0
LINE
  8
0
 10
94.777802
 20
154.867966
 11
96.277802
 21
154.867966
  0
LINE
  8
0
 10
94.777802
 20
154.742966
 11
96.277802
 21
154.742966
  0
LINE
  8
0
 10
94.777802
 20
154.617966
 11
96.277802
 21
154.617966
  0
LINE
  8
0
 10
94.777802
 20
154.492966
 11
96.277802
 21
154.492966
  0
LINE
  8
0
 10
52.699871
 20
101.255341
 11
52.699871
 21
99.382278
  0
LINE
  8
0
 10
52.699871
 20
158.744644
 11
52.699871
 21
155.455856
  0
LINE
  8
0
 10
52.499874
 20
142.199997
 11
52.499874
 21
135.296600
  0
LINE
  8
0
 10
35.999874
 20
159.000000
 11
35.999874
 21
101.000000
  0
LINE
  8
0
 10
51.199871
 20
117.500000
 11
52.199871
 21
117.500000
  0
LINE
  8
0
 10
51.199871
 20
142.500000
 11
52.199871
 21
142.500000
  0
LINE
  8
0
 10
52.199890
 20
117.499992
 11
52.499889
 21
117.799988
  0
LINE
  8
0
 10
52.499886
 20
142.200012
 11
52.199886
 21
142.500015
  0
LINE
  8
0
 10
35.999813
 20
101.000038
 11
37.699879
 21
103.266792
  0
LINE
  8
0
 10
35.999825
 20
158.999969
 11
37.699879
 21
156.733215
  0
LINE
  8
0
 10
38.999874
 20
148.596878
 11
38.999874
 21
136.750000
  0
LINE
  8
0
 10
38.999874
 20
123.250000
 11
38.999874
 21
111.403114
  0
LINE
  8
0
 10
39.999874
 20
135.750000
 11
44.999866
 21
135.750000
  0
LINE
  8
0
 10
39.999874
 20
124.250000
 11
44.999866
 21
124.250000
  0
LINE
  8
0
 10
52.499874
 20
124.703392
 11
52.499874
 21
117.800003
  0
LINE
  8
0
 10
58.499874
 20
140.000000
 11
58.499874
 21
120.000000
  0
LINE
  8
0
 10
66.699875
 20
140.000000
 11
66.699875
 21
118.297394
  0
LINE
  8
0
 10
67.899887
 20
140.000000
 11
67.899887
 21
111.968781
  0
LINE
  8
0
 10
58.499874
 20
140.000000
 11
67.899887
 21
140.000000
  0
LINE
  8
0
 10
68.699890
 20
137.500000
 11
68.699890
 21
122.500008
  0
LINE
  8
0
 10
67.899887
 20
137.500000
 11
68.699890
 21
137.500000
  0
LINE
  8
0
 10
67.899887
 20
122.500000
 11
68.699890
 21
122.500000
  0
LINE
  8
0
 10
58.499874
 20
120.000000
 11
66.699875
 21
120.000000
  0
LINE
  8
0
 10
60.699879
 20
114.761856
 11
67.899887
 21
114.761856
  0
LINE
  8
0
 10
60.699879
 20
118.297386
 11
67.899887
 21
118.297386
  0
LINE
  8
0
 10
60.699879
 20
118.297394
 11
60.699879
 21
112.675903
  0
LINE
  8
0
 10
60.699879
 20
113.913330
 11
66.699875
 21
113.913330
  0
LINE
  8
0
 10
66.699875
 20
113.913330
 11
66.699875
 21
112.534470
  0
LINE
  8
0
 10
62.499878
 20
142.162247
 11
59.035767
 21
140.748032
  0
LINE
  8
0
 10
59.035786
 20
140.748032
 11
59.035786
 21
140.000000
  0
LINE
  8
0
 10
65.963997
 20
140.748032
 11
62.499886
 21
142.162247
  0
LINE
  8
0
 10
65.963989
 20
140.000000
 11
65.963989
 21
140.748032
  0
LINE
  8
0
 10
62.499889
 20
142.162247
 11
62.499889
 21
140.000000
  0
LINE
  8
0
 10
64.499863
 20
142.025269
 11
64.499863
 21
141.345764
  0
LINE
  8
0
 10
60.499912
 20
142.029816
 11
60.499912
 21
141.345764
  0
LINE
  8
0
 10
69.499878
 20
135.449997
 11
69.499878
 21
124.550003
  0
LINE
  8
0
 10
52.499874
 20
124.000000
 11
55.949871
 21
124.000000
  0
LINE
  8
0
 10
52.499874
 20
136.000000
 11
55.949871
 21
136.000000
  0
LINE
  8
0
 10
55.999874
 20
135.949997
 11
55.999874
 21
124.049995
  0
LINE
  8
0
 10
55.999874
 20
124.050003
 11
58.499874
 21
124.050003
  0
LINE
  8
0
 10
55.999874
 20
135.949997
 11
58.499874
 21
135.949997
  0
LINE
  8
0
 10
68.999855
 20
124.050026
 11
69.499847
 21
124.550018
  0
LINE
  8
0
 10
68.999817
 20
135.949951
 11
69.499817
 21
135.449951
  0
LINE
  8
0
 10
68.999878
 20
135.949997
 11
68.999878
 21
124.050003
  0
LINE
  8
0
 10
55.949883
 20
136.000015
 11
55.999882
 21
135.950012
  0
LINE
  8
0
 10
55.949848
 20
123.999977
 11
55.999847
 21
124.049980
  0
LINE
  8
0
 10
56.499744
 20
128.745087
 11
58.499874
 21
128.745087
  0
LINE
  8
0
 10
56.499798
 20
124.183838
 11
58.499874
 21
124.183838
  0
LINE
  8
0
 10
56.499798
 20
124.183838
 11
58.499874
 21
124.913666
  0
LINE
  8
0
 10
68.999870
 20
128.745071
 11
69.499886
 21
128.992004
  0
LINE
  8
0
 10
68.999817
 20
124.183899
 11
69.499817
 21
124.644081
  0
LINE
  8
0
 10
68.999847
 20
124.183800
 11
68.699890
 21
124.293259
  0
LINE
  8
0
 10
56.499870
 20
131.254913
 11
58.499874
 21
131.254913
  0
LINE
  8
0
 10
68.999855
 20
135.816147
 11
68.699890
 21
135.706696
  0
LINE
  8
0
 10
56.499802
 20
135.816162
 11
58.499874
 21
135.086334
  0
LINE
  8
0
 10
68.999878
 20
131.254944
 11
69.499893
 21
131.008011
  0
LINE
  8
0
 10
56.499802
 20
135.816162
 11
58.499874
 21
135.816162
  0
LINE
  8
0
 10
68.999878
 20
135.816162
 11
69.499878
 21
135.355988
  0
LINE
  8
0
 10
68.699890
 20
135.949997
 11
68.999878
 21
135.949997
  0
LINE
  8
0
 10
68.699890
 20
124.050003
 11
68.999878
 21
124.050003
  0
LINE
  8
0
 10
56.499802
 20
135.816162
 11
56.499870
 21
131.254913
  0
LINE
  8
0
 10
56.499744
 20
128.745087
 11
56.499798
 21
124.183838
  0
LINE
  8
0
 10
68.699890
 20
131.364349
 11
68.999863
 21
131.254883
  0
LINE
  8
0
 10
58.499874
 20
131.984711
 11
56.499870
 21
131.254898
  0
LINE
  8
0
 10
68.699890
 20
131.254913
 11
68.999863
 21
131.254913
  0
LINE
  8
0
 10
68.699890
 20
128.745087
 11
68.999863
 21
128.745087
  0
LINE
  8
0
 10
58.499874
 20
128.015244
 11
56.499744
 21
128.745102
  0
LINE
  8
0
 10
68.699890
 20
128.635651
 11
68.999847
 21
128.745117
  0
LINE
  8
0
 10
68.699890
 20
135.816162
 11
68.999878
 21
135.816162
  0
LINE
  8
0
 10
68.699890
 20
124.183838
 11
68.999878
 21
124.183838
  0
ARC
  8
0
 10
47.855274
 20
130.000000
 40
7.044600
 50
298.344666
 51
61.655243
  0
ARC
  8
0
 10
60.499886
 20
106.236198
 40
0.500000
 50
90.000000
 51
180.000000
  0
ARC
  8
0
 10
67.899887
 20
106.236198
 40
0.500000
 50
0.000000
 51
90.000000
  0
ARC
  8
0
 10
68.699883
 20
104.821991
 40
0.500000
 50
0.000000
 51
90.000000
  0
ARC
  8
0
 10
59.699890
 20
104.821983
 40
0.500000
 50
90.000000
 51
180.000000
  0
ARC
  8
0
 10
59.699890
 20
95.422485
 40
0.500000
 50
180.000000
 51
270.000000
  0
ARC
  8
0
 10
68.699890
 20
95.422493
 40
0.500000
 50
270.000000
 51
0.000000
  0
ARC
  8
0
 10
67.899887
 20
94.573959
 40
0.500000
 50
270.000000
 51
0.000000
  0
ARC
  8
0
 10
60.499893
 20
94.573959
 40
0.500000
 50
180.000000
 51
270.000000
  0
ARC
  8
0
 10
67.899887
 20
101.437935
 40
0.500000
 50
270.000000
 51
0.000000
  0
ARC
  8
0
 10
60.499886
 20
101.437927
 40
0.500000
 50
180.000000
 51
270.000000
  0
ARC
  8
0
 10
60.499870
 20
165.426041
 40
0.500000
 50
90.000000
 51
180.000000
  0
ARC
  8
0
 10
67.899872
 20
165.426041
 40
0.500000
 50
0.000000
 51
90.000000
  0
ARC
  8
0
 10
67.899872
 20
161.249084
 40
0.500000
 50
0.000000
 51
90.000000
  0
ARC
  8
0
 10
60.499870
 20
161.249084
 40
0.500000
 50
90.000000
 51
180.000000
  0
ARC
  8
0
 10
68.699867
 20
164.577515
 40
0.500000
 50
0.000000
 51
90.000000
  0
ARC
  8
0
 10
59.699875
 20
164.577515
 40
0.500000
 50
90.000000
 51
180.000000
  0
ARC
  8
0
 10
39.999874
 20
136.750000
 40
1.000000
 50
180.000000
 51
270.000000
  0
ARC
  8
0
 10
39.999874
 20
123.250000
 40
1.000000
 50
90.000000
 51
180.000000
  0
ARC
  8
0
 10
64.944191
 20
156.516495
 40
0.755692
 50
0.000000
 51
14.107093
  0
ARC
  8
0
 10
64.746635
 20
156.444077
 40
0.965194
 50
15.418097
 51
51.388359
  0
ARC
  8
0
 10
64.199883
 20
155.645264
 40
1.931890
 50
53.502277
 51
126.497726
  0
ARC
  8
0
 10
63.653133
 20
156.444077
 40
0.965196
 50
128.611816
 51
164.582901
  0
ARC
  8
0
 10
63.455574
 20
156.516495
 40
0.755693
 50
165.894104
 51
180.000000
  0
ARC
  8
0
 10
41.880173
 20
104.790878
 40
2.130283
 50
176.237030
 51
191.773682
  0
ARC
  8
0
 10
42.097744
 20
104.857346
 40
2.356934
 50
192.276260
 51
225.305695
  0
ARC
  8
0
 10
42.699883
 20
105.590446
 40
3.302727
 50
226.824966
 51
313.175140
  0
ARC
  8
0
 10
43.302021
 20
104.857346
 40
2.356934
 50
314.694427
 51
347.724091
  0
ARC
  8
0
 10
43.519592
 20
104.790878
 40
2.130284
 50
348.226715
 51
356.237213
  0
ARC
  8
0
 10
56.418564
 20
102.210716
 40
0.425078
 50
345.894928
 51
14.107077
  0
ARC
  8
0
 10
56.307438
 20
102.169983
 40
0.542926
 50
15.417852
 51
51.388790
  0
ARC
  8
0
 10
55.999897
 20
101.720650
 40
1.086688
 50
53.502842
 51
126.498047
  0
ARC
  8
0
 10
55.692348
 20
102.169975
 40
0.542929
 50
128.611832
 51
164.582916
  0
ARC
  8
0
 10
55.581223
 20
102.210716
 40
0.425078
 50
165.894913
 51
194.107071
  0
ARC
  8
0
 10
55.692348
 20
102.251450
 40
0.542926
 50
195.417847
 51
231.388794
  0
ARC
  8
0
 10
55.999889
 20
102.700783
 40
1.086688
 50
233.502838
 51
306.498047
  0
ARC
  8
0
 10
56.307438
 20
102.251457
 40
0.542929
 50
308.611847
 51
344.582916
  0
ARC
  8
0
 10
44.163666
 20
104.790878
 40
1.486211
 50
354.668640
 51
14.106544
  0
ARC
  8
0
 10
43.775139
 20
104.648445
 40
1.898235
 50
15.417959
 51
51.388474
  0
ARC
  8
0
 10
42.699886
 20
103.077499
 40
3.799343
 50
53.502193
 51
126.498062
  0
ARC
  8
0
 10
41.624626
 20
104.648445
 40
1.898231
 50
128.611847
 51
164.582260
  0
ARC
  8
0
 10
41.236099
 20
104.790878
 40
1.486211
 50
165.893738
 51
185.354095
  0
ARC
  8
0
 10
42.699856
 20
108.192383
 40
4.532867
 50
245.097961
 51
294.888397
  0
ARC
  8
0
 10
56.744198
 20
102.210716
 40
0.755698
 50
345.893616
 51
14.106391
  0
ARC
  8
0
 10
56.546642
 20
102.138290
 40
0.965201
 50
15.417976
 51
51.388641
  0
ARC
  8
0
 10
55.999893
 20
101.339493
 40
1.931882
 50
53.502232
 51
126.497765
  0
ARC
  8
0
 10
55.453144
 20
102.138290
 40
0.965200
 50
128.611359
 51
164.582031
  0
ARC
  8
0
 10
55.255589
 20
102.210716
 40
0.755698
 50
165.893616
 51
194.106384
  0
ARC
  8
0
 10
55.453144
 20
102.283142
 40
0.965201
 50
195.417969
 51
231.388641
  0
ARC
  8
0
 10
55.999893
 20
103.081940
 40
1.931882
 50
233.502228
 51
306.497772
  0
ARC
  8
0
 10
56.546642
 20
102.283142
 40
0.965200
 50
308.611359
 51
344.582031
  0
ARC
  8
0
 10
63.380188
 20
97.543808
 40
2.130286
 50
176.237228
 51
191.773270
  0
ARC
  8
0
 10
63.597759
 20
97.610275
 40
2.356930
 50
192.275894
 51
225.305435
  0
ARC
  8
0
 10
64.199898
 20
98.343376
 40
3.302727
 50
226.824783
 51
313.174988
  0
ARC
  8
0
 10
64.802032
 20
97.610275
 40
2.356939
 50
314.694305
 51
347.723724
  0
ARC
  8
0
 10
65.019608
 20
97.543808
 40
2.130283
 50
348.226318
 51
356.237244
  0
ARC
  8
0
 10
65.663681
 20
97.543808
 40
1.486204
 50
354.668610
 51
14.106581
  0
ARC
  8
0
 10
65.275154
 20
97.401375
 40
1.898232
 50
15.417990
 51
51.388382
  0
ARC
  8
0
 10
64.199898
 20
95.830429
 40
3.799348
 50
53.502098
 51
126.497902
  0
ARC
  8
0
 10
63.124641
 20
97.401375
 40
1.898234
 50
128.611618
 51
164.582260
  0
ARC
  8
0
 10
62.736115
 20
97.543808
 40
1.486211
 50
165.893738
 51
185.354095
  0
ARC
  8
0
 10
64.199875
 20
100.945312
 40
4.532869
 50
245.097916
 51
294.888397
  0
ARC
  8
0
 10
63.455582
 20
109.706039
 40
0.755695
 50
180.000000
 51
194.106461
  0
ARC
  8
0
 10
63.653141
 20
109.778465
 40
0.965201
 50
195.417969
 51
231.388458
  0
ARC
  8
0
 10
64.199890
 20
110.577271
 40
1.931890
 50
233.502274
 51
306.497528
  0
ARC
  8
0
 10
64.746643
 20
109.778465
 40
0.965195
 50
308.610992
 51
344.581909
  0
ARC
  8
0
 10
64.944199
 20
109.706039
 40
0.755691
 50
345.893463
 51
0.000000
  0
ARC
  8
0
 10
43.493801
 20
149.798950
 40
0.806072
 50
345.893707
 51
14.106281
  0
ARC
  8
0
 10
43.283070
 20
149.721695
 40
1.029547
 50
15.417871
 51
51.388699
  0
ARC
  8
0
 10
42.699875
 20
148.869644
 40
2.060677
 50
53.502350
 51
126.497650
  0
ARC
  8
0
 10
42.116676
 20
149.721695
 40
1.029549
 50
128.611130
 51
164.582077
  0
ARC
  8
0
 10
41.905949
 20
149.798950
 40
0.806072
 50
165.893723
 51
194.106277
  0
ARC
  8
0
 10
42.116680
 20
149.876205
 40
1.029547
 50
195.417877
 51
231.388702
  0
ARC
  8
0
 10
42.699875
 20
150.728256
 40
2.060677
 50
233.502350
 51
306.497650
  0
ARC
  8
0
 10
43.283073
 20
149.876205
 40
1.029549
 50
308.611145
 51
344.582062
  0
ARC
  8
0
 10
43.692284
 20
149.798950
 40
1.007592
 50
345.893524
 51
14.106426
  0
ARC
  8
0
 10
43.428871
 20
149.702377
 40
1.286939
 50
15.418164
 51
51.388836
  0
ARC
  8
0
 10
42.699875
 20
148.637314
 40
2.575851
 50
53.502369
 51
126.497635
  0
ARC
  8
0
 10
41.970875
 20
149.702393
 40
1.286928
 50
128.611450
 51
164.582397
  0
ARC
  8
0
 10
41.707466
 20
149.798950
 40
1.007592
 50
165.893524
 51
194.106430
  0
ARC
  8
0
 10
41.970879
 20
149.895523
 40
1.286939
 50
195.418167
 51
231.388840
  0
ARC
  8
0
 10
42.699875
 20
150.960587
 40
2.575851
 50
233.502365
 51
306.497620
  0
ARC
  8
0
 10
43.428875
 20
149.895508
 40
1.286928
 50
308.611450
 51
344.582397
  0
ARC
  8
0
 10
43.692280
 20
152.132416
 40
1.007598
 50
359.873322
 51
14.106426
  0
ARC
  8
0
 10
43.428871
 20
152.035858
 40
1.286931
 50
15.417555
 51
51.388412
  0
ARC
  8
0
 10
42.699875
 20
150.970779
 40
2.575851
 50
53.502369
 51
126.497704
  0
ARC
  8
0
 10
41.970879
 20
152.035843
 40
1.286945
 50
128.611298
 51
164.581833
  0
ARC
  8
0
 10
41.707470
 20
152.132416
 40
1.007599
 50
165.893631
 51
180.105850
  0
POLYLINE
  8
0
 66
     1
  0
VERTEX
  8
0
 10
38.999874
 20
123.250000
  0
VERTEX
  8
0
 10
39.049744
 20
123.749786
  0
VERTEX
  8
0
 10
38.999874
 20
124.250000
  0
VERTEX
  8
0
 10
38.857910
 20
124.708038
  0
VERTEX
  8
0
 10
38.594372
 20
125.151512
  0
VERTEX
  8
0
 10
38.125896
 20
125.665482
  0
VERTEX
  8
0
 10
37.709560
 20
126.112198
  0
VERTEX
  8
0
 10
37.572205
 20
126.307999
  0
VERTEX
  8
0
 10
37.386517
 20
126.666664
  0
VERTEX
  8
0
 10
36.995090
 20
127.583206
  0
VERTEX
  8
0
 10
36.727673
 20
128.484848
  0
VERTEX
  8
0
 10
36.610809
 20
129.237106
  0
VERTEX
  8
0
 10
36.574444
 20
130.000000
  0
VERTEX
  8
0
 10
36.605377
 20
130.737808
  0
VERTEX
  8
0
 10
36.727673
 20
131.515152
  0
VERTEX
  8
0
 10
37.036499
 20
132.514832
  0
VERTEX
  8
0
 10
37.386517
 20
133.333344
  0
VERTEX
  8
0
 10
37.511620
 20
133.585922
  0
VERTEX
  8
0
 10
37.709560
 20
133.887802
  0
VERTEX
  8
0
 10
38.162445
 20
134.383530
  0
VERTEX
  8
0
 10
38.594372
 20
134.848480
  0
VERTEX
  8
0
 10
38.845821
 20
135.275360
  0
VERTEX
  8
0
 10
38.999874
 20
135.750000
  0
VERTEX
  8
0
 10
39.049892
 20
136.250916
  0
VERTEX
  8
0
 10
38.999874
 20
136.750000
  0
SEQEND
  0
POLYLINE
  8
0
 66
     1
  0
VERTEX
  8
0
 10
37.699917
 20
155.123535
  0
VERTEX
  8
0
 10
37.108131
 20
154.842865
  0
VERTEX
  8
0
 10
36.582111
 20
154.230057
  0
VERTEX
  8
0
 10
36.469807
 20
153.428543
  0
VERTEX
  8
0
 10
36.747929
 20
152.495132
  0
VERTEX
  8
0
 10
37.222706
 20
151.567856
  0
VERTEX
  8
0
 10
37.700367
 20
150.784821
  0
SEQEND
  0
POLYLINE
  8
0
 66
     1
  0
VERTEX
  8
0
 10
37.700714
 20
109.215736
  0
VERTEX
  8
0
 10
37.183678
 20
108.296616
  0
VERTEX
  8
0
 10
36.750656
 20
107.314774
  0
VERTEX
  8
0
 10
36.513012
 20
106.421967
  0
VERTEX
  8
0
 10
36.582111
 20
105.769951
  0
VERTEX
  8
0
 10
37.073750
 20
105.251350
  0
VERTEX
  8
0
 10
37.699909
 20
104.876472
  0
SEQEND
  0
ARC
  8
0
 10
63.293522
 20
142.020813
 40
2.862137
 50
3.361667
 51
11.306503
  0
ARC
  8
0
 10
63.082867
 20
141.959030
 40
3.080871
 50
11.665121
 51
43.965607
  0
ARC
  8
0
 10
62.499882
 20
141.277634
 40
3.974449
 50
45.201389
 51
134.799576
  0
ARC
  8
0
 10
61.916882
 20
141.959030
 40
3.080867
 50
136.035446
 51
168.336029
  0
ARC
  8
0
 10
61.706226
 20
142.020813
 40
2.862130
 50
168.694733
 51
178.338379
  0
ARC
  8
0
 10
63.492283
 20
142.020813
 40
1.007594
 50
359.789154
 51
14.106479
  0
ARC
  8
0
 10
63.228874
 20
141.924255
 40
1.286927
 50
15.417600
 51
51.388412
  0
ARC
  8
0
 10
62.499874
 20
140.859177
 40
2.575853
 50
53.502300
 51
126.497635
  0
ARC
  8
0
 10
61.770874
 20
141.924240
 40
1.286940
 50
128.611038
 51
164.581741
  0
ARC
  8
0
 10
61.507465
 20
142.020813
 40
1.007592
 50
165.893524
 51
180.568344
  0
ARC
  8
0
 10
63.832405
 20
142.197327
 40
2.352356
 50
324.592377
 51
344.582367
  0
ARC
  8
0
 10
64.313889
 20
142.020813
 40
1.841760
 50
345.893982
 51
14.106933
  0
ARC
  8
0
 10
63.832405
 20
141.844299
 40
2.352369
 50
15.418344
 51
51.388714
  0
ARC
  8
0
 10
62.499882
 20
139.897461
 40
4.708366
 50
53.502476
 51
126.497864
  0
ARC
  8
0
 10
61.167343
 20
141.844299
 40
2.352361
 50
128.611664
 51
164.582397
  0
ARC
  8
0
 10
60.685856
 20
142.020813
 40
1.841760
 50
165.893982
 51
194.106964
  0
ARC
  8
0
 10
61.167343
 20
142.197327
 40
2.352369
 50
195.418350
 51
215.377747
  0
POINT
  8
0
 10
69.499878
 20
35.000000
  0
POINT
  8
0
 10
49.999874
 20
35.000000
  0
LINE
  8
0
 10
51.199871
 20
0.499992
 11
51.199871
 21
55.602081
  0
LINE
  8
0
 10
44.999866
 20
0.499992
 11
44.999866
 21
55.602081
  0
LINE
  8
0
 10
44.999886
 20
69.500000
 11
51.199890
 21
69.500000
  0
LINE
  8
0
 10
44.999847
 20
0.500000
 11
51.199852
 21
0.500000
  0
LINE
  8
0
 10
60.499886
 20
62.647861
 11
67.899887
 21
62.647861
  0
LINE
  8
0
 10
59.699890
 20
64.627762
 11
68.699883
 21
64.627762
  0
LINE
  8
0
 10
59.699890
 20
70.077515
 11
68.699883
 21
70.077515
  0
LINE
  8
0
 10
60.499886
 20
70.926041
 11
67.899887
 21
70.926041
  0
LINE
  8
0
 10
60.499886
 20
58.263809
 11
67.899887
 21
58.263809
  0
LINE
  8
0
 10
68.399872
 20
58.763794
 11
68.399872
 21
63.562057
  0
LINE
  8
0
 10
69.199875
 20
60.178005
 11
69.199875
 21
69.577499
  0
LINE
  8
0
 10
59.999874
 20
58.763794
 11
59.999874
 21
63.562065
  0
LINE
  8
0
 10
59.199879
 20
60.178009
 11
59.199879
 21
69.577499
  0
LINE
  8
0
 10
60.499886
 20
64.062073
 11
67.899887
 21
64.062073
  0
LINE
  8
0
 10
58.699883
 20
59.678017
 11
59.999886
 21
59.678017
  0
LINE
  8
0
 10
59.999874
 20
70.077499
 11
59.999874
 21
70.426033
  0
LINE
  8
0
 10
68.399872
 20
70.077499
 11
68.399872
 21
70.426025
  0
LINE
  8
0
 10
68.399887
 20
59.678017
 11
69.699890
 21
59.678017
  0
LINE
  8
0
 10
52.699883
 20
59.960861
 11
58.699883
 21
59.960861
  0
LINE
  8
0
 10
69.699875
 20
59.678017
 11
69.699875
 21
65.617706
  0
LINE
  8
0
 10
58.699871
 20
59.678017
 11
58.699871
 21
65.617706
  0
LINE
  8
0
 10
67.699875
 20
52.465515
 11
67.699875
 21
58.263794
  0
LINE
  8
0
 10
60.699879
 20
52.465523
 11
60.699879
 21
58.263794
  0
LINE
  8
0
 10
69.699890
 20
59.960861
 11
74.699890
 21
59.960861
  0
LINE
  8
0
 10
65.699921
 20
8.483511
 11
65.699921
 21
17.534475
  0
LINE
  8
0
 10
62.699871
 20
8.483503
 11
62.699871
 21
17.534475
  0
LINE
  8
0
 10
60.699890
 20
52.465530
 11
62.699883
 21
52.465530
  0
LINE
  8
0
 10
65.699890
 20
52.465530
 11
67.699890
 21
52.465530
  0
LINE
  8
0
 10
74.699875
 20
54.516125
 11
74.699875
 21
65.617706
  0
LINE
  8
0
 10
52.699871
 20
53.384743
 11
52.699871
 21
63.744656
  0
LINE
  8
0
 10
52.699883
 20
65.617722
 11
58.699883
 21
65.617722
  0
LINE
  8
0
 10
58.699883
 20
65.334877
 11
59.199890
 21
65.334877
  0
LINE
  8
0
 10
69.199883
 20
65.334877
 11
69.699890
 21
65.334877
  0
LINE
  8
0
 10
69.699890
 20
65.617722
 11
74.699890
 21
65.617722
  0
LINE
  8
0
 10
52.699883
 20
54.516136
 11
60.699890
 21
54.516136
  0
LINE
  8
0
 10
62.699883
 20
54.091873
 11
65.699883
 21
54.091873
  0
LINE
  8
0
 10
62.699883
 20
53.031219
 11
65.699890
 21
53.031219
  0
LINE
  8
0
 10
62.699883
 20
54.516136
 11
65.699883
 21
54.516136
  0
LINE
  8
0
 10
67.699890
 20
54.516136
 11
74.699890
 21
54.516136
  0
LINE
  8
0
 10
67.699890
 20
54.091873
 11
72.699890
 21
54.091873
  0
LINE
  8
0
 10
67.699890
 20
53.031219
 11
72.699890
 21
53.031219
  0
LINE
  8
0
 10
72.699875
 20
53.031200
 11
72.699875
 21
54.516125
  0
LINE
  8
0
 10
59.699909
 20
53.384727
 11
60.699898
 21
54.091827
  0
LINE
  8
0
 10
59.699917
 20
52.324089
 11
60.699902
 21
53.031189
  0
LINE
  8
0
 10
51.199883
 20
52.324097
 11
59.699898
 21
52.324097
  0
LINE
  8
0
 10
52.699883
 20
53.384750
 11
59.699898
 21
53.384750
  0
LINE
  8
0
 10
59.699886
 20
52.324081
 11
59.699886
 21
53.384735
  0
LINE
  8
0
 10
76.699875
 20
58.167950
 11
76.699875
 21
63.167953
  0
LINE
  8
0
 10
74.699890
 20
58.167969
 11
76.699890
 21
58.167969
  0
LINE
  8
0
 10
76.699890
 20
58.667969
 11
91.777802
 21
58.667969
  0
LINE
  8
0
 10
76.699883
 20
62.667969
 11
91.777794
 21
62.667969
  0
LINE
  8
0
 10
74.699890
 20
63.167969
 11
76.699883
 21
63.167969
  0
LINE
  8
0
 10
39.199890
 20
55.602089
 11
40.699883
 21
55.602089
  0
LINE
  8
0
 10
37.699890
 20
56.673584
 11
40.699883
 21
56.673584
  0
LINE
  8
0
 10
37.699890
 20
63.744656
 11
40.699883
 21
63.744656
  0
LINE
  8
0
 10
51.199871
 20
63.744648
 11
51.199871
 21
69.499992
  0
LINE
  8
0
 10
37.699879
 20
53.596878
 11
37.699879
 21
63.744652
  0
LINE
  8
0
 10
39.199879
 20
54.744171
 11
39.199879
 21
55.602081
  0
LINE
  8
0
 10
40.699871
 20
52.536224
 11
40.699871
 21
56.673576
  0
LINE
  8
0
 10
44.699871
 20
52.536224
 11
44.699871
 21
56.673576
  0
LINE
  8
0
 10
44.699883
 20
55.602089
 11
51.199883
 21
55.602089
  0
LINE
  8
0
 10
40.699883
 20
55.441269
 11
44.699883
 21
55.441269
  0
LINE
  8
0
 10
40.699883
 20
64.633659
 11
44.699883
 21
64.633659
  0
LINE
  8
0
 10
44.699883
 20
63.744656
 11
52.699883
 21
63.744656
  0
LINE
  8
0
 10
44.699883
 20
56.673584
 11
52.699883
 21
56.673584
  0
LINE
  8
0
 10
40.699871
 20
63.744652
 11
40.699871
 21
64.633659
  0
LINE
  8
0
 10
44.699871
 20
63.744652
 11
44.699871
 21
64.633652
  0
LINE
  8
0
 10
44.999866
 20
63.744652
 11
44.999866
 21
69.499992
  0
LINE
  8
0
 10
40.699883
 20
52.536224
 11
44.699883
 21
52.536224
  0
LINE
  8
0
 10
37.699890
 20
53.596886
 11
40.699883
 21
53.596886
  0
LINE
  8
0
 10
37.699890
 20
54.744171
 11
40.699883
 21
54.744171
  0
LINE
  8
0
 10
44.699883
 20
53.596886
 11
44.999878
 21
53.596886
  0
LINE
  8
0
 10
44.699883
 20
54.744171
 11
44.999878
 21
54.744171
  0
LINE
  8
0
 10
60.499870
 20
-0.926041
 11
67.899872
 21
-0.926041
  0
LINE
  8
0
 10
59.699875
 20
-0.077507
 11
59.999870
 21
-0.077507
  0
LINE
  8
0
 10
60.499870
 20
3.250916
 11
67.899872
 21
3.250916
  0
LINE
  8
0
 10
58.699867
 20
4.665138
 11
60.699875
 21
4.665138
  0
LINE
  8
0
 10
59.999874
 20
-0.426041
 11
59.999874
 21
4.665129
  0
LINE
  8
0
 10
68.399872
 20
-0.426044
 11
68.399872
 21
4.665129
  0
LINE
  8
0
 10
69.199875
 20
0.422482
 11
69.199875
 21
4.665127
  0
LINE
  8
0
 10
59.199879
 20
0.422485
 11
59.199879
 21
4.665129
  0
LINE
  8
0
 10
58.699871
 20
4.382284
 11
58.699871
 21
4.665138
  0
LINE
  8
0
 10
69.699875
 20
4.382282
 11
69.699875
 21
4.665138
  0
LINE
  8
0
 10
52.699867
 20
4.382294
 11
58.699867
 21
4.382294
  0
LINE
  8
0
 10
69.699875
 20
4.382294
 11
74.699875
 21
4.382294
  0
LINE
  8
0
 10
68.399872
 20
-0.077507
 11
68.699867
 21
-0.077507
  0
LINE
  8
0
 10
67.899872
 20
3.675177
 11
67.899872
 21
4.665129
  0
LINE
  8
0
 10
60.499874
 20
3.675177
 11
60.499874
 21
4.665129
  0
LINE
  8
0
 10
60.499870
 20
3.675186
 11
67.899864
 21
3.675186
  0
LINE
  8
0
 10
60.699875
 20
11.311943
 11
72.699883
 21
11.311943
  0
LINE
  8
0
 10
60.699875
 20
17.534485
 11
62.699867
 21
17.534485
  0
LINE
  8
0
 10
62.699871
 20
55.293953
 11
62.699871
 21
52.465523
  0
LINE
  8
0
 10
65.699921
 20
55.293945
 11
65.699921
 21
52.465523
  0
LINE
  8
0
 10
60.699879
 20
3.675177
 11
60.699879
 21
17.534475
  0
LINE
  8
0
 10
67.699890
 20
3.675186
 11
67.699890
 21
17.534475
  0
LINE
  8
0
 10
65.699921
 20
17.534485
 11
67.699883
 21
17.534485
  0
LINE
  8
0
 10
67.699883
 20
4.665138
 11
69.699875
 21
4.665138
  0
LINE
  8
0
 10
52.699871
 20
4.382286
 11
52.699871
 21
6.255348
  0
LINE
  8
0
 10
74.699875
 20
4.382282
 11
74.699875
 21
15.483868
  0
LINE
  8
0
 10
76.699875
 20
6.832027
 11
76.699875
 21
11.832027
  0
LINE
  8
0
 10
62.699867
 20
10.251282
 11
65.699921
 21
10.251282
  0
LINE
  8
0
 10
62.699867
 20
16.968796
 11
65.699921
 21
16.968796
  0
LINE
  8
0
 10
67.699883
 20
10.251282
 11
72.699883
 21
10.251282
  0
LINE
  8
0
 10
67.699883
 20
16.968796
 11
72.699883
 21
16.968796
  0
LINE
  8
0
 10
72.699890
 20
10.251270
 11
72.699890
 21
16.968784
  0
LINE
  8
0
 10
72.699883
 20
15.483871
 11
74.699875
 21
15.483871
  0
LINE
  8
0
 10
74.699875
 20
6.832031
 11
76.699875
 21
6.832031
  0
LINE
  8
0
 10
76.699875
 20
7.332031
 11
91.777794
 21
7.332031
  0
LINE
  8
0
 10
76.699875
 20
11.332031
 11
91.777786
 21
11.332031
  0
LINE
  8
0
 10
74.699875
 20
11.832031
 11
76.699875
 21
11.832031
  0
LINE
  8
0
 10
67.699883
 20
9.827019
 11
74.699875
 21
9.827019
  0
LINE
  8
0
 10
59.699879
 20
10.604815
 11
60.699867
 21
11.311913
  0
LINE
  8
0
 10
59.699890
 20
9.544144
 11
60.699894
 21
10.251249
  0
LINE
  8
0
 10
54.249748
 20
9.544144
 11
59.699883
 21
9.544144
  0
LINE
  8
0
 10
54.640160
 20
10.604813
 11
59.699883
 21
10.604813
  0
LINE
  8
0
 10
52.634018
 20
17.675896
 11
59.699867
 21
17.675896
  0
LINE
  8
0
 10
59.699867
 20
10.604805
 11
59.699883
 21
9.544144
  0
LINE
  8
0
 10
59.699810
 20
17.675819
 11
60.699818
 21
16.968721
  0
LINE
  8
0
 10
37.699875
 20
6.255348
 11
40.699867
 21
6.255348
  0
LINE
  8
0
 10
39.199883
 20
7.326851
 11
40.699867
 21
7.326851
  0
LINE
  8
0
 10
51.199867
 20
6.255348
 11
52.699867
 21
6.255348
  0
LINE
  8
0
 10
37.699875
 20
8.184761
 11
40.699867
 21
8.184761
  0
LINE
  8
0
 10
37.699875
 20
9.332054
 11
44.999863
 21
9.332054
  0
LINE
  8
0
 10
37.699879
 20
6.255342
 11
37.699879
 21
16.403116
  0
LINE
  8
0
 10
39.199886
 20
7.326845
 11
39.199886
 21
8.184755
  0
LINE
  8
0
 10
40.699871
 20
5.366335
 11
40.699871
 21
9.332048
  0
LINE
  8
0
 10
44.699879
 20
5.366333
 11
44.699879
 21
9.332047
  0
LINE
  8
0
 10
44.699875
 20
7.326851
 11
44.999863
 21
7.326851
  0
LINE
  8
0
 10
44.699875
 20
6.255348
 11
44.999863
 21
6.255348
  0
LINE
  8
0
 10
44.699875
 20
8.184761
 11
44.999863
 21
8.184761
  0
LINE
  8
0
 10
40.699867
 20
8.271393
 11
44.699875
 21
8.271393
  0
LINE
  8
0
 10
40.699867
 20
5.366348
 11
44.699875
 21
5.366348
  0
LINE
  8
0
 10
40.699871
 20
16.403116
 11
40.699871
 21
17.463770
  0
LINE
  8
0
 10
44.699879
 20
16.403114
 11
44.699879
 21
17.463768
  0
LINE
  8
0
 10
40.699867
 20
17.463776
 11
44.699875
 21
17.463776
  0
LINE
  8
0
 10
37.699875
 20
16.403122
 11
41.647377
 21
16.403122
  0
LINE
  8
0
 10
40.699879
 20
12.867586
 11
40.699879
 21
15.201036
  0
LINE
  8
0
 10
44.699879
 20
12.867577
 11
44.699879
 21
15.201035
  0
LINE
  8
0
 10
43.753624
 20
16.403122
 11
44.999863
 21
16.403122
  0
LINE
  8
0
 10
91.777786
 20
11.332031
 11
91.777786
 21
7.332031
  0
LINE
  8
0
 10
91.777786
 20
9.032032
 11
94.777786
 21
9.032032
  0
LINE
  8
0
 10
91.777786
 20
9.632030
 11
94.777786
 21
9.632030
  0
LINE
  8
0
 10
91.777786
 20
8.032032
 11
94.777786
 21
8.032032
  0
LINE
  8
0
 10
91.777786
 20
10.632030
 11
94.777786
 21
10.632030
  0
LINE
  8
0
 10
94.777786
 20
10.632030
 11
94.777786
 21
9.632030
  0
LINE
  8
0
 10
94.777786
 20
9.032032
 11
94.777786
 21
8.032032
  0
LINE
  8
0
 10
94.777786
 20
10.507030
 11
96.277786
 21
10.507030
  0
LINE
  8
0
 10
94.777786
 20
10.382030
 11
96.277786
 21
10.382030
  0
LINE
  8
0
 10
94.777786
 20
10.257030
 11
96.277786
 21
10.257030
  0
LINE
  8
0
 10
94.777786
 20
10.132030
 11
96.277786
 21
10.132030
  0
LINE
  8
0
 10
94.777786
 20
10.007030
 11
96.277786
 21
10.007030
  0
LINE
  8
0
 10
94.777786
 20
9.882030
 11
96.277786
 21
9.882030
  0
LINE
  8
0
 10
94.777786
 20
9.757030
 11
96.277786
 21
9.757030
  0
LINE
  8
0
 10
94.777786
 20
8.907032
 11
96.277786
 21
8.907032
  0
LINE
  8
0
 10
94.777786
 20
8.782032
 11
96.277786
 21
8.782032
  0
LINE
  8
0
 10
94.777786
 20
8.657032
 11
96.277786
 21
8.657032
  0
LINE
  8
0
 10
94.777786
 20
8.532032
 11
96.277786
 21
8.532032
  0
LINE
  8
0
 10
94.777786
 20
8.407032
 11
96.277786
 21
8.407032
  0
LINE
  8
0
 10
94.777786
 20
8.282032
 11
96.277786
 21
8.282032
  0
LINE
  8
0
 10
94.777786
 20
8.157032
 11
96.277786
 21
8.157032
  0
LINE
  8
0
 10
91.777786
 20
62.667969
 11
91.777786
 21
58.667969
  0
LINE
  8
0
 10
91.777786
 20
60.367970
 11
94.777786
 21
60.367970
  0
LINE
  8
0
 10
91.777786
 20
60.967968
 11
94.777786
 21
60.967968
  0
LINE
  8
0
 10
91.777786
 20
59.367970
 11
94.777786
 21
59.367970
  0
LINE
  8
0
 10
91.777786
 20
61.967968
 11
94.777786
 21
61.967968
  0
LINE
  8
0
 10
94.777786
 20
61.967968
 11
94.777786
 21
60.967968
  0
LINE
  8
0
 10
94.777786
 20
60.367970
 11
94.777786
 21
59.367970
  0
LINE
  8
0
 10
94.777786
 20
61.842968
 11
96.277786
 21
61.842968
  0
LINE
  8
0
 10
94.777786
 20
61.717968
 11
96.277786
 21
61.717968
  0
LINE
  8
0
 10
94.777786
 20
61.592968
 11
96.277786
 21
61.592968
  0
LINE
  8
0
 10
94.777786
 20
61.467968
 11
96.277786
 21
61.467968
  0
LINE
  8
0
 10
94.777786
 20
61.342968
 11
96.277786
 21
61.342968
  0
LINE
  8
0
 10
94.777786
 20
61.217968
 11
96.277786
 21
61.217968
  0
LINE
  8
0
 10
94.777786
 20
61.092968
 11
96.277786
 21
61.092968
  0
LINE
  8
0
 10
94.777786
 20
60.242970
 11
96.277786
 21
60.242970
  0
LINE
  8
0
 10
94.777786
 20
60.117970
 11
96.277786
 21
60.117970
  0
LINE
  8
0
 10
94.777786
 20
59.992970
 11
96.277786
 21
59.992970
  0
LINE
  8
0
 10
94.777786
 20
59.867970
 11
96.277786
 21
59.867970
  0
LINE
  8
0
 10
94.777786
 20
59.742970
 11
96.277786
 21
59.742970
  0
LINE
  8
0
 10
94.777786
 20
59.617970
 11
96.277786
 21
59.617970
  0
LINE
  8
0
 10
94.777786
 20
59.492970
 11
96.277786
 21
59.492970
  0
LINE
  8
0
 10
52.699871
 20
6.255348
 11
52.699871
 21
7.385675
  0
LINE
  8
0
 10
52.699871
 20
63.744656
 11
52.699871
 21
65.617714
  0
LINE
  8
0
 10
62.699871
 20
9.827019
 11
65.699921
 21
9.827019
  0
LINE
  8
0
 10
52.499874
 20
47.200001
 11
52.499874
 21
22.799999
  0
LINE
  8
0
 10
35.999874
 20
64.000000
 11
35.999874
 21
6.000000
  0
LINE
  8
0
 10
36.562374
 20
6.750000
 11
37.699879
 21
6.750000
  0
LINE
  8
0
 10
38.999889
 20
18.000000
 11
44.999866
 21
18.000000
  0
LINE
  8
0
 10
51.199871
 20
22.500000
 11
52.199871
 21
22.500000
  0
LINE
  8
0
 10
51.199871
 20
47.500000
 11
52.199871
 21
47.500000
  0
LINE
  8
0
 10
38.999889
 20
52.000000
 11
44.999866
 21
52.000000
  0
LINE
  8
0
 10
36.562374
 20
63.250000
 11
37.699879
 21
63.250000
  0
LINE
  8
0
 10
52.199886
 20
22.499989
 11
52.499886
 21
22.799988
  0
LINE
  8
0
 10
52.199886
 20
47.500011
 11
52.499886
 21
47.200012
  0
LINE
  8
0
 10
35.999828
 20
6.000034
 11
37.699879
 21
8.266768
  0
LINE
  8
0
 10
35.999828
 20
63.999966
 11
37.699879
 21
61.733231
  0
LINE
  8
0
 10
38.999889
 20
16.403122
 11
38.999889
 21
18.000008
  0
LINE
  8
0
 10
38.999889
 20
52.000008
 11
38.999889
 21
53.596886
  0
LINE
  8
0
 10
38.999889
 20
27.496590
 11
38.999889
 21
42.503418
  0
LINE
  8
0
 10
58.499874
 20
25.000000
 11
58.499874
 21
45.000000
  0
LINE
  8
0
 10
66.699875
 20
24.999996
 11
66.699875
 21
46.702614
  0
LINE
  8
0
 10
67.899887
 20
24.999996
 11
67.899887
 21
53.031219
  0
LINE
  8
0
 10
58.499874
 20
25.000000
 11
67.899887
 21
25.000000
  0
LINE
  8
0
 10
68.699890
 20
27.499996
 11
68.699890
 21
42.499996
  0
LINE
  8
0
 10
67.899887
 20
27.500000
 11
68.699890
 21
27.500000
  0
LINE
  8
0
 10
67.899887
 20
42.500000
 11
68.699890
 21
42.500000
  0
LINE
  8
0
 10
58.499874
 20
45.000000
 11
66.699875
 21
45.000000
  0
LINE
  8
0
 10
60.699879
 20
50.238144
 11
67.899887
 21
50.238144
  0
LINE
  8
0
 10
60.699879
 20
46.702610
 11
67.899887
 21
46.702610
  0
LINE
  8
0
 10
60.699879
 20
46.702614
 11
60.699879
 21
52.606926
  0
LINE
  8
0
 10
60.699879
 20
51.086674
 11
66.699875
 21
51.086674
  0
LINE
  8
0
 10
66.699875
 20
51.086678
 11
66.699875
 21
52.465530
  0
LINE
  8
0
 10
62.499874
 20
22.837763
 11
59.035759
 21
24.251980
  0
LINE
  8
0
 10
59.035786
 20
24.251974
 11
59.035786
 21
25.000000
  0
LINE
  8
0
 10
65.964005
 20
24.251972
 11
62.499893
 21
22.837753
  0
LINE
  8
0
 10
65.963989
 20
25.000000
 11
65.963989
 21
24.251972
  0
LINE
  8
0
 10
62.499889
 20
22.837753
 11
62.499889
 21
25.000000
  0
LINE
  8
0
 10
64.499863
 20
22.974735
 11
64.499863
 21
23.654242
  0
LINE
  8
0
 10
60.499912
 20
22.970194
 11
60.499912
 21
23.654240
  0
LINE
  8
0
 10
69.499878
 20
40.450001
 11
69.499878
 21
29.549999
  0
LINE
  8
0
 10
52.499874
 20
29.000000
 11
55.949871
 21
29.000000
  0
LINE
  8
0
 10
52.499874
 20
41.000000
 11
55.949871
 21
41.000000
  0
LINE
  8
0
 10
55.999874
 20
40.950001
 11
55.999874
 21
29.049995
  0
LINE
  8
0
 10
55.999874
 20
29.049999
 11
58.499874
 21
29.049999
  0
LINE
  8
0
 10
55.999874
 20
40.950001
 11
58.499874
 21
40.950001
  0
LINE
  8
0
 10
68.999855
 20
29.050026
 11
69.499847
 21
29.550020
  0
LINE
  8
0
 10
68.999817
 20
40.949955
 11
69.499817
 21
40.449955
  0
LINE
  8
0
 10
68.999878
 20
40.950001
 11
68.999878
 21
29.050003
  0
LINE
  8
0
 10
56.499744
 20
33.745094
 11
58.499874
 21
33.745094
  0
LINE
  8
0
 10
56.499798
 20
29.183838
 11
58.499874
 21
29.183838
  0
LINE
  8
0
 10
56.499798
 20
29.183838
 11
58.499874
 21
29.913666
  0
LINE
  8
0
 10
68.999870
 20
33.745079
 11
69.499886
 21
33.992004
  0
LINE
  8
0
 10
68.999817
 20
29.183895
 11
69.499817
 21
29.644085
  0
LINE
  8
0
 10
68.999847
 20
29.183804
 11
68.699890
 21
29.293259
  0
LINE
  8
0
 10
56.499870
 20
36.254906
 11
58.499874
 21
36.254906
  0
LINE
  8
0
 10
68.999855
 20
40.816154
 11
68.699890
 21
40.706696
  0
LINE
  8
0
 10
56.499802
 20
40.816162
 11
58.499874
 21
40.086334
  0
LINE
  8
0
 10
68.999878
 20
36.254940
 11
69.499893
 21
36.008018
  0
LINE
  8
0
 10
56.499802
 20
40.816162
 11
58.499874
 21
40.816162
  0
LINE
  8
0
 10
68.999878
 20
40.816170
 11
69.499878
 21
40.355980
  0
LINE
  8
0
 10
68.699890
 20
40.950001
 11
68.999878
 21
40.950001
  0
LINE
  8
0
 10
68.699890
 20
29.049999
 11
68.999878
 21
29.049999
  0
LINE
  8
0
 10
68.699890
 20
36.364346
 11
68.999863
 21
36.254887
  0
LINE
  8
0
 10
58.499874
 20
36.984707
 11
56.499870
 21
36.254906
  0
LINE
  8
0
 10
68.699890
 20
36.254906
 11
68.999863
 21
36.254906
  0
LINE
  8
0
 10
68.699890
 20
33.745094
 11
68.999802
 21
33.745094
  0
LINE
  8
0
 10
58.499874
 20
33.015247
 11
56.499744
 21
33.745094
  0
LINE
  8
0
 10
68.699890
 20
33.635654
 11
68.999847
 21
33.745113
  0
LINE
  8
0
 10
56.499802
 20
40.816162
 11
56.499802
 21
29.183840
  0
LINE
  8
0
 10
68.699890
 20
40.816162
 11
68.999878
 21
40.816162
  0
LINE
  8
0
 10
55.949871
 20
29.000000
 11
55.999874
 21
29.049995
  0
LINE
  8
0
 10
55.949867
 20
40.999996
 11
55.999870
 21
40.949997
  0
ARC
  8
0
 10
47.855274
 20
12.499992
 40
7.044598
 50
298.344696
 51
61.655354
  0
ARC
  8
0
 10
60.499886
 20
58.763794
 40
0.500000
 50
180.000000
 51
270.000000
  0
ARC
  8
0
 10
67.899887
 20
58.763794
 40
0.500000
 50
270.000000
 51
0.000000
  0
ARC
  8
0
 10
68.699883
 20
60.178009
 40
0.500000
 50
270.000000
 51
0.000000
  0
ARC
  8
0
 10
59.699890
 20
60.178009
 40
0.500000
 50
180.000000
 51
270.000000
  0
ARC
  8
0
 10
59.699890
 20
69.577499
 40
0.500000
 50
90.000000
 51
180.000000
  0
ARC
  8
0
 10
68.699890
 20
69.577499
 40
0.500000
 50
0.000000
 51
90.000000
  0
ARC
  8
0
 10
67.899887
 20
70.426033
 40
0.500000
 50
0.000000
 51
90.000000
  0
ARC
  8
0
 10
60.499893
 20
70.426033
 40
0.500000
 50
90.000000
 51
180.000000
  0
ARC
  8
0
 10
67.899887
 20
63.562057
 40
0.500000
 50
0.000000
 51
90.000000
  0
ARC
  8
0
 10
60.499886
 20
63.562065
 40
0.500000
 50
90.000000
 51
180.000000
  0
ARC
  8
0
 10
60.499870
 20
-0.426041
 40
0.500000
 50
180.000000
 51
270.000000
  0
ARC
  8
0
 10
67.899872
 20
-0.426044
 40
0.500000
 50
270.000000
 51
0.000000
  0
ARC
  8
0
 10
67.899872
 20
3.750914
 40
0.500000
 50
270.000000
 51
0.000000
  0
ARC
  8
0
 10
60.499870
 20
3.750914
 40
0.500000
 50
180.000000
 51
270.000000
  0
ARC
  8
0
 10
68.699867
 20
0.422482
 40
0.500000
 50
270.000000
 51
0.000000
  0
ARC
  8
0
 10
59.699875
 20
0.422485
 40
0.500000
 50
180.000000
 51
270.000000
  0
ARC
  8
0
 10
47.855274
 20
57.499992
 40
7.044597
 50
298.344757
 51
312.715363
  0
ARC
  8
0
 10
63.455574
 20
8.483504
 40
0.755695
 50
180.000076
 51
194.106384
  0
ARC
  8
0
 10
63.653133
 20
8.555928
 40
0.965201
 50
195.417816
 51
231.388382
  0
ARC
  8
0
 10
64.199883
 20
9.354731
 40
1.931886
 50
233.502182
 51
306.497772
  0
ARC
  8
0
 10
64.746635
 20
8.555927
 40
0.965200
 50
308.611359
 51
344.581909
  0
ARC
  8
0
 10
64.944191
 20
8.483502
 40
0.755691
 50
345.893402
 51
359.999939
  0
ARC
  8
0
 10
43.519592
 20
60.209118
 40
2.130283
 50
3.762773
 51
11.773596
  0
ARC
  8
0
 10
43.302021
 20
60.142647
 40
2.356930
 50
12.276282
 51
45.305832
  0
ARC
  8
0
 10
42.699886
 20
59.409546
 40
3.302730
 50
46.825108
 51
133.175262
  0
ARC
  8
0
 10
42.097744
 20
60.142643
 40
2.356931
 50
134.694504
 51
167.724014
  0
ARC
  8
0
 10
41.880173
 20
60.209110
 40
2.130285
 50
168.226624
 51
183.762772
  0
ARC
  8
0
 10
56.418564
 20
62.789272
 40
0.425082
 50
345.892914
 51
14.106079
  0
ARC
  8
0
 10
56.307438
 20
62.748535
 40
0.542925
 50
15.417464
 51
51.387909
  0
ARC
  8
0
 10
55.999886
 20
62.299217
 40
1.086684
 50
53.501434
 51
126.497002
  0
ARC
  8
0
 10
55.692348
 20
62.748547
 40
0.542927
 50
128.610962
 51
164.581375
  0
ARC
  8
0
 10
55.581223
 20
62.789288
 40
0.425082
 50
165.892929
 51
194.106079
  0
ARC
  8
0
 10
55.692348
 20
62.830025
 40
0.542925
 50
195.417465
 51
231.387909
  0
ARC
  8
0
 10
55.999901
 20
63.279343
 40
1.086684
 50
233.501434
 51
306.497009
  0
ARC
  8
0
 10
56.307438
 20
62.830013
 40
0.542927
 50
308.610962
 51
344.581360
  0
ARC
  8
0
 10
41.236099
 20
60.209118
 40
1.486209
 50
174.645889
 51
194.106110
  0
ARC
  8
0
 10
41.624626
 20
60.351551
 40
1.898232
 50
195.417633
 51
231.388153
  0
ARC
  8
0
 10
42.699890
 20
61.922493
 40
3.799345
 50
233.501862
 51
306.497681
  0
ARC
  8
0
 10
43.775143
 20
60.351543
 40
1.898232
 50
308.611359
 51
344.581879
  0
ARC
  8
0
 10
44.163666
 20
60.209110
 40
1.486210
 50
345.893280
 51
5.331208
  0
ARC
  8
0
 10
42.699852
 20
56.807606
 40
4.532875
 50
65.111511
 51
114.901993
  0
ARC
  8
0
 10
56.744198
 20
62.789276
 40
0.755695
 50
345.893524
 51
14.106391
  0
ARC
  8
0
 10
56.546642
 20
62.716854
 40
0.965200
 50
15.417758
 51
51.388325
  0
ARC
  8
0
 10
55.999889
 20
61.918056
 40
1.931883
 50
53.501984
 51
126.497612
  0
ARC
  8
0
 10
55.453144
 20
62.716858
 40
0.965200
 50
128.611359
 51
164.581970
  0
ARC
  8
0
 10
55.255589
 20
62.789284
 40
0.755695
 50
165.893539
 51
194.106384
  0
ARC
  8
0
 10
55.453144
 20
62.861706
 40
0.965200
 50
195.417755
 51
231.388321
  0
ARC
  8
0
 10
55.999897
 20
63.660503
 40
1.931883
 50
233.501984
 51
306.497620
  0
ARC
  8
0
 10
56.546642
 20
62.861702
 40
0.965200
 50
308.611359
 51
344.581970
  0
ARC
  8
0
 10
65.019608
 20
67.456184
 40
2.130279
 50
3.762984
 51
11.773696
  0
ARC
  8
0
 10
64.802032
 20
67.389717
 40
2.356934
 50
12.276262
 51
45.305698
  0
ARC
  8
0
 10
64.199898
 20
66.656616
 40
3.302735
 50
46.825008
 51
133.175217
  0
ARC
  8
0
 10
63.597759
 20
67.389717
 40
2.356928
 50
134.694565
 51
167.724106
  0
ARC
  8
0
 10
63.380188
 20
67.456184
 40
2.130284
 50
168.226730
 51
183.762970
  0
ARC
  8
0
 10
62.736115
 20
67.456184
 40
1.486214
 50
174.645615
 51
194.106262
  0
ARC
  8
0
 10
63.124641
 20
67.598618
 40
1.898233
 50
195.417740
 51
231.388382
  0
ARC
  8
0
 10
64.199898
 20
69.169563
 40
3.799348
 50
233.502106
 51
306.497894
  0
ARC
  8
0
 10
65.275154
 20
67.598618
 40
1.898234
 50
308.611603
 51
344.582001
  0
ARC
  8
0
 10
65.663681
 20
67.456184
 40
1.486209
 50
345.893433
 51
5.331355
  0
ARC
  8
0
 10
64.199875
 20
64.054680
 40
4.532872
 50
65.111595
 51
114.902039
  0
ARC
  8
0
 10
64.944199
 20
55.293953
 40
0.755692
 50
0.000000
 51
14.106812
  0
ARC
  8
0
 10
64.746643
 20
55.221531
 40
0.965194
 50
15.418097
 51
51.388500
  0
ARC
  8
0
 10
64.199890
 20
54.422726
 40
1.931887
 50
53.502209
 51
126.497787
  0
ARC
  8
0
 10
63.653141
 20
55.221527
 40
0.965202
 50
128.611542
 51
164.582031
  0
ARC
  8
0
 10
63.455582
 20
55.293953
 40
0.755695
 50
165.893539
 51
180.000000
  0
ARC
  8
0
 10
43.493801
 20
15.201038
 40
0.806073
 50
345.893463
 51
14.106479
  0
ARC
  8
0
 10
43.283070
 20
15.123785
 40
1.029548
 50
15.417922
 51
51.388496
  0
ARC
  8
0
 10
42.699875
 20
14.271734
 40
2.060673
 50
53.502258
 51
126.497742
  0
ARC
  8
0
 10
42.116680
 20
15.123785
 40
1.029547
 50
128.611496
 51
164.582031
  0
ARC
  8
0
 10
41.905949
 20
15.201038
 40
0.806073
 50
165.893448
 51
194.106476
  0
ARC
  8
0
 10
42.116680
 20
15.278292
 40
1.029548
 50
195.417923
 51
231.388504
  0
ARC
  8
0
 10
42.699875
 20
16.130342
 40
2.060673
 50
233.502258
 51
306.497742
  0
ARC
  8
0
 10
43.283070
 20
15.278292
 40
1.029547
 50
308.611511
 51
344.582031
  0
ARC
  8
0
 10
43.692284
 20
15.201035
 40
1.007595
 50
345.893585
 51
14.106479
  0
ARC
  8
0
 10
43.428871
 20
15.104468
 40
1.286937
 50
15.417919
 51
51.388546
  0
ARC
  8
0
 10
42.699875
 20
14.039401
 40
2.575845
 50
53.502277
 51
126.497719
  0
ARC
  8
0
 10
41.970879
 20
15.104468
 40
1.286934
 50
128.611450
 51
164.582123
  0
ARC
  8
0
 10
41.707466
 20
15.201035
 40
1.007595
 50
165.893570
 51
194.106476
  0
ARC
  8
0
 10
41.970879
 20
15.297601
 40
1.286937
 50
195.417923
 51
231.388550
  0
ARC
  8
0
 10
42.699875
 20
16.362667
 40
2.575845
 50
233.502274
 51
306.497742
  0
ARC
  8
0
 10
43.428871
 20
15.297601
 40
1.286934
 50
308.611450
 51
344.582123
  0
ARC
  8
0
 10
41.707470
 20
12.867578
 40
1.007601
 50
179.894302
 51
194.106369
  0
ARC
  8
0
 10
41.970879
 20
12.964143
 40
1.286937
 50
195.417831
 51
231.388412
  0
ARC
  8
0
 10
42.699875
 20
14.029207
 40
2.575845
 50
233.502167
 51
306.497711
  0
ARC
  8
0
 10
43.428871
 20
12.964142
 40
1.286936
 50
308.611389
 51
344.582031
  0
ARC
  8
0
 10
43.692280
 20
12.867576
 40
1.007599
 50
345.893524
 51
0.126409
  0
POLYLINE
  8
0
 66
     1
  0
VERTEX
  8
0
 10
38.999889
 20
18.000008
  0
VERTEX
  8
0
 10
38.115276
 20
18.156660
  0
VERTEX
  8
0
 10
37.319881
 20
18.645721
  0
VERTEX
  8
0
 10
36.930222
 20
19.328779
  0
VERTEX
  8
0
 10
36.808102
 20
20.183485
  0
VERTEX
  8
0
 10
36.839886
 20
21.146538
  0
VERTEX
  8
0
 10
36.906166
 20
21.915266
  0
VERTEX
  8
0
 10
37.001324
 20
22.634499
  0
VERTEX
  8
0
 10
37.142429
 20
23.350286
  0
VERTEX
  8
0
 10
37.346554
 20
24.108673
  0
VERTEX
  8
0
 10
37.655354
 20
24.990437
  0
VERTEX
  8
0
 10
38.039234
 20
25.857603
  0
VERTEX
  8
0
 10
38.490112
 20
26.697283
  0
VERTEX
  8
0
 10
38.999889
 20
27.496590
  0
SEQEND
  0
POLYLINE
  8
0
 66
     1
  0
VERTEX
  8
0
 10
38.999889
 20
42.503418
  0
VERTEX
  8
0
 10
38.485001
 20
43.319550
  0
VERTEX
  8
0
 10
38.025612
 20
44.187271
  0
VERTEX
  8
0
 10
37.640026
 20
45.060043
  0
VERTEX
  8
0
 10
37.346546
 20
45.891335
  0
VERTEX
  8
0
 10
37.156918
 20
46.610821
  0
VERTEX
  8
0
 10
37.012737
 20
47.351505
  0
VERTEX
  8
0
 10
36.908794
 20
48.102638
  0
VERTEX
  8
0
 10
36.839878
 20
48.853470
  0
VERTEX
  8
0
 10
36.828983
 20
49.798714
  0
VERTEX
  8
0
 10
36.968094
 20
50.690475
  0
VERTEX
  8
0
 10
37.319881
 20
51.354286
  0
VERTEX
  8
0
 10
38.084415
 20
51.811676
  0
VERTEX
  8
0
 10
38.999882
 20
52.000008
  0
SEQEND
  0
ARC
  8
0
 10
61.706226
 20
22.979193
 40
2.862131
 50
181.661667
 51
191.305267
  0
ARC
  8
0
 10
61.916882
 20
23.040970
 40
3.080868
 50
191.663864
 51
223.964600
  0
ARC
  8
0
 10
62.499882
 20
23.722368
 40
3.974456
 50
225.200470
 51
314.798523
  0
ARC
  8
0
 10
63.082867
 20
23.040960
 40
3.080872
 50
316.034454
 51
348.335144
  0
ARC
  8
0
 10
63.293522
 20
22.979177
 40
2.862128
 50
348.693787
 51
356.638580
  0
ARC
  8
0
 10
61.507465
 20
22.979183
 40
1.007591
 50
179.431549
 51
194.106476
  0
ARC
  8
0
 10
61.770874
 20
23.075748
 40
1.286929
 50
195.417923
 51
231.388657
  0
ARC
  8
0
 10
62.499874
 20
24.140816
 40
2.575845
 50
233.502274
 51
306.497803
  0
ARC
  8
0
 10
63.228874
 20
23.075748
 40
1.286933
 50
308.611481
 51
344.582001
  0
ARC
  8
0
 10
63.492283
 20
22.979183
 40
1.007592
 50
345.893402
 51
0.210845
  0
ARC
  8
0
 10
61.167343
 20
22.802675
 40
2.352364
 50
144.622101
 51
164.581879
  0
ARC
  8
0
 10
60.685856
 20
22.979189
 40
1.841761
 50
165.893326
 51
194.106384
  0
ARC
  8
0
 10
61.167343
 20
23.155701
 40
2.352363
 50
195.417847
 51
231.388504
  0
ARC
  8
0
 10
62.499878
 20
25.102533
 40
4.708363
 50
233.502213
 51
306.497589
  0
ARC
  8
0
 10
63.832405
 20
23.155695
 40
2.352367
 50
308.611328
 51
344.581879
  0
ARC
  8
0
 10
64.313889
 20
22.979181
 40
1.841765
 50
345.893341
 51
14.106357
  0
ARC
  8
0
 10
63.832405
 20
22.802670
 40
2.352363
 50
15.417851
 51
35.407841
  0
POINT
  8
0
 10
229.500000
 20
130.000000
  0
POINT
  8
0
 10
190.000000
 20
130.000000
  0
LINE
  8
0
 10
174.761841
 20
105.640167
 11
165.640167
 21
114.761856
  0
LINE
  8
0
 10
178.297379
 20
109.175705
 11
177.448837
 21
110.024231
  0
LINE
  8
0
 10
177.448853
 20
110.024231
 11
195.413895
 21
121.592278
  0
LINE
  8
0
 10
170.024231
 20
117.448860
 11
181.592285
 21
135.413895
  0
LINE
  8
0
 10
178.297379
 20
109.175705
 11
174.761841
 21
105.640175
  0
LINE
  8
0
 10
169.175705
 20
118.297386
 11
165.640167
 21
114.761856
  0
LINE
  8
0
 10
176.741745
 20
109.317131
 11
174.620422
 21
107.195808
  0
LINE
  8
0
 10
169.317123
 20
116.741753
 11
167.195801
 21
114.620438
  0
LINE
  8
0
 10
179.393402
 20
116.564972
 11
175.150757
 21
112.322334
  0
LINE
  8
0
 10
176.564972
 20
119.393402
 11
172.322327
 21
115.150764
  0
LINE
  8
0
 10
179.393402
 20
116.564972
 11
176.564972
 21
119.393402
  0
LINE
  8
0
 10
175.999283
 20
113.170860
 11
173.170853
 21
115.999290
  0
LINE
  8
0
 10
170.024231
 20
117.448853
 11
169.175690
 21
118.297379
  0
LINE
  8
0
 10
174.443634
 20
113.029434
 11
173.029434
 21
114.443649
  0
LINE
  8
0
 10
199.899506
 20
134.242645
 11
194.242645
 21
139.899490
  0
LINE
  8
0
 10
201.783310
 20
136.884323
 11
196.884323
 21
141.783295
  0
LINE
  8
0
 10
201.943466
 20
136.286606
 11
199.899490
 21
134.242645
  0
LINE
  8
0
 10
196.286606
 20
141.943451
 11
194.242645
 21
139.899490
  0
LINE
  8
0
 10
200.369095
 20
137.540649
 11
198.485291
 21
135.656845
  0
LINE
  8
0
 10
197.540665
 20
140.369080
 11
195.656860
 21
138.485275
  0
LINE
  8
0
 10
201.783325
 20
136.884323
 11
201.943481
 21
136.286606
  0
LINE
  8
0
 10
196.884323
 20
141.783295
 11
196.286606
 21
141.943451
  0
LINE
  8
0
 10
204.495697
 20
139.545944
 11
199.545944
 21
144.495682
  0
LINE
  8
0
 10
200.606598
 20
143.435028
 11
197.919601
 21
140.748016
  0
LINE
  8
0
 10
203.435028
 20
140.606598
 11
200.748032
 21
137.919586
  0
LINE
  8
0
 10
203.152191
 20
140.889435
 11
200.465179
 21
138.202438
  0
LINE
  8
0
 10
200.889450
 20
143.152191
 11
198.202438
 21
140.465179
  0
LINE
  8
0
 10
209.091873
 20
154.748718
 11
214.748734
 21
149.091873
  0
LINE
  8
0
 10
224.931076
 20
159.274200
 11
213.688080
 21
148.031219
  0
LINE
  8
0
 10
219.274231
 20
164.931061
 11
208.031235
 21
153.688065
  0
LINE
  8
0
 10
214.960876
 20
160.617706
 11
220.617722
 21
154.960846
  0
LINE
  8
0
 10
208.031219
 20
153.688065
 11
213.688080
 21
148.031204
  0
LINE
  8
0
 10
207.465546
 20
153.688049
 11
213.688080
 21
147.465515
  0
LINE
  8
0
 10
220.617737
 20
154.395172
 11
213.688080
 21
147.465530
  0
LINE
  8
0
 10
214.395187
 20
160.617706
 11
207.465546
 21
153.688065
  0
LINE
  8
0
 10
209.516144
 20
155.172974
 11
215.172989
 21
149.516129
  0
LINE
  8
0
 10
213.263809
 20
161.749069
 11
214.678024
 21
160.334854
  0
LINE
  8
0
 10
219.981323
 20
164.931061
 11
224.931076
 21
159.981308
  0
LINE
  8
0
 10
218.001434
 20
165.779572
 11
219.062088
 21
164.718918
  0
LINE
  8
0
 10
220.334885
 20
154.678009
 11
221.749084
 21
153.263794
  0
LINE
  8
0
 10
225.779602
 20
157.294312
 11
221.749100
 21
153.263809
  0
LINE
  8
0
 10
217.294342
 20
165.779587
 11
213.263824
 21
161.749084
  0
LINE
  8
0
 10
224.718933
 20
159.062057
 11
225.779602
 21
158.001389
  0
LINE
  8
0
 10
209.445404
 20
154.395172
 11
209.445404
 21
155.102280
  0
LINE
  8
0
 10
214.395187
 20
149.445419
 11
215.102295
 21
149.445419
  0
LINE
  8
0
 10
208.384766
 20
155.455826
 11
208.809036
 21
155.031570
  0
LINE
  8
0
 10
155.068924
 20
100.725792
 11
166.311920
 21
111.968781
  0
LINE
  8
0
 10
160.725769
 20
95.068932
 11
171.968765
 21
106.311928
  0
LINE
  8
0
 10
165.039124
 20
99.382278
 11
159.382278
 21
105.039131
  0
LINE
  8
0
 10
207.324112
 20
154.395172
 11
207.748383
 21
153.970901
  0
LINE
  8
0
 10
172.534454
 20
106.311928
 11
166.311905
 21
112.534470
  0
LINE
  8
0
 10
159.382263
 20
105.604828
 11
166.311920
 21
112.534470
  0
LINE
  8
0
 10
165.604813
 20
99.382278
 11
172.534454
 21
106.311928
  0
LINE
  8
0
 10
170.483856
 20
104.827003
 11
164.826996
 21
110.483864
  0
LINE
  8
0
 10
166.736176
 20
98.250916
 11
165.321960
 21
99.665123
  0
LINE
  8
0
 10
161.998550
 20
94.220398
 11
160.937897
 21
95.281059
  0
LINE
  8
0
 10
159.665115
 20
105.321983
 11
158.250900
 21
106.736191
  0
LINE
  8
0
 10
154.220398
 20
102.705688
 11
158.250900
 21
106.736191
  0
LINE
  8
0
 10
162.705673
 20
94.220406
 11
166.736176
 21
98.250916
  0
LINE
  8
0
 10
155.281036
 20
100.937912
 11
154.220383
 21
101.998573
  0
LINE
  8
0
 10
170.554596
 20
105.604820
 11
170.554596
 21
104.897713
  0
LINE
  8
0
 10
165.604813
 20
110.554565
 11
164.897705
 21
110.554565
  0
LINE
  8
0
 10
211.673599
 20
158.744644
 11
207.324127
 21
154.395172
  0
LINE
  8
0
 10
218.744659
 20
151.673584
 11
214.395187
 21
147.324112
  0
LINE
  8
0
 10
171.968765
 20
106.311920
 11
166.311920
 21
111.968773
  0
LINE
  8
0
 10
215.031570
 20
148.809021
 11
215.455841
 21
148.384766
  0
LINE
  8
0
 10
213.970917
 20
147.748367
 11
214.395172
 21
147.324097
  0
LINE
  8
0
 10
210.441284
 20
159.633652
 11
209.362122
 21
158.554474
  0
LINE
  8
0
 10
219.633667
 20
150.441269
 11
218.554504
 21
149.362091
  0
LINE
  8
0
 10
163.483490
 20
109.140358
 11
169.140350
 21
103.483505
  0
LINE
  8
0
 10
160.366333
 20
109.558731
 11
161.445496
 21
110.637909
  0
LINE
  8
0
 10
161.255341
 20
108.326416
 11
165.604813
 21
112.675888
  0
LINE
  8
0
 10
164.968414
 20
111.190971
 11
164.544159
 21
111.615234
  0
LINE
  8
0
 10
166.029068
 20
112.251617
 11
165.604797
 21
112.675880
  0
LINE
  8
0
 10
172.675873
 20
105.604813
 11
172.251602
 21
106.029076
  0
LINE
  8
0
 10
168.326401
 20
101.255341
 11
172.675873
 21
105.604820
  0
LINE
  8
0
 10
171.615219
 20
104.544167
 11
171.190948
 21
104.968430
  0
LINE
  8
0
 10
169.558716
 20
100.366341
 11
170.637894
 21
101.445511
  0
LINE
  8
0
 10
155.068909
 20
100.018677
 11
160.018661
 21
95.068924
  0
LINE
  8
0
 10
210.859634
 20
156.516464
 11
216.516495
 21
150.859619
  0
LINE
  8
0
 10
165.272614
 20
132.227386
 11
169.727386
 21
127.772614
  0
LINE
  8
0
 10
210.272614
 20
132.227386
 11
214.727386
 21
127.772614
  0
LINE
  8
0
 10
165.272614
 20
127.772614
 11
169.727386
 21
132.227386
  0
LINE
  8
0
 10
210.272614
 20
127.772614
 11
214.727386
 21
132.227386
  0
LINE
  8
0
 10
185.170364
 20
165.294098
 11
184.854187
 21
164.114090
  0
LINE
  8
0
 10
194.829636
 20
165.294098
 11
195.145813
 21
164.114075
  0
LINE
  8
0
 10
185.170380
 20
94.705910
 11
184.854202
 21
95.885918
  0
LINE
  8
0
 10
194.829620
 20
94.705902
 11
195.145813
 21
95.885918
  0
LINE
  8
0
 10
216.970764
 20
108.486549
 11
218.150772
 21
108.170364
  0
LINE
  8
0
 10
222.116562
 20
117.399368
 11
222.980392
 21
116.535538
  0
LINE
  8
0
 10
222.116577
 20
142.600632
 11
222.980408
 21
143.464462
  0
LINE
  8
0
 10
174.684128
 20
114.580299
 11
178.161545
 21
118.057716
  0
LINE
  8
0
 10
154.000000
 20
148.000000
 11
154.500000
 21
148.000000
  0
LINE
  8
0
 10
154.000000
 20
112.000000
 11
154.500000
 21
112.000000
  0
LINE
  8
0
 10
158.500000
 20
152.000000
 11
163.424637
 21
152.000000
  0
LINE
  8
0
 10
154.000000
 20
112.000000
 11
154.000000
 21
148.000000
  0
LINE
  8
0
 10
154.500000
 20
112.000000
 11
154.500000
 21
148.000000
  0
LINE
  8
0
 10
191.254913
 20
135.816162
 11
195.816162
 21
131.254913
  0
LINE
  8
0
 10
191.007996
 20
135.355972
 11
195.355972
 21
131.007980
  0
LINE
  8
0
 10
195.816162
 20
131.254898
 11
195.355972
 21
131.007980
  0
LINE
  8
0
 10
191.254913
 20
135.816162
 11
191.007996
 21
135.355972
  0
LINE
  8
0
 10
158.500000
 20
108.000000
 11
161.504379
 21
108.000000
  0
LINE
  8
0
 10
170.554596
 20
105.604790
 11
165.604813
 21
110.554565
  0
LINE
  8
0
 10
184.183838
 20
131.254913
 11
184.644028
 21
131.007980
  0
LINE
  8
0
 10
184.183838
 20
131.254913
 11
188.745087
 21
135.816162
  0
LINE
  8
0
 10
184.644028
 20
131.007996
 11
188.992020
 21
135.355972
  0
LINE
  8
0
 10
188.745087
 20
135.816162
 11
188.992020
 21
135.355972
  0
LINE
  8
0
 10
188.745087
 20
124.183838
 11
188.992020
 21
124.644028
  0
LINE
  8
0
 10
188.745087
 20
124.183838
 11
184.183838
 21
128.745087
  0
LINE
  8
0
 10
188.992004
 20
124.644028
 11
184.644028
 21
128.992020
  0
LINE
  8
0
 10
184.183838
 20
128.745087
 11
184.644028
 21
128.992020
  0
LINE
  8
0
 10
195.816162
 20
128.745087
 11
195.355972
 21
128.992004
  0
LINE
  8
0
 10
195.816162
 20
128.745087
 11
191.254913
 21
124.183838
  0
LINE
  8
0
 10
195.355972
 20
128.992004
 11
191.007980
 21
124.644028
  0
LINE
  8
0
 10
191.254913
 20
124.183838
 11
191.007980
 21
124.644028
  0
ARC
  8
0
 10
190.000000
 20
130.000000
 40
34.500008
 50
53.333054
 51
216.666870
  0
CIRCLE
  8
0
 10
201.250000
 20
149.485580
 40
3.300000
  0
CIRCLE
  8
0
 10
212.500000
 20
130.000000
 40
6.200000
  0
CIRCLE
  8
0
 10
167.500000
 20
130.000000
 40
6.200000
  0
CIRCLE
  8
0
 10
190.000000
 20
130.000000
 40
7.500000
  0
ARC
  8
0
 10
190.000000
 20
130.000000
 40
10.000003
 50
302.778259
 51
147.221634
  0
CIRCLE
  8
0
 10
190.000000
 20
130.000000
 40
6.150000
  0
ARC
  8
0
 10
196.505386
 20
136.505386
 40
3.999987
 50
14.999856
 51
74.999931
  0
ARC
  8
0
 10
200.605927
 20
136.363281
 40
1.200955
 50
348.625824
 51
101.373466
  0
ARC
  8
0
 10
196.363281
 20
140.605927
 40
1.200970
 50
348.625977
 51
101.373466
  0
ARC
  8
0
 10
201.274277
 20
141.274277
 40
3.655774
 50
331.785889
 51
118.214233
  0
ARC
  8
0
 10
219.627777
 20
164.577515
 40
0.500001
 50
44.998764
 51
135.000000
  0
ARC
  8
0
 10
224.577530
 20
159.627762
 40
0.500011
 50
315.000000
 51
45.000000
  0
ARC
  8
0
 10
225.426056
 20
157.647858
 40
0.500001
 50
315.001251
 51
45.000000
  0
ARC
  8
0
 10
217.647888
 20
165.426041
 40
0.499990
 50
45.000000
 51
135.001236
  0
ARC
  8
0
 10
221.098907
 20
161.098877
 40
3.519521
 50
348.051544
 51
101.948662
  0
CIRCLE
  8
0
 10
215.667984
 20
155.667969
 40
2.500000
  0
CIRCLE
  8
0
 10
215.667984
 20
155.667969
 40
2.000000
  0
CIRCLE
  8
0
 10
164.332016
 20
104.332031
 40
2.500000
  0
CIRCLE
  8
0
 10
164.332016
 20
104.332031
 40
2.000000
  0
ARC
  8
0
 10
160.372223
 20
95.422485
 40
0.500006
 50
224.999374
 51
314.999390
  0
ARC
  8
0
 10
155.422470
 20
100.372238
 40
0.500001
 50
135.001236
 51
225.000000
  0
ARC
  8
0
 10
154.573944
 20
102.352135
 40
0.499995
 50
134.999374
 51
225.000626
  0
ARC
  8
0
 10
162.352112
 20
94.573959
 40
0.500001
 50
225.001236
 51
315.000000
  0
ARC
  8
0
 10
158.901108
 20
98.901123
 40
3.519534
 50
168.051712
 51
281.948425
  0
ARC
  8
0
 10
190.000000
 20
130.000000
 40
34.500004
 50
233.333054
 51
36.666927
  0
ARC
  8
0
 10
190.000000
 20
130.000000
 40
36.000000
 50
34.597832
 51
37.979603
  0
ARC
  8
0
 10
190.000000
 20
130.000000
 40
36.000004
 50
52.020329
 51
55.402081
  0
ARC
  8
0
 10
190.000000
 20
130.000000
 40
36.000008
 50
214.597855
 51
217.979614
  0
ARC
  8
0
 10
190.000000
 20
130.000000
 40
36.000004
 50
232.020325
 51
235.402100
  0
ARC
  8
0
 10
190.000000
 20
164.000000
 40
5.000007
 50
15.000010
 51
164.999939
  0
ARC
  8
0
 10
190.000000
 20
96.000000
 40
5.000007
 50
195.000015
 51
345.000000
  0
ARC
  8
0
 10
219.444870
 20
113.000000
 40
5.000000
 50
254.999969
 51
45.000122
  0
ARC
  8
0
 10
219.444870
 20
147.000000
 40
5.000005
 50
315.000000
 51
100.230713
  0
ARC
  8
0
 10
158.500000
 20
112.000000
 40
4.000000
 50
180.000000
 51
270.000000
  0
ARC
  8
0
 10
158.500000
 20
148.000000
 40
4.000000
 50
90.000000
 51
180.000000
  0
CIRCLE
  8
0
 10
190.000000
 20
130.000000
 40
5.950000
  0
ARC
  8
0
 10
190.000000
 20
130.000000
 40
5.449996
 50
349.341736
 51
10.658412
  0
ARC
  8
0
 10
149.942688
 20
159.080276
 40
9.999996
 50
307.678986
 51
324.021637
  0
ARC
  8
0
 10
149.942688
 20
100.919724
 40
9.999999
 50
34.851940
 51
52.321041
  0
ARC
  8
0
 10
190.000000
 20
164.000000
 40
2.099996
 50
12.061755
 51
167.938248
  0
ARC
  8
0
 10
160.555145
 20
147.000015
 40
2.099995
 50
72.061516
 51
227.938309
  0
ARC
  8
0
 10
160.555130
 20
113.000000
 40
2.099994
 50
132.061523
 51
287.938416
  0
ARC
  8
0
 10
190.000000
 20
96.000000
 40
2.099996
 50
192.061752
 51
347.938232
  0
ARC
  8
0
 10
219.444870
 20
113.000000
 40
2.099995
 50
252.061508
 51
47.938614
  0
ARC
  8
0
 10
219.444870
 20
147.000000
 40
2.099999
 50
312.061401
 51
107.938484
  0
ARC
  8
0
 10
190.000000
 20
130.000000
 40
39.500004
 50
233.736923
 51
36.263016
  0
ARC
  8
0
 10
190.000000
 20
130.000000
 40
39.500000
 50
53.736954
 51
144.021622
  0
ARC
  8
0
 10
190.000000
 20
130.000000
 40
5.449996
 50
79.341743
 51
100.658257
  0
ARC
  8
0
 10
190.000000
 20
130.000000
 40
5.449996
 50
169.341751
 51
190.658249
  0
ARC
  8
0
 10
190.000000
 20
130.000000
 40
5.449996
 50
259.341736
 51
280.658417
  0
POINT
  8
0
 10
-230.000000
 20
-60.000000
  0
POINT
  8
0
 10
-210.500000
 20
-60.000000
  0
POINT
  8
0
 10
-210.500000
 20
-60.000000
  0
POINT
  8
0
 10
-230.000000
 20
-60.000000
  0
LINE
  8
0
 10
-228.800003
 20
-94.500000
 11
-228.800003
 21
-88.744659
  0
LINE
  8
0
 10
-235.000000
 20
-94.500000
 11
-235.000000
 21
-88.744659
  0
LINE
  8
0
 10
-235.000000
 20
-25.500000
 11
-228.799988
 21
-25.500000
  0
LINE
  8
0
 10
-235.000015
 20
-94.500000
 11
-228.800018
 21
-94.500000
  0
LINE
  8
0
  6
DASHED
 10
-235.000000
 20
-26.700001
 11
-229.999985
 21
-26.700001
  0
LINE
  8
0
 10
-219.500000
 20
-32.352139
 11
-212.099991
 21
-32.352139
  0
LINE
  8
0
 10
-220.299988
 20
-30.372234
 11
-211.300003
 21
-30.372234
  0
LINE
  8
0
 10
-220.299988
 20
-24.922485
 11
-211.300003
 21
-24.922485
  0
LINE
  8
0
 10
-219.500000
 20
-24.073956
 11
-212.099991
 21
-24.073956
  0
LINE
  8
0
 10
-219.500000
 20
-36.736195
 11
-212.099991
 21
-36.736195
  0
LINE
  8
0
 10
-211.600006
 20
-36.236195
 11
-211.600006
 21
-31.437931
  0
LINE
  8
0
 10
-210.800003
 20
-34.821983
 11
-210.800003
 21
-25.422485
  0
LINE
  8
0
 10
-220.000000
 20
-36.236195
 11
-220.000000
 21
-31.437927
  0
LINE
  8
0
 10
-220.800003
 20
-34.821983
 11
-220.800003
 21
-25.422485
  0
LINE
  8
0
 10
-219.500000
 20
-30.937927
 11
-212.099991
 21
-30.937927
  0
LINE
  8
0
 10
-221.300003
 20
-35.321983
 11
-220.000000
 21
-35.321983
  0
LINE
  8
0
 10
-220.000000
 20
-24.922485
 11
-220.000000
 21
-24.573956
  0
LINE
  8
0
 10
-211.600006
 20
-24.922485
 11
-211.600006
 21
-24.573956
  0
LINE
  8
0
 10
-211.599991
 20
-35.321983
 11
-210.299988
 21
-35.321983
  0
LINE
  8
0
 10
-227.300003
 20
-35.039139
 11
-221.300003
 21
-35.039139
  0
LINE
  8
0
 10
-210.300003
 20
-35.039139
 11
-210.300003
 21
-29.382286
  0
LINE
  8
0
 10
-221.300003
 20
-35.039139
 11
-221.300003
 21
-29.382282
  0
LINE
  8
0
 10
-212.300003
 20
-42.534473
 11
-212.300003
 21
-36.736195
  0
LINE
  8
0
 10
-219.300003
 20
-42.534470
 11
-219.300003
 21
-36.736195
  0
LINE
  8
0
 10
-210.299988
 20
-35.039139
 11
-205.299988
 21
-35.039139
  0
LINE
  8
0
 10
-214.299957
 20
-39.706047
 11
-214.299957
 21
-42.534470
  0
LINE
  8
0
 10
-217.300003
 20
-39.706039
 11
-217.300003
 21
-42.534470
  0
LINE
  8
0
 10
-219.299988
 20
-42.534470
 11
-217.300003
 21
-42.534470
  0
LINE
  8
0
 10
-214.299988
 20
-42.534470
 11
-212.299988
 21
-42.534470
  0
LINE
  8
0
 10
-205.300003
 20
-40.483864
 11
-205.300003
 21
-29.382286
  0
LINE
  8
0
 10
-227.300003
 20
-41.615253
 11
-227.300003
 21
-31.255344
  0
LINE
  8
0
 10
-227.300003
 20
-29.382282
 11
-221.300003
 21
-29.382282
  0
LINE
  8
0
 10
-221.300003
 20
-29.665127
 11
-220.799988
 21
-29.665127
  0
LINE
  8
0
 10
-210.800003
 20
-29.665127
 11
-210.299988
 21
-29.665127
  0
LINE
  8
0
 10
-210.299988
 20
-29.382282
 11
-205.299988
 21
-29.382282
  0
LINE
  8
0
 10
-227.300003
 20
-40.483864
 11
-219.299988
 21
-40.483864
  0
LINE
  8
0
 10
-217.300003
 20
-40.908127
 11
-214.300003
 21
-40.908127
  0
LINE
  8
0
 10
-217.300003
 20
-41.968781
 11
-214.299988
 21
-41.968781
  0
LINE
  8
0
 10
-212.299988
 20
-40.483864
 11
-205.299988
 21
-40.483864
  0
LINE
  8
0
 10
-212.299988
 20
-40.908127
 11
-207.299988
 21
-40.908127
  0
LINE
  8
0
 10
-212.299988
 20
-41.968781
 11
-207.299988
 21
-41.968781
  0
LINE
  8
0
 10
-207.300003
 20
-41.968781
 11
-207.300003
 21
-40.483864
  0
LINE
  8
0
 10
-220.299988
 20
-41.615257
 11
-219.299988
 21
-40.908154
  0
LINE
  8
0
 10
-220.299973
 20
-42.675903
 11
-219.299988
 21
-41.968800
  0
LINE
  8
0
 10
-228.800003
 20
-42.675907
 11
-220.299988
 21
-42.675907
  0
LINE
  8
0
 10
-227.300003
 20
-41.615253
 11
-220.299988
 21
-41.615253
  0
LINE
  8
0
 10
-220.299988
 20
-42.675907
 11
-220.299988
 21
-41.615253
  0
LINE
  8
0
 10
-203.300003
 20
-36.832031
 11
-203.300003
 21
-31.832031
  0
LINE
  8
0
 10
-205.299988
 20
-36.832031
 11
-203.300003
 21
-36.832031
  0
LINE
  8
0
 10
-203.300003
 20
-36.332031
 11
-188.222092
 21
-36.332031
  0
LINE
  8
0
 10
-203.300003
 20
-32.332031
 11
-188.222092
 21
-32.332031
  0
LINE
  8
0
 10
-205.299988
 20
-31.832031
 11
-203.300003
 21
-31.832031
  0
LINE
  8
0
 10
-240.799988
 20
-39.397915
 11
-239.300003
 21
-39.397915
  0
LINE
  8
0
 10
-242.299988
 20
-38.326420
 11
-239.300003
 21
-38.326420
  0
LINE
  8
0
 10
-242.299988
 20
-31.255344
 11
-239.300003
 21
-31.255344
  0
LINE
  8
0
 10
-228.800003
 20
-31.255344
 11
-228.800003
 21
-25.500000
  0
LINE
  8
0
 10
-242.299988
 20
-41.403118
 11
-242.299988
 21
-31.255344
  0
LINE
  8
0
 10
-240.799988
 20
-40.255829
 11
-240.799988
 21
-39.397915
  0
LINE
  8
0
 10
-239.300003
 20
-42.463776
 11
-239.300003
 21
-38.326420
  0
LINE
  8
0
 10
-235.300003
 20
-42.463776
 11
-235.300003
 21
-38.326420
  0
LINE
  8
0
 10
-235.300003
 20
-39.397915
 11
-228.800003
 21
-39.397915
  0
LINE
  8
0
 10
-239.300003
 20
-39.558731
 11
-235.300003
 21
-39.558731
  0
LINE
  8
0
 10
-239.300003
 20
-30.366341
 11
-235.300003
 21
-30.366341
  0
LINE
  8
0
 10
-235.300003
 20
-31.255344
 11
-227.300003
 21
-31.255344
  0
LINE
  8
0
 10
-235.300003
 20
-38.326420
 11
-227.300003
 21
-38.326420
  0
LINE
  8
0
 10
-239.300003
 20
-31.255344
 11
-239.300003
 21
-30.366341
  0
LINE
  8
0
 10
-235.300003
 20
-31.255344
 11
-235.300003
 21
-30.366341
  0
LINE
  8
0
 10
-235.000000
 20
-31.255344
 11
-235.000000
 21
-25.500000
  0
LINE
  8
0
 10
-239.300003
 20
-42.463776
 11
-235.300003
 21
-42.463776
  0
LINE
  8
0
 10
-242.299988
 20
-41.403118
 11
-239.300003
 21
-41.403118
  0
LINE
  8
0
 10
-242.299988
 20
-40.255829
 11
-239.300003
 21
-40.255829
  0
LINE
  8
0
 10
-235.300003
 20
-41.403118
 11
-235.000000
 21
-41.403118
  0
LINE
  8
0
 10
-235.300003
 20
-40.255829
 11
-235.000000
 21
-40.255829
  0
LINE
  8
0
 10
-219.500000
 20
-87.647858
 11
-212.100006
 21
-87.647858
  0
LINE
  8
0
 10
-220.300003
 20
-89.627762
 11
-211.300003
 21
-89.627762
  0
LINE
  8
0
 10
-220.300003
 20
-95.077515
 11
-211.300003
 21
-95.077515
  0
LINE
  8
0
 10
-219.500000
 20
-95.926041
 11
-212.100006
 21
-95.926041
  0
LINE
  8
0
 10
-219.500000
 20
-83.263809
 11
-212.100006
 21
-83.263809
  0
LINE
  8
0
 10
-211.600006
 20
-83.763809
 11
-211.600006
 21
-88.562073
  0
LINE
  8
0
 10
-210.800003
 20
-85.178024
 11
-210.800003
 21
-94.577515
  0
LINE
  8
0
 10
-220.000000
 20
-83.763809
 11
-220.000000
 21
-88.562073
  0
LINE
  8
0
 10
-220.800003
 20
-85.178017
 11
-220.800003
 21
-94.577515
  0
LINE
  8
0
 10
-219.500000
 20
-89.062073
 11
-212.100006
 21
-89.062073
  0
LINE
  8
0
 10
-221.300003
 20
-84.678017
 11
-220.000000
 21
-84.678017
  0
LINE
  8
0
 10
-220.000000
 20
-95.077515
 11
-220.000000
 21
-95.426041
  0
LINE
  8
0
 10
-211.600006
 20
-95.077515
 11
-211.600006
 21
-95.426041
  0
LINE
  8
0
 10
-211.600006
 20
-84.678017
 11
-210.300003
 21
-84.678017
  0
LINE
  8
0
 10
-227.300003
 20
-84.960861
 11
-221.300003
 21
-84.960861
  0
LINE
  8
0
 10
-210.300003
 20
-84.678017
 11
-210.300003
 21
-90.617722
  0
LINE
  8
0
 10
-221.300003
 20
-84.678017
 11
-221.300003
 21
-90.617722
  0
LINE
  8
0
 10
-212.300003
 20
-77.465530
 11
-212.300003
 21
-83.263809
  0
LINE
  8
0
 10
-219.300003
 20
-77.465530
 11
-219.300003
 21
-83.263809
  0
LINE
  8
0
 10
-210.300003
 20
-84.960861
 11
-205.300003
 21
-84.960861
  0
LINE
  8
0
 10
-214.299957
 20
-80.293961
 11
-214.299957
 21
-77.465530
  0
LINE
  8
0
 10
-217.300003
 20
-80.293968
 11
-217.300003
 21
-77.465538
  0
LINE
  8
0
 10
-219.300003
 20
-77.465530
 11
-217.300003
 21
-77.465530
  0
LINE
  8
0
 10
-214.300003
 20
-77.465530
 11
-212.300003
 21
-77.465530
  0
LINE
  8
0
 10
-205.300003
 20
-79.516144
 11
-205.300003
 21
-90.617722
  0
LINE
  8
0
 10
-227.300003
 20
-78.384750
 11
-227.300003
 21
-88.744659
  0
LINE
  8
0
 10
-227.300003
 20
-90.617722
 11
-221.300003
 21
-90.617722
  0
LINE
  8
0
 10
-221.300003
 20
-90.334877
 11
-220.800003
 21
-90.334877
  0
LINE
  8
0
 10
-210.800003
 20
-90.334877
 11
-210.300003
 21
-90.334877
  0
LINE
  8
0
 10
-210.300003
 20
-90.617722
 11
-205.300003
 21
-90.617722
  0
LINE
  8
0
 10
-227.300003
 20
-79.516136
 11
-219.300003
 21
-79.516136
  0
LINE
  8
0
 10
-217.300003
 20
-79.091873
 11
-214.300003
 21
-79.091873
  0
LINE
  8
0
 10
-217.300003
 20
-78.031219
 11
-214.300003
 21
-78.031219
  0
LINE
  8
0
 10
-217.300003
 20
-79.516136
 11
-214.300003
 21
-79.516136
  0
LINE
  8
0
 10
-212.300003
 20
-79.516136
 11
-205.300003
 21
-79.516136
  0
LINE
  8
0
 10
-212.300003
 20
-79.091873
 11
-207.300003
 21
-79.091873
  0
LINE
  8
0
 10
-212.300003
 20
-78.031219
 11
-207.300003
 21
-78.031219
  0
LINE
  8
0
 10
-207.300003
 20
-78.031219
 11
-207.300003
 21
-79.516144
  0
LINE
  8
0
 10
-220.299973
 20
-78.384758
 11
-219.299973
 21
-79.091858
  0
LINE
  8
0
 10
-220.299973
 20
-77.324097
 11
-219.299988
 21
-78.031204
  0
LINE
  8
0
 10
-228.800003
 20
-77.324097
 11
-220.299988
 21
-77.324097
  0
LINE
  8
0
 10
-227.300003
 20
-78.384750
 11
-220.299988
 21
-78.384750
  0
LINE
  8
0
 10
-220.299988
 20
-77.324097
 11
-220.299988
 21
-78.384750
  0
LINE
  8
0
 10
-203.300003
 20
-83.167969
 11
-203.300003
 21
-88.167969
  0
LINE
  8
0
 10
-205.300003
 20
-83.167969
 11
-203.300003
 21
-83.167969
  0
LINE
  8
0
 10
-203.300003
 20
-83.667969
 11
-188.222092
 21
-83.667969
  0
LINE
  8
0
 10
-203.300003
 20
-87.667969
 11
-188.222092
 21
-87.667969
  0
LINE
  8
0
 10
-205.300003
 20
-88.167969
 11
-203.300003
 21
-88.167969
  0
LINE
  8
0
 10
-240.800003
 20
-80.602089
 11
-239.300003
 21
-80.602089
  0
LINE
  8
0
 10
-242.300003
 20
-81.673584
 11
-239.300003
 21
-81.673584
  0
LINE
  8
0
 10
-242.300003
 20
-88.744659
 11
-239.300003
 21
-88.744659
  0
LINE
  8
0
 10
-242.299988
 20
-78.596886
 11
-242.299988
 21
-88.744659
  0
LINE
  8
0
 10
-240.799988
 20
-79.744171
 11
-240.799988
 21
-80.602089
  0
LINE
  8
0
 10
-239.300003
 20
-77.536224
 11
-239.300003
 21
-81.673584
  0
LINE
  8
0
 10
-235.300003
 20
-77.536224
 11
-235.300003
 21
-81.673584
  0
LINE
  8
0
 10
-235.300003
 20
-80.602089
 11
-228.800003
 21
-80.602089
  0
LINE
  8
0
 10
-239.300003
 20
-80.441269
 11
-235.300003
 21
-80.441269
  0
LINE
  8
0
 10
-239.300003
 20
-89.633659
 11
-235.300003
 21
-89.633659
  0
LINE
  8
0
 10
-235.300003
 20
-88.744659
 11
-227.300003
 21
-88.744659
  0
LINE
  8
0
 10
-235.300003
 20
-81.673584
 11
-227.300003
 21
-81.673584
  0
LINE
  8
0
 10
-239.300003
 20
-88.744659
 11
-239.300003
 21
-89.633659
  0
LINE
  8
0
 10
-235.300003
 20
-88.744659
 11
-235.300003
 21
-89.633659
  0
LINE
  8
0
 10
-239.300003
 20
-77.536224
 11
-235.300003
 21
-77.536224
  0
LINE
  8
0
 10
-242.299988
 20
-78.596886
 11
-239.300003
 21
-78.596886
  0
LINE
  8
0
 10
-242.300003
 20
-79.744171
 11
-239.300003
 21
-79.744171
  0
LINE
  8
0
 10
-235.300003
 20
-78.596886
 11
-235.000000
 21
-78.596886
  0
LINE
  8
0
 10
-235.300003
 20
-79.744171
 11
-235.000000
 21
-79.744171
  0
LINE
  8
0
 10
-228.800003
 20
-80.602089
 11
-228.800003
 21
-39.397915
  0
LINE
  8
0
 10
-235.000000
 20
-80.602089
 11
-235.000000
 21
-39.397915
  0
LINE
  8
0
 10
-188.222092
 20
-83.667969
 11
-188.222092
 21
-87.667969
  0
LINE
  8
0
 10
-188.222092
 20
-85.967972
 11
-185.222092
 21
-85.967972
  0
LINE
  8
0
 10
-188.222092
 20
-85.367973
 11
-185.222092
 21
-85.367973
  0
LINE
  8
0
 10
-188.222092
 20
-86.967972
 11
-185.222092
 21
-86.967972
  0
LINE
  8
0
 10
-188.222092
 20
-84.367973
 11
-185.222092
 21
-84.367973
  0
LINE
  8
0
 10
-185.222092
 20
-84.367973
 11
-185.222092
 21
-85.367973
  0
LINE
  8
0
 10
-185.222092
 20
-85.967972
 11
-185.222092
 21
-86.967972
  0
LINE
  8
0
 10
-185.222092
 20
-84.492973
 11
-183.722092
 21
-84.492973
  0
LINE
  8
0
 10
-185.222092
 20
-84.617973
 11
-183.722092
 21
-84.617973
  0
LINE
  8
0
 10
-185.222092
 20
-84.742973
 11
-183.722092
 21
-84.742973
  0
LINE
  8
0
 10
-185.222092
 20
-84.867973
 11
-183.722092
 21
-84.867973
  0
LINE
  8
0
 10
-185.222092
 20
-84.992973
 11
-183.722092
 21
-84.992973
  0
LINE
  8
0
 10
-185.222092
 20
-85.117973
 11
-183.722092
 21
-85.117973
  0
LINE
  8
0
 10
-185.222092
 20
-85.242973
 11
-183.722092
 21
-85.242973
  0
LINE
  8
0
 10
-185.222092
 20
-86.092972
 11
-183.722092
 21
-86.092972
  0
LINE
  8
0
 10
-185.222092
 20
-86.217972
 11
-183.722092
 21
-86.217972
  0
LINE
  8
0
 10
-185.222092
 20
-86.342972
 11
-183.722092
 21
-86.342972
  0
LINE
  8
0
 10
-185.222092
 20
-86.467972
 11
-183.722092
 21
-86.467972
  0
LINE
  8
0
 10
-185.222092
 20
-86.592972
 11
-183.722092
 21
-86.592972
  0
LINE
  8
0
 10
-185.222092
 20
-86.717972
 11
-183.722092
 21
-86.717972
  0
LINE
  8
0
 10
-185.222092
 20
-86.842972
 11
-183.722092
 21
-86.842972
  0
LINE
  8
0
 10
-188.222092
 20
-32.332031
 11
-188.222092
 21
-36.332031
  0
LINE
  8
0
 10
-188.222092
 20
-34.632034
 11
-185.222092
 21
-34.632034
  0
LINE
  8
0
 10
-188.222092
 20
-34.032036
 11
-185.222092
 21
-34.032036
  0
LINE
  8
0
 10
-188.222092
 20
-35.632034
 11
-185.222092
 21
-35.632034
  0
LINE
  8
0
 10
-188.222092
 20
-33.032036
 11
-185.222092
 21
-33.032036
  0
LINE
  8
0
 10
-185.222092
 20
-33.032036
 11
-185.222092
 21
-34.032036
  0
LINE
  8
0
 10
-185.222092
 20
-34.632034
 11
-185.222092
 21
-35.632034
  0
LINE
  8
0
 10
-185.222092
 20
-33.157036
 11
-183.722092
 21
-33.157036
  0
LINE
  8
0
 10
-185.222092
 20
-33.282036
 11
-183.722092
 21
-33.282036
  0
LINE
  8
0
 10
-185.222092
 20
-33.407036
 11
-183.722092
 21
-33.407036
  0
LINE
  8
0
 10
-185.222092
 20
-33.532036
 11
-183.722092
 21
-33.532036
  0
LINE
  8
0
 10
-185.222092
 20
-33.657036
 11
-183.722092
 21
-33.657036
  0
LINE
  8
0
 10
-185.222092
 20
-33.782036
 11
-183.722092
 21
-33.782036
  0
LINE
  8
0
 10
-185.222092
 20
-33.907036
 11
-183.722092
 21
-33.907036
  0
LINE
  8
0
 10
-185.222092
 20
-34.757034
 11
-183.722092
 21
-34.757034
  0
LINE
  8
0
 10
-185.222092
 20
-34.882034
 11
-183.722092
 21
-34.882034
  0
LINE
  8
0
 10
-185.222092
 20
-35.007034
 11
-183.722092
 21
-35.007034
  0
LINE
  8
0
 10
-185.222092
 20
-35.132034
 11
-183.722092
 21
-35.132034
  0
LINE
  8
0
 10
-185.222092
 20
-35.257034
 11
-183.722092
 21
-35.257034
  0
LINE
  8
0
 10
-185.222092
 20
-35.382034
 11
-183.722092
 21
-35.382034
  0
LINE
  8
0
 10
-185.222092
 20
-35.507034
 11
-183.722092
 21
-35.507034
  0
LINE
  8
0
 10
-227.300003
 20
-88.744659
 11
-227.300003
 21
-90.617722
  0
LINE
  8
0
 10
-227.300003
 20
-31.255344
 11
-227.300003
 21
-29.382282
  0
LINE
  8
0
 10
-217.300003
 20
-40.483864
 11
-214.299957
 21
-40.483864
  0
LINE
  8
0
 10
-227.500000
 20
-47.799999
 11
-227.500000
 21
-54.703392
  0
LINE
  8
0
 10
-244.000000
 20
-31.000000
 11
-244.000000
 21
-89.000000
  0
LINE
  8
0
 10
-228.800003
 20
-72.500000
 11
-227.800003
 21
-72.500000
  0
LINE
  8
0
 10
-228.800003
 20
-47.500000
 11
-227.800003
 21
-47.500000
  0
LINE
  8
0
 10
-227.799988
 20
-72.500008
 11
-227.499985
 21
-72.200012
  0
LINE
  8
0
 10
-227.499985
 20
-47.799988
 11
-227.799988
 21
-47.499989
  0
LINE
  8
0
 10
-244.000061
 20
-88.999962
 11
-242.299988
 21
-86.733200
  0
LINE
  8
0
 10
-244.000046
 20
-31.000038
 11
-242.299988
 21
-33.266785
  0
LINE
  8
0
 10
-241.000000
 20
-41.403118
 11
-241.000000
 21
-53.250000
  0
LINE
  8
0
 10
-241.000000
 20
-66.750000
 11
-241.000000
 21
-78.596886
  0
LINE
  8
0
 10
-240.000000
 20
-54.250000
 11
-235.000000
 21
-54.250000
  0
LINE
  8
0
 10
-240.000000
 20
-65.750000
 11
-235.000000
 21
-65.750000
  0
LINE
  8
0
 10
-227.500000
 20
-65.296608
 11
-227.500000
 21
-72.199997
  0
LINE
  8
0
 10
-221.500000
 20
-49.999996
 11
-221.500000
 21
-70.000000
  0
LINE
  8
0
 10
-213.300003
 20
-49.999992
 11
-213.300003
 21
-71.702606
  0
LINE
  8
0
 10
-212.099991
 20
-49.999992
 11
-212.099991
 21
-78.031219
  0
LINE
  8
0
 10
-221.500000
 20
-50.000000
 11
-212.099991
 21
-50.000000
  0
LINE
  8
0
 10
-211.299988
 20
-52.499992
 11
-211.299988
 21
-67.499992
  0
LINE
  8
0
 10
-212.099991
 20
-52.500000
 11
-211.299988
 21
-52.500000
  0
LINE
  8
0
 10
-212.099991
 20
-67.500000
 11
-211.299988
 21
-67.500000
  0
LINE
  8
0
 10
-221.500000
 20
-70.000000
 11
-213.300003
 21
-70.000000
  0
LINE
  8
0
 10
-219.299988
 20
-75.238144
 11
-212.099991
 21
-75.238144
  0
LINE
  8
0
 10
-219.299988
 20
-71.702614
 11
-212.099991
 21
-71.702614
  0
LINE
  8
0
 10
-219.299988
 20
-71.702606
 11
-219.299988
 21
-77.324097
  0
LINE
  8
0
 10
-219.299988
 20
-76.086670
 11
-213.300003
 21
-76.086670
  0
LINE
  8
0
 10
-213.300003
 20
-76.086670
 11
-213.300003
 21
-77.465530
  0
LINE
  8
0
 10
-217.500000
 20
-47.837757
 11
-220.964111
 21
-49.251976
  0
LINE
  8
0
 10
-220.964081
 20
-49.251972
 11
-220.964081
 21
-50.000000
  0
LINE
  8
0
 10
-214.035873
 20
-49.251972
 11
-217.499985
 21
-47.837753
  0
LINE
  8
0
 10
-214.035889
 20
-50.000000
 11
-214.035889
 21
-49.251972
  0
LINE
  8
0
 10
-217.499985
 20
-47.837753
 11
-217.499985
 21
-50.000000
  0
LINE
  8
0
 10
-215.500000
 20
-47.974731
 11
-215.500000
 21
-48.654240
  0
LINE
  8
0
 10
-219.499969
 20
-47.970192
 11
-219.499969
 21
-48.654240
  0
LINE
  8
0
 10
-210.500000
 20
-54.549999
 11
-210.500000
 21
-65.449997
  0
LINE
  8
0
 10
-227.500000
 20
-66.000000
 11
-224.050003
 21
-66.000000
  0
LINE
  8
0
 10
-227.500000
 20
-54.000000
 11
-224.050003
 21
-54.000000
  0
LINE
  8
0
 10
-224.000000
 20
-54.049999
 11
-224.000000
 21
-65.950005
  0
LINE
  8
0
 10
-224.000000
 20
-65.949997
 11
-221.500000
 21
-65.949997
  0
LINE
  8
0
 10
-224.000000
 20
-54.049999
 11
-221.500000
 21
-54.049999
  0
LINE
  8
0
 10
-211.000015
 20
-65.949974
 11
-210.500031
 21
-65.449982
  0
LINE
  8
0
 10
-211.000061
 20
-54.050045
 11
-210.500061
 21
-54.550045
  0
LINE
  8
0
 10
-211.000000
 20
-54.049999
 11
-211.000000
 21
-65.949997
  0
LINE
  8
0
 10
-224.049988
 20
-53.999989
 11
-223.999985
 21
-54.049988
  0
LINE
  8
0
 10
-224.050018
 20
-66.000023
 11
-224.000031
 21
-65.950020
  0
LINE
  8
0
 10
-223.500137
 20
-61.254906
 11
-221.500000
 21
-61.254906
  0
LINE
  8
0
 10
-223.500076
 20
-65.816162
 11
-221.500000
 21
-65.816162
  0
LINE
  8
0
 10
-223.500076
 20
-65.816162
 11
-221.500000
 21
-65.086334
  0
LINE
  8
0
 10
-211.000000
 20
-61.254921
 11
-210.499985
 21
-61.007996
  0
LINE
  8
0
 10
-211.000061
 20
-65.816101
 11
-210.500061
 21
-65.355919
  0
LINE
  8
0
 10
-211.000031
 20
-65.816200
 11
-211.299988
 21
-65.706741
  0
LINE
  8
0
 10
-223.500000
 20
-58.745094
 11
-221.500000
 21
-58.745094
  0
LINE
  8
0
 10
-211.000015
 20
-54.183846
 11
-211.299988
 21
-54.293304
  0
LINE
  8
0
 10
-223.500076
 20
-54.183838
 11
-221.500000
 21
-54.913666
  0
LINE
  8
0
 10
-211.000000
 20
-58.745060
 11
-210.499985
 21
-58.991982
  0
LINE
  8
0
 10
-223.500076
 20
-54.183838
 11
-221.500000
 21
-54.183838
  0
LINE
  8
0
 10
-211.000000
 20
-54.183830
 11
-210.500000
 21
-54.644020
  0
LINE
  8
0
 10
-211.299988
 20
-54.049999
 11
-211.000000
 21
-54.049999
  0
LINE
  8
0
 10
-211.299988
 20
-65.949997
 11
-211.000000
 21
-65.949997
  0
LINE
  8
0
 10
-223.500076
 20
-54.183838
 11
-223.500000
 21
-58.745094
  0
LINE
  8
0
 10
-223.500137
 20
-61.254906
 11
-223.500076
 21
-65.816162
  0
LINE
  8
0
 10
-211.299988
 20
-58.635654
 11
-211.000015
 21
-58.745113
  0
LINE
  8
0
 10
-221.500000
 20
-58.015293
 11
-223.500000
 21
-58.745094
  0
LINE
  8
0
 10
-211.299988
 20
-58.745094
 11
-211.000000
 21
-58.745094
  0
LINE
  8
0
 10
-211.299988
 20
-61.254906
 11
-211.000000
 21
-61.254906
  0
LINE
  8
0
 10
-221.500000
 20
-61.984753
 11
-223.500137
 21
-61.254906
  0
LINE
  8
0
 10
-211.299988
 20
-61.364346
 11
-211.000031
 21
-61.254887
  0
LINE
  8
0
 10
-211.299988
 20
-54.183838
 11
-211.000000
 21
-54.183838
  0
LINE
  8
0
 10
-211.299988
 20
-65.816162
 11
-211.000000
 21
-65.816162
  0
ARC
  8
0
 10
-232.144592
 20
-60.000000
 40
7.044596
 50
298.344604
 51
61.655350
  0
ARC
  8
0
 10
-219.500000
 20
-36.236195
 40
0.500000
 50
180.000000
 51
270.000000
  0
ARC
  8
0
 10
-212.099991
 20
-36.236195
 40
0.500000
 50
270.000000
 51
0.000000
  0
ARC
  8
0
 10
-211.300003
 20
-34.821983
 40
0.500000
 50
270.000000
 51
0.000000
  0
ARC
  8
0
 10
-220.299988
 20
-34.821983
 40
0.500000
 50
180.000000
 51
270.000000
  0
ARC
  8
0
 10
-220.299988
 20
-25.422485
 40
0.500000
 50
90.000000
 51
180.000000
  0
ARC
  8
0
 10
-211.300003
 20
-25.422485
 40
0.500000
 50
0.000000
 51
90.000000
  0
ARC
  8
0
 10
-212.099991
 20
-24.573956
 40
0.500000
 50
0.000000
 51
90.000000
  0
ARC
  8
0
 10
-219.500000
 20
-24.573956
 40
0.500000
 50
90.000000
 51
180.000000
  0
ARC
  8
0
 10
-212.099991
 20
-31.437931
 40
0.500000
 50
0.000000
 51
90.000000
  0
ARC
  8
0
 10
-219.500000
 20
-31.437927
 40
0.500000
 50
90.000000
 51
180.000000
  0
ARC
  8
0
 10
-219.500000
 20
-83.763809
 40
0.500000
 50
90.000000
 51
180.000000
  0
ARC
  8
0
 10
-212.100006
 20
-83.763809
 40
0.500000
 50
0.000000
 51
90.000000
  0
ARC
  8
0
 10
-211.300003
 20
-85.178024
 40
0.500000
 50
0.000000
 51
90.000000
  0
ARC
  8
0
 10
-220.300003
 20
-85.178017
 40
0.500000
 50
90.000000
 51
180.000000
  0
ARC
  8
0
 10
-220.300003
 20
-94.577515
 40
0.500000
 50
180.000000
 51
270.000000
  0
ARC
  8
0
 10
-211.300003
 20
-94.577515
 40
0.500000
 50
270.000000
 51
0.000000
  0
ARC
  8
0
 10
-212.100006
 20
-95.426041
 40
0.500000
 50
270.000000
 51
0.000000
  0
ARC
  8
0
 10
-219.500000
 20
-95.426041
 40
0.500000
 50
180.000000
 51
270.000000
  0
ARC
  8
0
 10
-212.100006
 20
-88.562073
 40
0.500000
 50
270.000000
 51
0.000000
  0
ARC
  8
0
 10
-219.500000
 20
-88.562073
 40
0.500000
 50
180.000000
 51
270.000000
  0
ARC
  8
0
 10
-240.000000
 20
-53.250000
 40
1.000000
 50
180.000000
 51
270.000000
  0
ARC
  8
0
 10
-240.000000
 20
-66.750000
 40
1.000000
 50
90.000000
 51
180.000000
  0
ARC
  8
0
 10
-215.055679
 20
-39.706039
 40
0.755692
 50
0.000000
 51
14.106671
  0
ARC
  8
0
 10
-215.253235
 20
-39.778461
 40
0.965201
 50
15.417976
 51
51.388855
  0
ARC
  8
0
 10
-215.799988
 20
-40.577267
 40
1.931883
 50
53.502392
 51
126.497612
  0
ARC
  8
0
 10
-216.346741
 20
-39.778465
 40
0.965195
 50
128.611008
 51
164.582031
  0
ARC
  8
0
 10
-216.544296
 20
-39.706039
 40
0.755698
 50
165.893616
 51
180.000000
  0
ARC
  8
0
 10
-236.480301
 20
-34.790882
 40
2.130294
 50
3.762855
 51
11.773512
  0
ARC
  8
0
 10
-236.697861
 20
-34.857349
 40
2.356933
 50
12.276172
 51
45.305767
  0
ARC
  8
0
 10
-237.300003
 20
-35.590450
 40
3.302732
 50
46.824963
 51
133.175125
  0
ARC
  8
0
 10
-237.902145
 20
-34.857349
 40
2.356926
 50
134.694366
 51
167.724014
  0
ARC
  8
0
 10
-238.119705
 20
-34.790882
 40
2.130296
 50
168.226685
 51
183.762848
  0
ARC
  8
0
 10
-223.581314
 20
-32.210716
 40
0.425081
 50
345.893433
 51
14.106079
  0
ARC
  8
0
 10
-223.692444
 20
-32.251453
 40
0.542929
 50
15.417357
 51
51.388226
  0
ARC
  8
0
 10
-223.999985
 20
-32.700775
 40
1.086678
 50
53.502201
 51
126.497498
  0
ARC
  8
0
 10
-224.307526
 20
-32.251450
 40
0.542928
 50
128.611404
 51
164.581863
  0
ARC
  8
0
 10
-224.418655
 20
-32.210709
 40
0.425081
 50
165.893417
 51
194.106079
  0
ARC
  8
0
 10
-224.307526
 20
-32.169971
 40
0.542929
 50
195.417358
 51
231.388229
  0
ARC
  8
0
 10
-223.999985
 20
-31.720648
 40
1.086679
 50
233.502258
 51
306.497375
  0
ARC
  8
0
 10
-223.692444
 20
-32.169975
 40
0.542930
 50
308.611267
 51
344.581879
  0
ARC
  8
0
 10
-238.763794
 20
-34.790882
 40
1.486205
 50
174.645874
 51
194.106445
  0
ARC
  8
0
 10
-238.375259
 20
-34.648449
 40
1.898238
 50
195.417816
 51
231.388306
  0
ARC
  8
0
 10
-237.300003
 20
-33.077503
 40
3.799345
 50
233.502060
 51
306.497894
  0
ARC
  8
0
 10
-236.224747
 20
-34.648449
 40
1.898234
 50
308.611603
 51
344.582184
  0
ARC
  8
0
 10
-235.836212
 20
-34.790882
 40
1.486208
 50
345.893555
 51
5.331355
  0
ARC
  8
0
 10
-237.300018
 20
-38.192390
 40
4.532875
 50
65.111618
 51
114.902016
  0
ARC
  8
0
 10
-223.255676
 20
-32.210712
 40
0.755698
 50
345.893616
 51
14.106391
  0
ARC
  8
0
 10
-223.453232
 20
-32.283138
 40
0.965201
 50
15.417976
 51
51.388996
  0
ARC
  8
0
 10
-223.999985
 20
-33.081936
 40
1.931880
 50
53.502323
 51
126.497643
  0
ARC
  8
0
 10
-224.546738
 20
-32.283134
 40
0.965193
 50
128.611069
 51
164.582245
  0
ARC
  8
0
 10
-224.744293
 20
-32.210712
 40
0.755698
 50
165.893616
 51
194.106384
  0
ARC
  8
0
 10
-224.546738
 20
-32.138287
 40
0.965201
 50
195.417969
 51
231.388992
  0
ARC
  8
0
 10
-223.999985
 20
-31.339489
 40
1.931880
 50
233.502319
 51
306.497681
  0
ARC
  8
0
 10
-223.453232
 20
-32.138290
 40
0.965192
 50
308.611145
 51
344.582245
  0
ARC
  8
0
 10
-214.980286
 20
-27.543802
 40
2.130294
 50
3.762855
 51
11.773512
  0
ARC
  8
0
 10
-215.197845
 20
-27.610271
 40
2.356933
 50
12.276217
 51
45.305767
  0
ARC
  8
0
 10
-215.799988
 20
-28.343372
 40
3.302732
 50
46.824963
 51
133.175125
  0
ARC
  8
0
 10
-216.402130
 20
-27.610273
 40
2.356927
 50
134.694336
 51
167.724014
  0
ARC
  8
0
 10
-216.619690
 20
-27.543806
 40
2.130296
 50
168.226685
 51
183.762955
  0
ARC
  8
0
 10
-217.263779
 20
-27.543804
 40
1.486205
 50
174.645874
 51
194.106445
  0
ARC
  8
0
 10
-216.875244
 20
-27.401371
 40
1.898238
 50
195.417816
 51
231.388351
  0
ARC
  8
0
 10
-215.799988
 20
-25.830425
 40
3.799346
 50
233.502075
 51
306.497894
  0
ARC
  8
0
 10
-214.724731
 20
-27.401371
 40
1.898234
 50
308.611603
 51
344.582184
  0
ARC
  8
0
 10
-214.336197
 20
-27.543804
 40
1.486208
 50
345.893555
 51
5.331208
  0
ARC
  8
0
 10
-215.800003
 20
-30.945312
 40
4.532877
 50
65.111626
 51
114.902008
  0
ARC
  8
0
 10
-216.544312
 20
-80.293961
 40
0.755692
 50
180.000000
 51
194.106384
  0
ARC
  8
0
 10
-216.346756
 20
-80.221535
 40
0.965201
 50
195.417969
 51
231.388992
  0
ARC
  8
0
 10
-215.800003
 20
-79.422737
 40
1.931880
 50
233.502319
 51
306.497681
  0
ARC
  8
0
 10
-215.253250
 20
-80.221535
 40
0.965195
 50
308.610992
 51
344.582031
  0
ARC
  8
0
 10
-215.055695
 20
-80.293961
 40
0.755698
 50
345.893616
 51
359.999420
  0
ARC
  8
0
 10
-238.119705
 20
-85.209122
 40
2.130295
 50
176.237045
 51
191.773209
  0
ARC
  8
0
 10
-237.902145
 20
-85.142654
 40
2.356930
 50
192.275894
 51
225.305573
  0
ARC
  8
0
 10
-237.300003
 20
-84.409554
 40
3.302724
 50
226.824829
 51
313.174988
  0
ARC
  8
0
 10
-236.697861
 20
-85.142654
 40
2.356934
 50
314.694183
 51
347.723724
  0
ARC
  8
0
 10
-236.480301
 20
-85.209122
 40
2.130298
 50
348.226379
 51
356.237244
  0
ARC
  8
0
 10
-235.836212
 20
-85.209122
 40
1.486211
 50
354.668640
 51
14.106581
  0
ARC
  8
0
 10
-236.224747
 20
-85.351555
 40
1.898239
 50
15.417928
 51
51.388382
  0
ARC
  8
0
 10
-237.300003
 20
-86.922501
 40
3.799348
 50
53.502098
 51
126.497902
  0
ARC
  8
0
 10
-238.375259
 20
-85.351555
 40
1.898234
 50
128.611618
 51
164.582291
  0
ARC
  8
0
 10
-238.763794
 20
-85.209122
 40
1.486207
 50
165.893707
 51
185.354126
  0
ARC
  8
0
 10
-237.300034
 20
-81.807610
 40
4.532875
 50
245.098007
 51
294.888397
  0
ARC
  8
0
 10
-223.255692
 20
-87.789291
 40
0.755698
 50
345.893616
 51
14.106391
  0
ARC
  8
0
 10
-223.453247
 20
-87.861717
 40
0.965201
 50
15.417976
 51
51.388996
  0
ARC
  8
0
 10
-224.000000
 20
-88.660515
 40
1.931880
 50
53.502323
 51
126.497673
  0
ARC
  8
0
 10
-224.546753
 20
-87.861717
 40
0.965195
 50
128.611008
 51
164.582031
  0
ARC
  8
0
 10
-224.744308
 20
-87.789291
 40
0.755698
 50
165.893616
 51
194.106384
  0
ARC
  8
0
 10
-224.546753
 20
-87.716866
 40
0.965201
 50
195.417969
 51
231.388992
  0
ARC
  8
0
 10
-224.000000
 20
-86.918068
 40
1.931880
 50
233.502319
 51
306.497681
  0
ARC
  8
0
 10
-223.453247
 20
-87.716866
 40
0.965195
 50
308.610992
 51
344.582031
  0
ARC
  8
0
 10
-223.581329
 20
-87.789291
 40
0.425078
 50
345.894928
 51
14.107077
  0
ARC
  8
0
 10
-223.692459
 20
-87.830025
 40
0.542930
 50
15.417746
 51
51.388477
  0
ARC
  8
0
 10
-224.000000
 20
-88.279358
 40
1.086690
 50
53.502678
 51
126.497559
  0
ARC
  8
0
 10
-224.307541
 20
-87.830032
 40
0.542927
 50
128.611526
 51
164.583038
  0
ARC
  8
0
 10
-224.418671
 20
-87.789291
 40
0.425078
 50
165.894913
 51
194.107071
  0
ARC
  8
0
 10
-224.307541
 20
-87.748558
 40
0.542930
 50
195.417740
 51
231.388474
  0
ARC
  8
0
 10
-224.000000
 20
-87.299225
 40
1.086690
 50
233.502686
 51
306.497559
  0
ARC
  8
0
 10
-223.692459
 20
-87.748550
 40
0.542927
 50
308.611511
 51
344.583038
  0
ARC
  8
0
 10
-215.800018
 20
-89.054695
 40
4.532875
 50
245.098007
 51
294.888397
  0
ARC
  8
0
 10
-214.336197
 20
-92.456192
 40
1.486212
 50
354.668365
 51
14.106581
  0
ARC
  8
0
 10
-214.724731
 20
-92.598625
 40
1.898239
 50
15.417928
 51
51.388382
  0
ARC
  8
0
 10
-215.799988
 20
-94.169571
 40
3.799348
 50
53.502098
 51
126.497902
  0
ARC
  8
0
 10
-216.875244
 20
-92.598625
 40
1.898234
 50
128.611618
 51
164.582291
  0
ARC
  8
0
 10
-217.263779
 20
-92.456192
 40
1.486207
 50
165.893707
 51
185.354416
  0
ARC
  8
0
 10
-216.619690
 20
-92.456192
 40
2.130294
 50
176.237244
 51
191.773209
  0
ARC
  8
0
 10
-216.402130
 20
-92.389725
 40
2.356930
 50
192.275894
 51
225.305573
  0
ARC
  8
0
 10
-215.799988
 20
-91.656624
 40
3.302724
 50
226.824829
 51
313.174988
  0
ARC
  8
0
 10
-215.197845
 20
-92.389725
 40
2.356934
 50
314.694183
 51
347.723724
  0
ARC
  8
0
 10
-214.980286
 20
-92.456192
 40
2.130298
 50
348.226379
 51
356.237030
  0
POLYLINE
  8
0
 66
     1
  0
VERTEX
  8
0
 10
-241.000000
 20
-66.750000
  0
VERTEX
  8
0
 10
-240.950134
 20
-66.250214
  0
VERTEX
  8
0
 10
-241.000000
 20
-65.750000
  0
VERTEX
  8
0
 10
-241.141968
 20
-65.291962
  0
VERTEX
  8
0
 10
-241.405502
 20
-64.848488
  0
VERTEX
  8
0
 10
-241.873978
 20
-64.334518
  0
VERTEX
  8
0
 10
-242.290314
 20
-63.887802
  0
VERTEX
  8
0
 10
-242.427673
 20
-63.692001
  0
VERTEX
  8
0
 10
-242.613358
 20
-63.333336
  0
VERTEX
  8
0
 10
-243.004776
 20
-62.416790
  0
VERTEX
  8
0
 10
-243.272202
 20
-61.515152
  0
VERTEX
  8
0
 10
-243.389069
 20
-60.762894
  0
VERTEX
  8
0
 10
-243.425430
 20
-60.000000
  0
VERTEX
  8
0
 10
-243.394501
 20
-59.262184
  0
VERTEX
  8
0
 10
-243.272202
 20
-58.484848
  0
VERTEX
  8
0
 10
-242.963379
 20
-57.485172
  0
VERTEX
  8
0
 10
-242.613358
 20
-56.666664
  0
VERTEX
  8
0
 10
-242.488251
 20
-56.414082
  0
VERTEX
  8
0
 10
-242.290314
 20
-56.112198
  0
VERTEX
  8
0
 10
-241.837433
 20
-55.616463
  0
VERTEX
  8
0
 10
-241.405502
 20
-55.151512
  0
VERTEX
  8
0
 10
-241.154053
 20
-54.724644
  0
VERTEX
  8
0
 10
-241.000000
 20
-54.250000
  0
VERTEX
  8
0
 10
-240.949982
 20
-53.749081
  0
VERTEX
  8
0
 10
-241.000000
 20
-53.250000
  0
SEQEND
  0
POLYLINE
  8
0
 66
     1
  0
VERTEX
  8
0
 10
-242.299957
 20
-34.876469
  0
VERTEX
  8
0
 10
-242.891739
 20
-35.157135
  0
VERTEX
  8
0
 10
-243.417755
 20
-35.769943
  0
VERTEX
  8
0
 10
-243.530060
 20
-36.571453
  0
VERTEX
  8
0
 10
-243.251938
 20
-37.504875
  0
VERTEX
  8
0
 10
-242.777176
 20
-38.432140
  0
VERTEX
  8
0
 10
-242.299515
 20
-39.215183
  0
SEQEND
  0
POLYLINE
  8
0
 66
     1
  0
VERTEX
  8
0
 10
-242.299164
 20
-80.784264
  0
VERTEX
  8
0
 10
-242.816193
 20
-81.703384
  0
VERTEX
  8
0
 10
-243.249222
 20
-82.685226
  0
VERTEX
  8
0
 10
-243.486862
 20
-83.578033
  0
VERTEX
  8
0
 10
-243.417755
 20
-84.230049
  0
VERTEX
  8
0
 10
-242.926117
 20
-84.748650
  0
VERTEX
  8
0
 10
-242.299957
 20
-85.123528
  0
SEQEND
  0
ARC
  8
0
 10
-216.706360
 20
-47.979172
 40
2.862148
 50
3.361349
 51
11.306158
  0
ARC
  8
0
 10
-216.917007
 20
-48.040955
 40
3.080871
 50
11.664829
 51
43.965508
  0
ARC
  8
0
 10
-217.500000
 20
-48.722363
 40
3.974463
 50
45.201351
 51
134.799469
  0
ARC
  8
0
 10
-218.082993
 20
-48.040966
 40
3.080870
 50
136.035400
 51
168.336136
  0
ARC
  8
0
 10
-218.293640
 20
-47.979187
 40
2.862145
 50
168.694794
 51
178.338379
  0
ARC
  8
0
 10
-216.507599
 20
-47.979183
 40
1.007606
 50
359.789154
 51
14.106320
  0
ARC
  8
0
 10
-216.770996
 20
-48.075748
 40
1.286929
 50
15.417927
 51
51.388783
  0
ARC
  8
0
 10
-217.500000
 20
-49.140816
 40
2.575845
 50
53.502266
 51
126.497734
  0
ARC
  8
0
 10
-218.229004
 20
-48.075748
 40
1.286929
 50
128.611221
 51
164.582077
  0
ARC
  8
0
 10
-218.492401
 20
-47.979183
 40
1.007603
 50
165.893677
 51
180.568329
  0
ARC
  8
0
 10
-216.167465
 20
-47.802662
 40
2.352359
 50
324.591980
 51
344.582062
  0
ARC
  8
0
 10
-215.685989
 20
-47.979176
 40
1.841763
 50
345.893646
 51
14.106702
  0
ARC
  8
0
 10
-216.167465
 20
-48.155689
 40
2.352359
 50
15.418214
 51
51.388714
  0
ARC
  8
0
 10
-217.500000
 20
-50.102528
 40
4.708373
 50
53.502361
 51
126.497749
  0
ARC
  8
0
 10
-218.832535
 20
-48.155697
 40
2.352362
 50
128.611404
 51
164.582062
  0
ARC
  8
0
 10
-219.314011
 20
-47.979183
 40
1.841763
 50
165.893646
 51
194.106705
  0
ARC
  8
0
 10
-218.832535
 20
-47.802670
 40
2.352359
 50
195.418213
 51
215.378067
  0
POINT
  8
0
 10
-210.500000
 20
-145.000000
  0
POINT
  8
0
 10
-230.000000
 20
-145.000000
  0
LINE
  8
0
 10
-228.800003
 20
-179.500000
 11
-228.800003
 21
-124.397911
  0
LINE
  8
0
 10
-235.000000
 20
-179.500000
 11
-235.000000
 21
-124.397911
  0
LINE
  8
0
 10
-235.000000
 20
-110.500000
 11
-228.799988
 21
-110.500000
  0
LINE
  8
0
 10
-235.000015
 20
-179.500000
 11
-228.800018
 21
-179.500000
  0
LINE
  8
0
 10
-219.500000
 20
-117.352142
 11
-212.099991
 21
-117.352142
  0
LINE
  8
0
 10
-220.299988
 20
-115.372238
 11
-211.300003
 21
-115.372238
  0
LINE
  8
0
 10
-220.299988
 20
-109.922485
 11
-211.300003
 21
-109.922485
  0
LINE
  8
0
 10
-219.500000
 20
-109.073959
 11
-212.099991
 21
-109.073959
  0
LINE
  8
0
 10
-219.500000
 20
-121.736191
 11
-212.099991
 21
-121.736191
  0
LINE
  8
0
 10
-211.600006
 20
-121.236191
 11
-211.600006
 21
-116.437927
  0
LINE
  8
0
 10
-210.800003
 20
-119.821983
 11
-210.800003
 21
-110.422485
  0
LINE
  8
0
 10
-220.000000
 20
-121.236191
 11
-220.000000
 21
-116.437927
  0
LINE
  8
0
 10
-220.799988
 20
-119.821983
 11
-220.799988
 21
-110.422485
  0
LINE
  8
0
 10
-219.500000
 20
-115.937927
 11
-212.099991
 21
-115.937927
  0
LINE
  8
0
 10
-221.300003
 20
-120.321983
 11
-220.000000
 21
-120.321983
  0
LINE
  8
0
 10
-220.000000
 20
-109.922485
 11
-220.000000
 21
-109.573959
  0
LINE
  8
0
 10
-211.600006
 20
-109.922485
 11
-211.600006
 21
-109.573959
  0
LINE
  8
0
 10
-211.599991
 20
-120.321983
 11
-210.299988
 21
-120.321983
  0
LINE
  8
0
 10
-227.300003
 20
-120.039139
 11
-221.300003
 21
-120.039139
  0
LINE
  8
0
 10
-210.299988
 20
-120.321983
 11
-210.299988
 21
-114.382286
  0
LINE
  8
0
 10
-221.300003
 20
-120.321983
 11
-221.300003
 21
-114.382278
  0
LINE
  8
0
 10
-212.299988
 20
-127.534470
 11
-212.299988
 21
-121.736191
  0
LINE
  8
0
 10
-219.299988
 20
-127.534470
 11
-219.299988
 21
-121.736191
  0
LINE
  8
0
 10
-210.299988
 20
-120.039139
 11
-205.299988
 21
-120.039139
  0
LINE
  8
0
 10
-214.299957
 20
-124.706047
 11
-214.299957
 21
-127.534470
  0
LINE
  8
0
 10
-217.300003
 20
-124.706039
 11
-217.300003
 21
-127.534470
  0
LINE
  8
0
 10
-219.299988
 20
-127.534470
 11
-217.300003
 21
-127.534470
  0
LINE
  8
0
 10
-214.299988
 20
-127.534470
 11
-212.299988
 21
-127.534470
  0
LINE
  8
0
 10
-205.299988
 20
-125.483864
 11
-205.299988
 21
-114.382286
  0
LINE
  8
0
 10
-227.300003
 20
-126.615250
 11
-227.300003
 21
-116.255341
  0
LINE
  8
0
 10
-227.300003
 20
-114.382278
 11
-221.300003
 21
-114.382278
  0
LINE
  8
0
 10
-221.300003
 20
-114.665123
 11
-220.799988
 21
-114.665123
  0
LINE
  8
0
 10
-210.800003
 20
-114.665123
 11
-210.299988
 21
-114.665123
  0
LINE
  8
0
 10
-210.299988
 20
-114.382278
 11
-205.299988
 21
-114.382278
  0
LINE
  8
0
 10
-227.300003
 20
-125.483864
 11
-219.299988
 21
-125.483864
  0
LINE
  8
0
 10
-217.300003
 20
-125.908127
 11
-214.300003
 21
-125.908127
  0
LINE
  8
0
 10
-217.300003
 20
-126.968781
 11
-214.299988
 21
-126.968781
  0
LINE
  8
0
 10
-217.300003
 20
-125.483864
 11
-214.300003
 21
-125.483864
  0
LINE
  8
0
 10
-212.299988
 20
-125.483864
 11
-205.299988
 21
-125.483864
  0
LINE
  8
0
 10
-212.299988
 20
-125.908127
 11
-207.299988
 21
-125.908127
  0
LINE
  8
0
 10
-212.299988
 20
-126.968781
 11
-207.299988
 21
-126.968781
  0
LINE
  8
0
 10
-207.299988
 20
-126.968781
 11
-207.299988
 21
-125.483864
  0
LINE
  8
0
 10
-220.299973
 20
-126.615257
 11
-219.299988
 21
-125.908157
  0
LINE
  8
0
 10
-220.299988
 20
-127.675903
 11
-219.299988
 21
-126.968796
  0
LINE
  8
0
 10
-228.800003
 20
-127.675903
 11
-220.299988
 21
-127.675903
  0
LINE
  8
0
 10
-227.300003
 20
-126.615250
 11
-220.299988
 21
-126.615250
  0
LINE
  8
0
 10
-220.299988
 20
-127.675903
 11
-220.299988
 21
-126.615250
  0
LINE
  8
0
 10
-203.300003
 20
-121.832031
 11
-203.300003
 21
-116.832031
  0
LINE
  8
0
 10
-205.299988
 20
-121.832031
 11
-203.300003
 21
-121.832031
  0
LINE
  8
0
 10
-203.300003
 20
-121.332031
 11
-188.222092
 21
-121.332031
  0
LINE
  8
0
 10
-203.300003
 20
-117.332031
 11
-188.222076
 21
-117.332031
  0
LINE
  8
0
 10
-205.299988
 20
-116.832031
 11
-203.300003
 21
-116.832031
  0
LINE
  8
0
 10
-240.799988
 20
-124.397911
 11
-239.300003
 21
-124.397911
  0
LINE
  8
0
 10
-242.299988
 20
-123.326416
 11
-239.300003
 21
-123.326416
  0
LINE
  8
0
 10
-242.299988
 20
-116.255341
 11
-239.300003
 21
-116.255341
  0
LINE
  8
0
 10
-228.800003
 20
-116.255341
 11
-228.800003
 21
-110.500000
  0
LINE
  8
0
 10
-242.299988
 20
-126.403114
 11
-242.299988
 21
-116.255341
  0
LINE
  8
0
 10
-240.799988
 20
-125.255829
 11
-240.799988
 21
-124.397911
  0
LINE
  8
0
 10
-239.300003
 20
-127.463776
 11
-239.300003
 21
-123.326416
  0
LINE
  8
0
 10
-235.300003
 20
-127.463776
 11
-235.300003
 21
-123.326416
  0
LINE
  8
0
 10
-235.300003
 20
-124.397911
 11
-228.800003
 21
-124.397911
  0
LINE
  8
0
 10
-239.300003
 20
-124.558731
 11
-235.300003
 21
-124.558731
  0
LINE
  8
0
 10
-239.300003
 20
-115.366341
 11
-235.300003
 21
-115.366341
  0
LINE
  8
0
 10
-235.300003
 20
-116.255341
 11
-227.300003
 21
-116.255341
  0
LINE
  8
0
 10
-235.300003
 20
-123.326416
 11
-227.300003
 21
-123.326416
  0
LINE
  8
0
 10
-239.300003
 20
-116.255341
 11
-239.300003
 21
-115.366341
  0
LINE
  8
0
 10
-235.300003
 20
-116.255341
 11
-235.300003
 21
-115.366341
  0
LINE
  8
0
 10
-235.000000
 20
-116.255341
 11
-235.000000
 21
-110.500000
  0
LINE
  8
0
 10
-239.300003
 20
-127.463776
 11
-235.300003
 21
-127.463776
  0
LINE
  8
0
 10
-242.299988
 20
-126.403114
 11
-239.300003
 21
-126.403114
  0
LINE
  8
0
 10
-242.299988
 20
-125.255829
 11
-239.300003
 21
-125.255829
  0
LINE
  8
0
 10
-235.300003
 20
-126.403114
 11
-235.000000
 21
-126.403114
  0
LINE
  8
0
 10
-235.300003
 20
-125.255829
 11
-235.000000
 21
-125.255829
  0
LINE
  8
0
 10
-188.222092
 20
-117.332031
 11
-188.222092
 21
-121.332031
  0
LINE
  8
0
 10
-188.222092
 20
-119.632027
 11
-185.222092
 21
-119.632027
  0
LINE
  8
0
 10
-188.222092
 20
-119.032028
 11
-185.222092
 21
-119.032028
  0
LINE
  8
0
 10
-188.222092
 20
-120.632027
 11
-185.222092
 21
-120.632027
  0
LINE
  8
0
 10
-188.222092
 20
-118.032028
 11
-185.222092
 21
-118.032028
  0
LINE
  8
0
 10
-185.222092
 20
-118.032028
 11
-185.222092
 21
-119.032028
  0
LINE
  8
0
 10
-185.222092
 20
-119.632027
 11
-185.222092
 21
-120.632027
  0
LINE
  8
0
 10
-185.222092
 20
-118.157028
 11
-183.722092
 21
-118.157028
  0
LINE
  8
0
 10
-185.222092
 20
-118.282028
 11
-183.722092
 21
-118.282028
  0
LINE
  8
0
 10
-185.222092
 20
-118.407028
 11
-183.722092
 21
-118.407028
  0
LINE
  8
0
 10
-185.222092
 20
-118.532028
 11
-183.722092
 21
-118.532028
  0
LINE
  8
0
 10
-185.222092
 20
-118.657028
 11
-183.722092
 21
-118.657028
  0
LINE
  8
0
 10
-185.222092
 20
-118.782028
 11
-183.722092
 21
-118.782028
  0
LINE
  8
0
 10
-185.222092
 20
-118.907028
 11
-183.722092
 21
-118.907028
  0
LINE
  8
0
 10
-185.222092
 20
-119.757027
 11
-183.722092
 21
-119.757027
  0
LINE
  8
0
 10
-185.222092
 20
-119.882027
 11
-183.722092
 21
-119.882027
  0
LINE
  8
0
 10
-185.222092
 20
-120.007027
 11
-183.722092
 21
-120.007027
  0
LINE
  8
0
 10
-185.222092
 20
-120.132027
 11
-183.722092
 21
-120.132027
  0
LINE
  8
0
 10
-185.222092
 20
-120.257027
 11
-183.722092
 21
-120.257027
  0
LINE
  8
0
 10
-185.222092
 20
-120.382027
 11
-183.722092
 21
-120.382027
  0
LINE
  8
0
 10
-185.222092
 20
-120.507027
 11
-183.722092
 21
-120.507027
  0
LINE
  8
0
 10
-227.300003
 20
-116.255341
 11
-227.300003
 21
-114.382278
  0
LINE
  8
0
 10
-227.500000
 20
-132.800003
 11
-227.500000
 21
-157.199997
  0
LINE
  8
0
 10
-244.000000
 20
-116.000000
 11
-244.000000
 21
-174.000000
  0
LINE
  8
0
 10
-243.437500
 20
-173.250000
 11
-235.000000
 21
-173.250000
  0
LINE
  8
0
 10
-240.999985
 20
-162.000000
 11
-235.000000
 21
-162.000000
  0
LINE
  8
0
 10
-228.800003
 20
-157.500000
 11
-227.800003
 21
-157.500000
  0
LINE
  8
0
 10
-228.800003
 20
-132.500000
 11
-227.800003
 21
-132.500000
  0
LINE
  8
0
 10
-240.999985
 20
-128.000000
 11
-235.000000
 21
-128.000000
  0
LINE
  8
0
 10
-243.437500
 20
-116.750000
 11
-242.299988
 21
-116.750000
  0
LINE
  8
0
 10
-227.799988
 20
-157.500015
 11
-227.499985
 21
-157.200012
  0
LINE
  8
0
 10
-227.799988
 20
-132.499985
 11
-227.499985
 21
-132.799988
  0
LINE
  8
0
 10
-244.000046
 20
-173.999969
 11
-241.000046
 21
-169.999969
  0
LINE
  8
0
 10
-244.000046
 20
-116.000031
 11
-242.299988
 21
-118.266769
  0
LINE
  8
0
 10
-240.999985
 20
-170.000000
 11
-240.999985
 21
-162.000000
  0
LINE
  8
0
 10
-240.999985
 20
-127.999992
 11
-240.999985
 21
-126.403114
  0
LINE
  8
0
 10
-240.999985
 20
-152.503418
 11
-240.999985
 21
-137.496582
  0
LINE
  8
0
 10
-216.300003
 20
-125.483864
 11
-216.300003
 21
-114.382286
  0
LINE
  8
0
 10
-221.500000
 20
-155.000000
 11
-221.500000
 21
-135.000000
  0
LINE
  8
0
 10
-213.300003
 20
-155.000000
 11
-213.300003
 21
-133.297394
  0
LINE
  8
0
 10
-212.099991
 20
-155.000000
 11
-212.099991
 21
-126.968781
  0
LINE
  8
0
 10
-221.500000
 20
-155.000000
 11
-212.099991
 21
-155.000000
  0
LINE
  8
0
 10
-211.299988
 20
-152.500000
 11
-211.299988
 21
-137.500000
  0
LINE
  8
0
 10
-212.099991
 20
-152.500000
 11
-211.299988
 21
-152.500000
  0
LINE
  8
0
 10
-212.099991
 20
-137.500000
 11
-211.299988
 21
-137.500000
  0
LINE
  8
0
 10
-221.500000
 20
-135.000000
 11
-213.300003
 21
-135.000000
  0
LINE
  8
0
 10
-219.300003
 20
-129.761856
 11
-212.099991
 21
-129.761856
  0
LINE
  8
0
 10
-219.300003
 20
-133.297394
 11
-212.099991
 21
-133.297394
  0
LINE
  8
0
 10
-219.299988
 20
-133.297394
 11
-219.299988
 21
-127.393074
  0
LINE
  8
0
 10
-219.300003
 20
-128.913330
 11
-213.300003
 21
-128.913330
  0
LINE
  8
0
 10
-213.300003
 20
-128.913330
 11
-213.300003
 21
-127.534470
  0
LINE
  8
0
 10
-217.500000
 20
-157.162231
 11
-220.964111
 21
-155.748016
  0
LINE
  8
0
 10
-220.964081
 20
-155.748032
 11
-220.964081
 21
-155.000000
  0
LINE
  8
0
 10
-214.035873
 20
-155.748032
 11
-217.499985
 21
-157.162247
  0
LINE
  8
0
 10
-214.035889
 20
-155.000000
 11
-214.035889
 21
-155.748032
  0
LINE
  8
0
 10
-217.499985
 20
-157.162247
 11
-217.499985
 21
-155.000000
  0
LINE
  8
0
 10
-215.500000
 20
-157.025269
 11
-215.500000
 21
-156.345764
  0
LINE
  8
0
 10
-219.499969
 20
-157.029800
 11
-219.499969
 21
-156.345764
  0
LINE
  8
0
 10
-210.500000
 20
-139.550003
 11
-210.500000
 21
-150.449997
  0
LINE
  8
0
 10
-227.500000
 20
-151.000000
 11
-224.050003
 21
-151.000000
  0
LINE
  8
0
 10
-227.500000
 20
-139.000000
 11
-224.050003
 21
-139.000000
  0
LINE
  8
0
 10
-224.000000
 20
-139.050003
 11
-224.000000
 21
-150.950012
  0
LINE
  8
0
 10
-224.000000
 20
-150.949997
 11
-221.500000
 21
-150.949997
  0
LINE
  8
0
 10
-224.000000
 20
-139.050003
 11
-221.500000
 21
-139.050003
  0
LINE
  8
0
 10
-211.000015
 20
-150.949966
 11
-210.500031
 21
-150.449982
  0
LINE
  8
0
 10
-211.000061
 20
-139.050049
 11
-210.500061
 21
-139.550049
  0
LINE
  8
0
 10
-211.000000
 20
-139.050003
 11
-211.000000
 21
-150.949997
  0
LINE
  8
0
 10
-223.500137
 20
-146.254913
 11
-221.500000
 21
-146.254913
  0
LINE
  8
0
 10
-223.500076
 20
-150.816162
 11
-221.500000
 21
-150.816162
  0
LINE
  8
0
 10
-223.500076
 20
-150.816162
 11
-221.500000
 21
-150.086334
  0
LINE
  8
0
 10
-211.000000
 20
-146.254929
 11
-210.499985
 21
-146.007996
  0
LINE
  8
0
 10
-211.000061
 20
-150.816101
 11
-210.500061
 21
-150.355911
  0
LINE
  8
0
 10
-211.000031
 20
-150.816193
 11
-211.299988
 21
-150.706741
  0
LINE
  8
0
 10
-223.500000
 20
-143.745087
 11
-221.500000
 21
-143.745087
  0
LINE
  8
0
 10
-211.000015
 20
-139.183853
 11
-211.299988
 21
-139.293304
  0
LINE
  8
0
 10
-223.500076
 20
-139.183838
 11
-221.500000
 21
-139.913666
  0
LINE
  8
0
 10
-211.000000
 20
-143.745056
 11
-210.499985
 21
-143.991989
  0
LINE
  8
0
 10
-223.500076
 20
-139.183838
 11
-221.500000
 21
-139.183838
  0
LINE
  8
0
 10
-211.000000
 20
-139.183838
 11
-210.500000
 21
-139.644012
  0
LINE
  8
0
 10
-211.299988
 20
-139.050003
 11
-211.000000
 21
-139.050003
  0
LINE
  8
0
 10
-211.299988
 20
-150.949997
 11
-211.000000
 21
-150.949997
  0
LINE
  8
0
 10
-211.299988
 20
-143.635651
 11
-211.000015
 21
-143.745117
  0
LINE
  8
0
 10
-221.500000
 20
-143.015289
 11
-223.500000
 21
-143.745102
  0
LINE
  8
0
 10
-211.299988
 20
-143.745087
 11
-211.000000
 21
-143.745087
  0
LINE
  8
0
 10
-211.299988
 20
-146.254913
 11
-211.000076
 21
-146.254913
  0
LINE
  8
0
 10
-221.500000
 20
-146.984756
 11
-223.500137
 21
-146.254898
  0
LINE
  8
0
 10
-211.299988
 20
-146.364349
 11
-211.000031
 21
-146.254883
  0
LINE
  8
0
 10
-223.500076
 20
-139.183838
 11
-223.500076
 21
-150.816162
  0
LINE
  8
0
 10
-211.299988
 20
-139.183838
 11
-211.000000
 21
-139.183838
  0
LINE
  8
0
 10
-224.050003
 20
-151.000000
 11
-224.000000
 21
-150.949997
  0
LINE
  8
0
 10
-224.050003
 20
-139.000000
 11
-224.000000
 21
-139.050003
  0
ARC
  8
0
 10
-232.144592
 20
-122.500000
 40
7.044590
 50
298.344635
 51
312.715210
  0
ARC
  8
0
 10
-219.500000
 20
-121.236191
 40
0.500000
 50
180.000000
 51
270.000000
  0
ARC
  8
0
 10
-212.099991
 20
-121.236191
 40
0.500000
 50
270.000000
 51
0.000000
  0
ARC
  8
0
 10
-211.300003
 20
-119.821983
 40
0.500000
 50
270.000000
 51
0.000000
  0
ARC
  8
0
 10
-220.299988
 20
-119.821983
 40
0.500000
 50
180.000000
 51
270.000000
  0
ARC
  8
0
 10
-220.299988
 20
-110.422485
 40
0.500000
 50
90.000000
 51
180.000000
  0
ARC
  8
0
 10
-211.300003
 20
-110.422485
 40
0.500000
 50
0.000000
 51
90.000000
  0
ARC
  8
0
 10
-212.099991
 20
-109.573959
 40
0.500000
 50
0.000000
 51
90.000000
  0
ARC
  8
0
 10
-219.500000
 20
-109.573959
 40
0.500000
 50
90.000000
 51
180.000000
  0
ARC
  8
0
 10
-212.099991
 20
-116.437927
 40
0.500000
 50
0.000000
 51
90.000000
  0
ARC
  8
0
 10
-219.500000
 20
-116.437927
 40
0.500000
 50
90.000000
 51
180.000000
  0
ARC
  8
0
 10
-232.144592
 20
-167.500000
 40
7.044590
 50
298.344635
 51
61.655243
  0
ARC
  8
0
 10
-215.055679
 20
-124.706039
 40
0.755692
 50
0.000000
 51
14.106391
  0
ARC
  8
0
 10
-215.253235
 20
-124.778465
 40
0.965201
 50
15.417976
 51
51.388996
  0
ARC
  8
0
 10
-215.799988
 20
-125.577271
 40
1.931886
 50
53.502457
 51
126.497543
  0
ARC
  8
0
 10
-216.346741
 20
-124.778465
 40
0.965195
 50
128.611008
 51
164.582031
  0
ARC
  8
0
 10
-216.544296
 20
-124.706039
 40
0.755698
 50
165.893616
 51
180.000000
  0
ARC
  8
0
 10
-236.480301
 20
-119.790878
 40
2.130294
 50
3.762753
 51
11.773612
  0
ARC
  8
0
 10
-236.697861
 20
-119.857346
 40
2.356934
 50
12.276262
 51
45.305832
  0
ARC
  8
0
 10
-237.300003
 20
-120.590446
 40
3.302735
 50
46.825008
 51
133.175171
  0
ARC
  8
0
 10
-237.902145
 20
-119.857346
 40
2.356923
 50
134.694427
 51
167.724106
  0
ARC
  8
0
 10
-238.119705
 20
-119.790878
 40
2.130295
 50
168.226791
 51
183.762955
  0
ARC
  8
0
 10
-223.581314
 20
-117.210709
 40
0.425082
 50
345.892914
 51
14.106079
  0
ARC
  8
0
 10
-223.692444
 20
-117.251450
 40
0.542930
 50
15.417746
 51
51.388477
  0
ARC
  8
0
 10
-223.999985
 20
-117.700775
 40
1.086684
 50
53.502438
 51
126.497322
  0
ARC
  8
0
 10
-224.307526
 20
-117.251442
 40
0.542927
 50
128.611526
 51
164.582260
  0
ARC
  8
0
 10
-224.418655
 20
-117.210709
 40
0.425082
 50
165.892929
 51
194.106079
  0
ARC
  8
0
 10
-224.307526
 20
-117.169968
 40
0.542930
 50
195.417740
 51
231.388474
  0
ARC
  8
0
 10
-223.999985
 20
-116.720642
 40
1.086684
 50
233.502441
 51
306.497314
  0
ARC
  8
0
 10
-223.692444
 20
-117.169975
 40
0.542927
 50
308.611511
 51
344.582245
  0
ARC
  8
0
 10
-238.763794
 20
-119.790878
 40
1.486205
 50
174.645874
 51
194.106293
  0
ARC
  8
0
 10
-238.375259
 20
-119.648445
 40
1.898237
 50
195.417709
 51
231.388382
  0
ARC
  8
0
 10
-237.300003
 20
-118.077499
 40
3.799348
 50
233.502106
 51
306.497894
  0
ARC
  8
0
 10
-236.224747
 20
-119.648445
 40
1.898234
 50
308.611603
 51
344.582062
  0
ARC
  8
0
 10
-235.836212
 20
-119.790878
 40
1.486209
 50
345.893433
 51
5.331355
  0
ARC
  8
0
 10
-237.300018
 20
-123.192398
 40
4.532878
 50
65.111641
 51
114.901993
  0
ARC
  8
0
 10
-223.255676
 20
-117.210709
 40
0.755698
 50
345.893616
 51
14.106391
  0
ARC
  8
0
 10
-223.453232
 20
-117.283134
 40
0.965201
 50
15.417976
 51
51.388996
  0
ARC
  8
0
 10
-223.999985
 20
-118.081932
 40
1.931880
 50
53.502323
 51
126.497673
  0
ARC
  8
0
 10
-224.546738
 20
-117.283134
 40
0.965195
 50
128.611008
 51
164.582031
  0
ARC
  8
0
 10
-224.744293
 20
-117.210709
 40
0.755698
 50
165.893616
 51
194.106384
  0
ARC
  8
0
 10
-224.546738
 20
-117.138283
 40
0.965201
 50
195.417969
 51
231.388992
  0
ARC
  8
0
 10
-223.999985
 20
-116.339485
 40
1.931880
 50
233.502319
 51
306.497681
  0
ARC
  8
0
 10
-223.453232
 20
-117.138283
 40
0.965195
 50
308.610992
 51
344.582031
  0
ARC
  8
0
 10
-214.980286
 20
-112.543808
 40
2.130295
 50
3.762957
 51
11.773612
  0
ARC
  8
0
 10
-215.197845
 20
-112.610275
 40
2.356934
 50
12.276262
 51
45.305832
  0
ARC
  8
0
 10
-215.799988
 20
-113.343376
 40
3.302735
 50
46.825008
 51
133.175171
  0
ARC
  8
0
 10
-216.402130
 20
-112.610275
 40
2.356923
 50
134.694427
 51
167.724106
  0
ARC
  8
0
 10
-216.619690
 20
-112.543808
 40
2.130295
 50
168.226791
 51
183.762756
  0
ARC
  8
0
 10
-217.263779
 20
-112.543808
 40
1.486206
 50
174.645584
 51
194.106293
  0
ARC
  8
0
 10
-216.875244
 20
-112.401375
 40
1.898237
 50
195.417709
 51
231.388382
  0
ARC
  8
0
 10
-215.799988
 20
-110.830429
 40
3.799348
 50
233.502106
 51
306.497894
  0
ARC
  8
0
 10
-214.724731
 20
-112.401375
 40
1.898234
 50
308.611603
 51
344.582062
  0
ARC
  8
0
 10
-214.336197
 20
-112.543808
 40
1.486209
 50
345.893433
 51
5.331647
  0
ARC
  8
0
 10
-215.800003
 20
-115.945312
 40
4.532872
 50
65.111595
 51
114.901993
  0
POLYLINE
  8
0
 66
     1
  0
VERTEX
  8
0
 10
-240.999985
 20
-162.000000
  0
VERTEX
  8
0
 10
-241.884598
 20
-161.843338
  0
VERTEX
  8
0
 10
-242.679993
 20
-161.354279
  0
VERTEX
  8
0
 10
-243.069656
 20
-160.671219
  0
VERTEX
  8
0
 10
-243.191772
 20
-159.816513
  0
VERTEX
  8
0
 10
-243.159988
 20
-158.853455
  0
VERTEX
  8
0
 10
-243.093704
 20
-158.084732
  0
VERTEX
  8
0
 10
-242.998550
 20
-157.365494
  0
VERTEX
  8
0
 10
-242.857452
 20
-156.649719
  0
VERTEX
  8
0
 10
-242.653320
 20
-155.891327
  0
VERTEX
  8
0
 10
-242.344513
 20
-155.009567
  0
VERTEX
  8
0
 10
-241.960632
 20
-154.142395
  0
VERTEX
  8
0
 10
-241.509766
 20
-153.302719
  0
VERTEX
  8
0
 10
-240.999985
 20
-152.503418
  0
SEQEND
  0
POLYLINE
  8
0
 66
     1
  0
VERTEX
  8
0
 10
-240.999985
 20
-137.496582
  0
VERTEX
  8
0
 10
-241.514877
 20
-136.680450
  0
VERTEX
  8
0
 10
-241.974258
 20
-135.812729
  0
VERTEX
  8
0
 10
-242.359848
 20
-134.939957
  0
VERTEX
  8
0
 10
-242.653320
 20
-134.108673
  0
VERTEX
  8
0
 10
-242.842957
 20
-133.389191
  0
VERTEX
  8
0
 10
-242.987137
 20
-132.648499
  0
VERTEX
  8
0
 10
-243.091080
 20
-131.897369
  0
VERTEX
  8
0
 10
-243.160004
 20
-131.146530
  0
VERTEX
  8
0
 10
-243.170898
 20
-130.201294
  0
VERTEX
  8
0
 10
-243.031784
 20
-129.309525
  0
VERTEX
  8
0
 10
-242.679993
 20
-128.645721
  0
VERTEX
  8
0
 10
-241.915466
 20
-128.188324
  0
VERTEX
  8
0
 10
-241.000000
 20
-127.999992
  0
SEQEND
  0
ARC
  8
0
 10
-218.293640
 20
-157.020813
 40
2.862135
 50
181.661621
 51
191.305206
  0
ARC
  8
0
 10
-218.082993
 20
-156.959030
 40
3.080877
 50
191.663940
 51
223.964554
  0
ARC
  8
0
 10
-217.500000
 20
-156.277634
 40
3.974447
 50
225.200500
 51
314.798737
  0
ARC
  8
0
 10
-216.917007
 20
-156.959030
 40
3.080877
 50
316.034454
 51
348.334900
  0
ARC
  8
0
 10
-216.706360
 20
-157.020813
 40
2.862142
 50
348.693542
 51
356.638336
  0
ARC
  8
0
 10
-218.492401
 20
-157.020813
 40
1.007603
 50
179.431671
 51
194.106323
  0
ARC
  8
0
 10
-218.229004
 20
-156.924240
 40
1.286932
 50
195.418259
 51
231.389099
  0
ARC
  8
0
 10
-217.500000
 20
-155.859177
 40
2.575851
 50
233.502365
 51
306.497620
  0
ARC
  8
0
 10
-216.770996
 20
-156.924255
 40
1.286926
 50
308.611328
 51
344.582397
  0
ARC
  8
0
 10
-216.507599
 20
-157.020813
 40
1.007603
 50
345.893677
 51
0.210843
  0
ARC
  8
0
 10
-218.832535
 20
-157.197327
 40
2.352360
 50
144.622086
 51
164.581604
  0
ARC
  8
0
 10
-219.314011
 20
-157.020813
 40
1.841767
 50
165.893066
 51
194.106018
  0
ARC
  8
0
 10
-218.832535
 20
-156.844299
 40
2.352353
 50
195.417679
 51
231.388489
  0
ARC
  8
0
 10
-217.500000
 20
-154.897461
 40
4.708360
 50
233.502258
 51
306.497650
  0
ARC
  8
0
 10
-216.167465
 20
-156.844299
 40
2.352368
 50
308.611298
 51
344.581604
  0
ARC
  8
0
 10
-215.685989
 20
-157.020813
 40
1.841767
 50
345.893066
 51
14.106011
  0
ARC
  8
0
 10
-216.167465
 20
-157.197327
 40
2.352353
 50
15.417677
 51
35.407719
  0
POINT
  8
0
 10
-90.000000
 20
-60.000000
  0
POINT
  8
0
 10
-50.499996
 20
-60.000000
  0
LINE
  8
0
 10
-105.238159
 20
-84.359833
 11
-114.359840
 21
-75.238144
  0
LINE
  8
0
 10
-101.702629
 20
-80.824295
 11
-102.551155
 21
-79.975769
  0
LINE
  8
0
 10
-102.551147
 20
-79.975769
 11
-84.586105
 21
-68.407722
  0
LINE
  8
0
 10
-109.975769
 20
-72.551140
 11
-98.407715
 21
-54.586102
  0
LINE
  8
0
 10
-101.702621
 20
-80.824295
 11
-105.238159
 21
-84.359825
  0
LINE
  8
0
 10
-110.824295
 20
-71.702614
 11
-114.359833
 21
-75.238144
  0
LINE
  8
0
 10
-103.258255
 20
-80.682869
 11
-105.379578
 21
-82.804192
  0
LINE
  8
0
 10
-110.682877
 20
-73.258247
 11
-112.804199
 21
-75.379562
  0
LINE
  8
0
 10
-100.606606
 20
-73.435028
 11
-104.849251
 21
-77.677666
  0
LINE
  8
0
 10
-103.435028
 20
-70.606598
 11
-107.677673
 21
-74.849236
  0
LINE
  8
0
 10
-100.606606
 20
-73.435028
 11
-103.435028
 21
-70.606598
  0
LINE
  8
0
 10
-104.000717
 20
-76.829140
 11
-106.829147
 21
-74.000710
  0
LINE
  8
0
 10
-109.975777
 20
-72.551147
 11
-110.824303
 21
-71.702621
  0
LINE
  8
0
 10
-105.556358
 20
-76.970566
 11
-106.970573
 21
-75.556351
  0
LINE
  8
0
 10
-80.100502
 20
-55.757359
 11
-85.757355
 21
-50.100502
  0
LINE
  8
0
 10
-78.216698
 20
-53.115685
 11
-83.115677
 21
-48.216698
  0
LINE
  8
0
 10
-78.056541
 20
-53.713402
 11
-80.100502
 21
-55.757362
  0
LINE
  8
0
 10
-83.713394
 20
-48.056541
 11
-85.757355
 21
-50.100506
  0
LINE
  8
0
 10
-79.630913
 20
-52.459343
 11
-81.514717
 21
-54.343147
  0
LINE
  8
0
 10
-82.459335
 20
-49.630917
 11
-84.343140
 21
-51.514721
  0
LINE
  8
0
 10
-78.216682
 20
-53.115681
 11
-78.056526
 21
-53.713394
  0
LINE
  8
0
 10
-83.115677
 20
-48.216705
 11
-83.713394
 21
-48.056549
  0
LINE
  8
0
 10
-75.504311
 20
-50.454063
 11
-80.454056
 21
-45.504311
  0
LINE
  8
0
 10
-79.393394
 20
-46.564972
 11
-82.080399
 21
-49.251980
  0
LINE
  8
0
 10
-76.564972
 20
-49.393402
 11
-79.251976
 21
-52.080406
  0
LINE
  8
0
 10
-76.847809
 20
-49.110558
 11
-79.534821
 21
-51.797565
  0
LINE
  8
0
 10
-79.110550
 20
-46.847816
 11
-81.797562
 21
-49.534821
  0
LINE
  8
0
 10
-109.091873
 20
-35.251266
 11
-114.748726
 21
-40.908119
  0
LINE
  8
0
 10
-124.931061
 20
-30.725775
 11
-113.688080
 21
-41.968769
  0
LINE
  8
0
 10
-119.274223
 20
-25.068924
 11
-108.031227
 21
-36.311920
  0
LINE
  8
0
 10
-114.960854
 20
-29.382280
 11
-120.617706
 21
-35.039131
  0
LINE
  8
0
 10
-108.031219
 20
-36.311928
 11
-113.688072
 21
-41.968781
  0
LINE
  8
0
 10
-107.465530
 20
-36.311935
 11
-113.688072
 21
-42.534473
  0
LINE
  8
0
 10
-120.617722
 20
-35.604805
 11
-113.688080
 21
-42.534454
  0
LINE
  8
0
 10
-114.395187
 20
-29.382271
 11
-107.465538
 21
-36.311920
  0
LINE
  8
0
 10
-109.516151
 20
-34.826988
 11
-115.173004
 21
-40.483841
  0
LINE
  8
0
 10
-113.263794
 20
-28.250914
 11
-114.678009
 21
-29.665129
  0
LINE
  8
0
 10
-119.981308
 20
-25.068932
 11
-124.931046
 21
-30.018671
  0
LINE
  8
0
 10
-118.001411
 20
-24.220421
 11
-119.062073
 21
-25.281078
  0
LINE
  8
0
 10
-120.334892
 20
-35.321960
 11
-121.749100
 21
-36.736172
  0
LINE
  8
0
 10
-125.779594
 20
-32.705669
 11
-121.749100
 21
-36.736176
  0
LINE
  8
0
 10
-117.294327
 20
-24.220398
 11
-113.263817
 21
-28.250902
  0
LINE
  8
0
 10
-124.718933
 20
-30.937923
 11
-125.779594
 21
-31.998583
  0
LINE
  8
0
 10
-109.445389
 20
-35.604813
 11
-109.445389
 21
-34.897705
  0
LINE
  8
0
 10
-114.395180
 20
-40.554565
 11
-115.102287
 21
-40.554565
  0
LINE
  8
0
 10
-108.384781
 20
-34.544140
 11
-108.809052
 21
-34.968403
  0
LINE
  8
0
 10
-124.931076
 20
-89.274208
 11
-113.688080
 21
-78.031219
  0
LINE
  8
0
 10
-119.274231
 20
-94.931068
 11
-108.031235
 21
-83.688072
  0
LINE
  8
0
 10
-114.960876
 20
-90.617722
 11
-120.617729
 21
-84.960869
  0
LINE
  8
0
 10
-107.324127
 20
-35.604797
 11
-107.748390
 21
-36.029060
  0
LINE
  8
0
 10
-107.465553
 20
-83.688072
 11
-113.688087
 21
-77.465530
  0
LINE
  8
0
 10
-120.617729
 20
-84.395172
 11
-113.688080
 21
-77.465530
  0
LINE
  8
0
 10
-114.395187
 20
-90.617722
 11
-107.465546
 21
-83.688072
  0
LINE
  8
0
 10
-109.516144
 20
-85.172997
 11
-115.172997
 21
-79.516136
  0
LINE
  8
0
 10
-113.263817
 20
-91.749084
 11
-114.678032
 21
-90.334877
  0
LINE
  8
0
 10
-118.001442
 20
-95.779602
 11
-119.062103
 21
-94.718933
  0
LINE
  8
0
 10
-120.334885
 20
-84.678017
 11
-121.749100
 21
-83.263809
  0
LINE
  8
0
 10
-125.779610
 20
-87.294312
 11
-121.749100
 21
-83.263809
  0
LINE
  8
0
 10
-117.294334
 20
-95.779594
 11
-113.263824
 21
-91.749084
  0
LINE
  8
0
 10
-124.718956
 20
-89.062080
 11
-125.779617
 21
-88.001419
  0
LINE
  8
0
 10
-109.445412
 20
-84.395180
 11
-109.445412
 21
-85.102287
  0
LINE
  8
0
 10
-114.395187
 20
-79.445435
 11
-115.102295
 21
-79.445435
  0
LINE
  8
0
 10
-111.673599
 20
-31.255333
 11
-107.324120
 21
-35.604813
  0
LINE
  8
0
 10
-118.744659
 20
-38.326401
 11
-114.395187
 21
-42.675877
  0
LINE
  8
0
 10
-108.031235
 20
-83.688080
 11
-113.688087
 21
-78.031227
  0
LINE
  8
0
 10
-109.091888
 20
-84.748726
 11
-114.748734
 21
-79.091873
  0
LINE
  8
0
 10
-115.031586
 20
-41.190941
 11
-115.455849
 21
-41.615204
  0
LINE
  8
0
 10
-113.970917
 20
-42.251617
 11
-114.395180
 21
-42.675884
  0
LINE
  8
0
 10
-110.441284
 20
-30.366329
 11
-109.362106
 21
-31.445505
  0
LINE
  8
0
 10
-119.633667
 20
-39.558716
 11
-118.554497
 21
-40.637886
  0
LINE
  8
0
 10
-116.516510
 20
-80.859642
 11
-110.859657
 21
-86.516495
  0
LINE
  8
0
 10
-119.633675
 20
-80.441269
 11
-118.554497
 21
-79.362091
  0
LINE
  8
0
 10
-118.744667
 20
-81.673584
 11
-114.395187
 21
-77.324112
  0
LINE
  8
0
 10
-115.031586
 20
-78.809029
 11
-115.455841
 21
-78.384766
  0
LINE
  8
0
 10
-113.970932
 20
-77.748383
 11
-114.395195
 21
-77.324120
  0
LINE
  8
0
 10
-107.324127
 20
-84.395187
 11
-107.748390
 21
-83.970924
  0
LINE
  8
0
 10
-111.673599
 20
-88.744659
 11
-107.324127
 21
-84.395180
  0
LINE
  8
0
 10
-108.384781
 20
-85.455833
 11
-108.809044
 21
-85.031570
  0
LINE
  8
0
 10
-110.441284
 20
-89.633659
 11
-109.362106
 21
-88.554489
  0
LINE
  8
0
 10
-124.931091
 20
-89.981323
 11
-119.981339
 21
-94.931076
  0
LINE
  8
0
 10
-110.859627
 20
-33.483517
 11
-116.516479
 21
-39.140366
  0
LINE
  8
0
 10
-114.727386
 20
-57.772614
 11
-110.272614
 21
-62.227386
  0
LINE
  8
0
 10
-114.727386
 20
-62.227386
 11
-110.272614
 21
-57.772614
  0
LINE
  8
0
 10
-69.727386
 20
-57.772614
 11
-65.272614
 21
-62.227386
  0
LINE
  8
0
 10
-69.727386
 20
-62.227386
 11
-65.272614
 21
-57.772614
  0
LINE
  8
0
 10
-94.829636
 20
-24.705902
 11
-95.145813
 21
-25.885910
  0
LINE
  8
0
 10
-85.170372
 20
-24.705906
 11
-84.854187
 21
-25.885914
  0
LINE
  8
0
 10
-94.829620
 20
-95.294090
 11
-95.145798
 21
-94.114082
  0
LINE
  8
0
 10
-85.170372
 20
-95.294098
 11
-84.854187
 21
-94.114075
  0
LINE
  8
0
 10
-63.029251
 20
-81.513451
 11
-61.849228
 21
-81.829636
  0
LINE
  8
0
 10
-57.883434
 20
-72.600632
 11
-57.019604
 21
-73.464462
  0
LINE
  8
0
 10
-57.883430
 20
-47.399376
 11
-57.019592
 21
-46.535538
  0
LINE
  8
0
 10
-63.029240
 20
-38.486565
 11
-61.849228
 21
-38.170380
  0
LINE
  8
0
 10
-126.000000
 20
-42.000000
 11
-125.500000
 21
-42.000000
  0
LINE
  8
0
 10
-126.000000
 20
-78.000000
 11
-125.500000
 21
-78.000000
  0
LINE
  8
0
 10
-121.500000
 20
-38.000000
 11
-118.495621
 21
-38.000000
  0
LINE
  8
0
 10
-126.000000
 20
-78.000000
 11
-126.000000
 21
-42.000000
  0
LINE
  8
0
 10
-125.500000
 20
-78.000000
 11
-125.500000
 21
-42.000000
  0
LINE
  8
0
 10
-88.745087
 20
-54.183842
 11
-84.183838
 21
-58.745090
  0
LINE
  8
0
 10
-88.992012
 20
-54.644024
 11
-84.644028
 21
-58.992016
  0
LINE
  8
0
 10
-84.183838
 20
-58.745094
 11
-84.644028
 21
-58.992016
  0
LINE
  8
0
 10
-88.745087
 20
-54.183842
 11
-88.992012
 21
-54.644028
  0
LINE
  8
0
 10
-121.500000
 20
-82.000000
 11
-118.495613
 21
-82.000000
  0
LINE
  8
0
 10
-91.254906
 20
-54.183838
 11
-91.007988
 21
-54.644024
  0
LINE
  8
0
 10
-95.816162
 20
-58.745090
 11
-91.254906
 21
-54.183842
  0
LINE
  8
0
 10
-95.355972
 20
-58.992012
 11
-91.007988
 21
-54.644024
  0
LINE
  8
0
 10
-95.816162
 20
-58.745090
 11
-95.355972
 21
-58.992012
  0
LINE
  8
0
 10
-95.816162
 20
-61.254906
 11
-95.355972
 21
-61.007984
  0
LINE
  8
0
 10
-91.254913
 20
-65.816162
 11
-95.816162
 21
-61.254910
  0
LINE
  8
0
 10
-91.007988
 20
-65.355972
 11
-95.355972
 21
-61.007988
  0
LINE
  8
0
 10
-91.254913
 20
-65.816162
 11
-91.007988
 21
-65.355972
  0
LINE
  8
0
 10
-88.745094
 20
-65.816162
 11
-88.992020
 21
-65.355972
  0
LINE
  8
0
 10
-84.183838
 20
-61.254910
 11
-88.745094
 21
-65.816162
  0
LINE
  8
0
 10
-84.644028
 20
-61.007988
 11
-88.992012
 21
-65.355972
  0
LINE
  8
0
 10
-84.183838
 20
-61.254910
 11
-84.644028
 21
-61.007988
  0
ARC
  8
0
 10
-90.000000
 20
-59.999996
 40
34.500000
 50
233.333038
 51
126.666847
  0
CIRCLE
  8
0
 10
-78.750008
 20
-40.514423
 40
3.300000
  0
CIRCLE
  8
0
 10
-90.000000
 20
-60.000000
 40
7.500000
  0
ARC
  8
0
 10
-90.000000
 20
-60.000000
 40
10.000003
 50
302.778259
 51
147.221680
  0
CIRCLE
  8
0
 10
-90.000000
 20
-60.000000
 40
6.150000
  0
ARC
  8
0
 10
-83.494614
 20
-53.494621
 40
3.999998
 50
15.000039
 51
74.999977
  0
ARC
  8
0
 10
-79.394073
 20
-53.636723
 40
1.200960
 50
348.626434
 51
101.373711
  0
ARC
  8
0
 10
-83.636719
 20
-49.394081
 40
1.200967
 50
348.626495
 51
101.373360
  0
ARC
  8
0
 10
-78.725723
 20
-48.725731
 40
3.655767
 50
331.785828
 51
118.214119
  0
ARC
  8
0
 10
-119.627777
 20
-25.422474
 40
0.500001
 50
45.000000
 51
135.000000
  0
ARC
  8
0
 10
-124.577515
 20
-30.372217
 40
0.500006
 50
135.000626
 51
224.999374
  0
ARC
  8
0
 10
-125.426048
 20
-32.352116
 40
0.500001
 50
135.000000
 51
225.000000
  0
ARC
  8
0
 10
-117.647873
 20
-24.573948
 40
0.500001
 50
45.000000
 51
135.000000
  0
ARC
  8
0
 10
-121.098892
 20
-28.901100
 40
3.519530
 50
78.051437
 51
191.948349
  0
CIRCLE
  8
0
 10
-115.667976
 20
-34.332016
 40
2.500000
  0
CIRCLE
  8
0
 10
-115.667976
 20
-34.332016
 40
2.000000
  0
CIRCLE
  8
0
 10
-115.667984
 20
-85.667969
 40
2.500000
  0
CIRCLE
  8
0
 10
-115.667984
 20
-85.667969
 40
2.000000
  0
ARC
  8
0
 10
-119.627785
 20
-94.577515
 40
0.500001
 50
225.000000
 51
315.000000
  0
ARC
  8
0
 10
-124.577530
 20
-89.627762
 40
0.499995
 50
135.000626
 51
225.000626
  0
ARC
  8
0
 10
-125.426056
 20
-87.647865
 40
0.500001
 50
135.000000
 51
225.000000
  0
ARC
  8
0
 10
-117.647881
 20
-95.426041
 40
0.500006
 50
225.000626
 51
314.999390
  0
ARC
  8
0
 10
-121.098900
 20
-91.098877
 40
3.519527
 50
168.051682
 51
281.948425
  0
ARC
  8
0
 10
-90.000000
 20
-59.999996
 40
34.500004
 50
143.333023
 51
216.666870
  0
ARC
  8
0
 10
-90.000000
 20
-59.999996
 40
36.000000
 50
142.020340
 51
145.402100
  0
ARC
  8
0
 10
-90.000000
 20
-59.999996
 40
36.000004
 50
124.597847
 51
127.979591
  0
ARC
  8
0
 10
-90.000000
 20
-60.000000
 40
36.000004
 50
214.597855
 51
217.979614
  0
ARC
  8
0
 10
-90.000000
 20
-60.000000
 40
35.999996
 50
232.020340
 51
235.402100
  0
CIRCLE
  8
0
 10
-112.500000
 20
-60.000004
 40
6.200000
  0
CIRCLE
  8
0
 10
-67.500000
 20
-60.000004
 40
6.200000
  0
ARC
  8
0
 10
-90.000000
 20
-26.000000
 40
5.000006
 50
14.999969
 51
165.000015
  0
ARC
  8
0
 10
-90.000000
 20
-94.000000
 40
5.000000
 50
195.000031
 51
344.999969
  0
ARC
  8
0
 10
-60.555138
 20
-77.000000
 40
4.999998
 50
255.000046
 51
45.000031
  0
ARC
  8
0
 10
-60.555130
 20
-43.000004
 40
4.999997
 50
314.999969
 51
105.000023
  0
ARC
  8
0
 10
-121.500000
 20
-78.000000
 40
4.000000
 50
180.000000
 51
269.999878
  0
ARC
  8
0
 10
-121.500000
 20
-42.000000
 40
4.000000
 50
90.000000
 51
179.999939
  0
ARC
  8
0
 10
-90.000000
 20
-60.000000
 40
39.500004
 50
233.736923
 51
126.263039
  0
CIRCLE
  8
0
 10
-90.000000
 20
-60.000000
 40
5.950000
  0
ARC
  8
0
 10
-90.000000
 20
-60.000000
 40
5.449997
 50
349.341705
 51
10.658333
  0
ARC
  8
0
 10
-130.057312
 20
-30.919722
 40
10.000004
 50
307.678955
 51
325.148163
  0
ARC
  8
0
 10
-130.057312
 20
-89.080276
 40
9.999999
 50
34.851940
 51
52.321041
  0
ARC
  8
0
 10
-90.000000
 20
-26.000000
 40
2.100004
 50
12.061711
 51
167.938248
  0
ARC
  8
0
 10
-119.444855
 20
-42.999992
 40
2.100000
 50
72.061775
 51
227.938095
  0
ARC
  8
0
 10
-119.444862
 20
-77.000000
 40
2.099999
 50
132.061676
 51
287.938232
  0
ARC
  8
0
 10
-90.000000
 20
-94.000000
 40
2.100002
 50
192.061508
 51
347.938446
  0
ARC
  8
0
 10
-60.555138
 20
-77.000000
 40
2.099995
 50
252.061508
 51
47.938457
  0
ARC
  8
0
 10
-60.555134
 20
-43.000000
 40
2.099999
 50
312.061523
 51
107.938553
  0
ARC
  8
0
 10
-90.000000
 20
-60.000000
 40
5.449998
 50
79.341667
 51
100.658333
  0
ARC
  8
0
 10
-90.000000
 20
-60.000000
 40
5.449998
 50
169.341660
 51
190.658340
  0
ARC
  8
0
 10
-90.000000
 20
-60.000000
 40
5.449998
 50
259.341675
 51
280.658325
  0
ENDSEC
  0
EOF
