  0
SECTION
  2
HEADER
  0
ENDSEC
  0
SECTION
  2
TABLES
  0
TABLE
  2
LTYPE
 70
     4
  0
LTYPE
  2
CONTINUOUS
 70
    64
  3
Solid line
 72
    65
 73
     0
 40
0.000000
  0
LTYPE
  2
DASHED
 70
    64
  3
__ __ __ __ __ __ __ __ __ __ __ __ __ __ __
 72
    65
 73
     2
 40
3.500000
 49
2.000000
 49
-1.500000
  0
LTYPE
  2
CENTER
 70
    64
  3
____ _ ____ _ ____ _ ____ _ ____ _ ____ _ ____
 72
    65
 73
     4
 40
17.500000
 49
13.000000
 49
-1.500000
 49
1.500000
 49
-1.500000
  0
LTYPE
  2
PHANTOM
 70
    64
  3
_____ _ _ _____ _ _ _____ _ _ _____ _ _ ____  
 72
    65
 73
     6
 40
15.500000
 49
8.000000
 49
-1.500000
 49
1.500000
 49
-1.500000
 49
1.500000
 49
-1.500000
  0
LTYPE
  2
DASHED1
 70
    64
  3
__ __ __ __ __ __ __ __ __ __ __ __ __ __ __
 72
    65
 73
     2
 40
1.500000
 49
1.000000
 49
-0.500000
  0
LTYPE
  2
DASHED2
 70
    64
  3
__ __ __ __ __ __ __ __ __ __ __ __ __ __ __
 72
    65
 73
     2
 40
3.500000
 49
2.500000
 49
-1.000000
  0
LTYPE
  2
DASHED3
 70
    64
  3
__ __ __ __ __ __ __ __ __ __ __ __ __ __ __
 72
    65
 73
     2
 40
6.000000
 49
4.000000
 49
-2.000000
  0
LTYPE
  2
DASHED4
 70
    64
  3
__ __ __ __ __ __ __ __ __ __ __ __ __ __ __
 72
    65
 73
     2
 40
12.000000
 49
10.000000
 49
-2.000000
  0
LTYPE
  2
DASHED5
 70
    64
  3
__ __ __ __ __ __ __ __ __ __ __ __ __ __ __
 72
    65
 73
     2
 40
17.000000
 49
15.000000
 49
-2.000000
  0
LTYPE
  2
DASHED6
 70
    64
  3
__ __ __ __ __ __ __ __ __ __ __ __ __ __ __
 72
    65
 73
     2
 40
29.000000
 49
27.000000
 49
-2.000000
  0
LTYPE
  2
PHANTOM1
 70
    64
  3
_____ _ _ _____ _ _ _____ _ _ _____ _ _ ____  
 72
    65
 73
     6
 40
31.000000
 49
25.000000
 49
-1.500000
 49
1.000000
 49
-1.000000
 49
1.000000
 49
-1.500000
  0
LTYPE
  2
PHANTOM2
 70
    64
  3
_____ _ _ _____ _ _ _____ _ _ _____ _ _ ____  
 72
    65
 73
     6
 40
36.000000
 49
27.000000
 49
-1.500000
 49
2.500000
 49
-1.000000
 49
2.500000
 49
-1.500000
  0
LTYPE
  2
PHANTOM3
 70
    64
  3
_____ _ _ _____ _ _ _____ _ _ _____ _ _ ____  
 72
    65
 73
     6
 40
78.000000
 49
64.000000
 49
-2.000000
 49
4.000000
 49
-2.000000
 49
4.000000
 49
-2.000000
  0
LTYPE
  2
CENTER1
 70
    64
  3
____ _ ____ _ ____ _ ____ _ ____ _ ____ _ ____
 72
    65
 73
     4
 40
19.000000
 49
14.000000
 49
-1.000000
 49
3.000000
 49
-1.000000
  0
LTYPE
  2
CENTER2
 70
    64
  3
____ _ ____ _ ____ _ ____ _ ____ _ ____ _ ____
 72
    65
 73
     4
 40
28.500000
 49
25.000000
 49
-1.000000
 49
1.500000
 49
-1.000000
  0
LTYPE
  2
CENTER3
 70
    64
  3
____ _ ____ _ ____ _ ____ _ ____ _ ____ _ ____
 72
    65
 73
     4
 40
31.500000
 49
27.000000
 49
-1.000000
 49
2.500000
 49
-1.000000
  0
LTYPE
  2
CENTER4
 70
    64
  3
____ _ ____ _ ____ _ ____ _ ____ _ ____ _ ____
 72
    65
 73
     4
 40
50.000000
 49
45.000000
 49
-1.000000
 49
3.000000
 49
-1.000000
  0
LTYPE
  2
CENTER5
 70
    64
  3
____ _ ____ _ ____ _ ____ _ ____ _ ____ _ ____
 72
    65
 73
     4
 40
100.000000
 49
92.000000
 49
-2.000000
 49
4.000000
 49
-2.000000
  0
LTYPE
  2
SBK1
 70
    64
  3
______ _ _ _ ______ _ _ _ ______ _ _ _ _____  
 72
    65
 73
     8
 40
60.500000
 49
45.000000
 49
-2.000000
 49
2.500000
 49
-2.000000
 49
2.500000
 49
-2.000000
 49
2.500000
 49
-2.000000
  0
LTYPE
  2
SBK2
 70
    64
  3
______ _ _ _ ______ _ _ _ ______ _ _ _ _____  
 72
    65
 73
     8
 40
84.000000
 49
64.000000
 49
-2.000000
 49
4.000000
 49
-2.000000
 49
4.000000
 49
-2.000000
 49
4.000000
 49
-2.000000
  0
LTYPE
  2
STCH
 70
    64
  3
__ __ __ __ __ __ __ __ __ __ __ __ __ __ __
 72
    65
 73
     2
 40
3.000000
 49
1.000000
 49
-2.000000
  0
LTYPE
  2
MTCH
 70
    64
  3
_____ _ _ _____ _ _ _____ _ _ _____ _ _ ____  
 72
    65
 73
     6
 40
80.000000
 49
66.000000
 49
-2.000000
 49
4.000000
 49
-2.000000
 49
4.000000
 49
-2.000000
  0
ENDTAB
  0
TABLE
  2
LAYER
 70
     1
  0
LAYER
  2
0
 70
     0
 62
     7
  6
CONTINUOUS
  0
ENDTAB
  0
TABLE
  2
STYLE
 70
     1
  0
STYLE
  2
STANDARD
 70
     0
 40
0.000000
 41
1.000000
 50
0.000000
 71
     0
 42
0.200000
  3
txt
  4
BIGFONT
  0
ENDTAB
  0
TABLE
  2
VIEW
 70
     0
  0
ENDTAB
  0
ENDSEC
  0
SECTION
  2
BLOCKS
  0
ENDSEC
  0
SECTION
  2
ENTITIES
  0
LINE
  8
0
 10
-181.250000
 20
195.500000
 11
-181.250000
 21
180.500000
  0
LINE
  8
0
 10
182.099976
 20
195.500000
 11
182.099976
 21
180.500000
  0
LINE
  8
0
 10
-281.250000
 20
180.500000
 11
-181.250000
 21
180.500000
  0
LINE
  8
0
 10
182.099976
 20
-175.000000
 11
182.099976
 21
-195.000000
  0
LINE
  8
0
 10
182.099976
 20
180.500000
 11
282.099976
 21
180.500000
  0
LINE
  8
0
 10
182.099976
 20
-175.000000
 11
282.099976
 21
-175.000000
  0
LINE
  8
0
 10
-297.000000
 20
210.000000
 11
297.000000
 21
210.000000
  0
LINE
  8
0
 10
-297.000000
 20
-210.000000
 11
297.000000
 21
-210.000000
  0
LINE
  8
0
 10
297.000000
 20
210.000000
 11
297.000000
 21
-210.000000
  0
LINE
  8
0
 10
-297.000000
 20
210.000000
 11
-297.000000
 21
-210.000000
  0
LINE
  8
0
 10
-281.250000
 20
195.500000
 11
282.099976
 21
195.500000
  0
LINE
  8
0
 10
-281.250000
 20
195.500000
 11
-281.250000
 21
-195.000000
  0
LINE
  8
0
 10
282.099976
 20
195.500000
 11
282.099976
 21
-195.000000
  0
LINE
  8
0
 10
-281.250000
 20
-195.000000
 11
282.099976
 21
-195.000000
  0
LINE
  8
0
 10
-281.250000
 20
-4.750000
 11
282.099976
 21
-4.750000
  0
LINE
  8
0
 10
-281.250000
 20
-14.750000
 11
282.099976
 21
-14.750000
  0
LINE
  8
0
 10
0.424988
 20
195.500000
 11
0.424988
 21
-195.000000
  0
LINE
  8
0
 10
-281.250000
 20
-185.000000
 11
0.424988
 21
-185.000000
  0
TEXT
  8
0
 10
188.021667
 20
183.779999
 40
5.800000
  1
DATE: MAY ,1992
 50
0.000000
 41
1.052632
 51
0.000000
  7
STANDARD
  0
TEXT
  8
0
 10
178.000870
 20
-190.300003
 40
7.000000
  1
ＫＯＧＡＮＥＩ，ＣＯＲＰ．
 50
0.000000
 41
0.902367
 51
15.000000
  7
STANDARD
  0
TEXT
  8
0
 10
-275.328308
 20
183.779999
 40
5.800000
  1
ROTARY ACTUATER
 50
0.000000
 41
1.052632
 51
0.000000
  7
STANDARD
  0
TEXT
  8
0
 10
-198.376572
 20
-13.250000
 40
5.000000
  1
SWING ANGLE : 90 DEGREE
 50
0.000000
 41
1.052632
 51
0.000000
  7
STANDARD
  0
TEXT
  8
0
 10
80.798424
 20
-13.250000
 40
5.000000
  1
SWING ANGLE : 180 DEGREE
 50
0.000000
 41
1.052632
 51
0.000000
  7
STANDARD
  0
TEXT
  8
0
 10
-200.876572
 20
-193.500000
 40
5.000000
  1
SWING ANGLE : 270 DEGREE
 50
0.000000
 41
1.052632
 51
0.000000
  7
STANDARD
  0
TEXT
  8
0
 10
92.655602
 20
-109.275002
 40
6.000000
  1
MODEL : RAK50-UK
 50
0.000000
 41
1.052632
 51
0.000000
  7
STANDARD
  0
POINT
  8
0
 10
-240.000000
 20
130.000000
  0
POINT
  8
0
 10
-189.500000
 20
130.000000
  0
LINE
  8
0
 10
-240.000000
 20
101.699997
 11
-235.500000
 21
101.699997
  0
LINE
  8
0
 10
-240.000000
 20
158.299988
 11
-235.500000
 21
158.299988
  0
LINE
  8
0
 10
-235.500000
 20
117.531456
 11
-203.500000
 21
117.531456
  0
LINE
  8
0
 10
-235.500000
 20
142.468994
 11
-203.500000
 21
142.468994
  0
LINE
  8
0
 10
-240.000000
 20
101.699997
 11
-240.000000
 21
158.299988
  0
LINE
  8
0
 10
-235.500000
 20
101.715729
 11
-235.500000
 21
158.284271
  0
LINE
  8
0
 10
-203.500000
 20
101.715729
 11
-203.500000
 21
158.284271
  0
LINE
  8
0
 10
-200.000000
 20
121.518463
 11
-200.000000
 21
128.442444
  0
LINE
  8
0
 10
-195.000000
 20
123.350250
 11
-195.000000
 21
126.750259
  0
LINE
  8
0
 10
-203.500000
 20
120.434265
 11
-200.350006
 21
120.434265
  0
LINE
  8
0
 10
-203.500000
 20
122.602661
 11
-200.350006
 21
122.602661
  0
LINE
  8
0
 10
-203.500000
 20
127.218651
 11
-200.350006
 21
127.218651
  0
LINE
  8
0
 10
-203.500000
 20
129.666245
 11
-200.350006
 21
129.666245
  0
LINE
  8
0
 10
-203.500000
 20
133.522461
 11
-200.350006
 21
133.522461
  0
LINE
  8
0
 10
-203.500000
 20
130.431885
 11
-200.350006
 21
130.431885
  0
LINE
  8
0
 10
-203.500000
 20
138.040329
 11
-200.350006
 21
138.040329
  0
LINE
  8
0
 10
-203.500000
 20
139.467621
 11
-200.350006
 21
139.467621
  0
LINE
  8
0
 10
-200.000000
 20
131.977158
 11
-200.000000
 21
138.753967
  0
LINE
  8
0
 10
-195.000000
 20
133.249741
 11
-195.000000
 21
136.649750
  0
LINE
  8
0
 10
-189.500000
 20
123.799995
 11
-189.500000
 21
136.199997
  0
LINE
  8
0
 10
-200.000000
 20
123.050255
 11
-195.300003
 21
123.050255
  0
LINE
  8
0
 10
-200.000000
 20
127.050255
 11
-195.300003
 21
127.050255
  0
LINE
  8
0
 10
-200.000000
 20
132.949738
 11
-195.300003
 21
132.949738
  0
LINE
  8
0
 10
-200.000000
 20
136.949738
 11
-195.300003
 21
136.949738
  0
LINE
  8
0
 10
-195.300003
 20
123.050255
 11
-195.300003
 21
127.050255
  0
LINE
  8
0
 10
-195.300003
 20
132.949738
 11
-195.300003
 21
136.949738
  0
LINE
  8
0
 10
-200.000000
 20
123.300255
 11
-195.050003
 21
123.300255
  0
LINE
  8
0
 10
-200.000000
 20
126.800255
 11
-195.050003
 21
126.800255
  0
LINE
  8
0
 10
-200.000000
 20
133.199738
 11
-195.050003
 21
133.199738
  0
LINE
  8
0
 10
-200.000000
 20
136.699738
 11
-195.050003
 21
136.699738
  0
LINE
  8
0
  6
CENTER
 10
-205.500000
 20
125.050255
 11
-192.500000
 21
125.050255
  0
LINE
  8
0
  6
CENTER
 10
-205.500000
 20
134.949738
 11
-192.500000
 21
134.949738
  0
LINE
  8
0
 10
-200.000000
 20
122.800003
 11
-190.500000
 21
122.800003
  0
LINE
  8
0
 10
-200.000000
 20
137.199997
 11
-190.500000
 21
137.199997
  0
LINE
  8
0
 10
-235.500000
 20
101.715729
 11
-203.500000
 21
101.715729
  0
LINE
  8
0
 10
-235.500000
 20
158.284271
 11
-203.500000
 21
158.284271
  0
LINE
  8
0
 10
-202.800003
 20
119.830971
 11
-202.800003
 21
120.434265
  0
LINE
  8
0
 10
-202.399994
 20
119.392754
 11
-202.399994
 21
120.434265
  0
LINE
  8
0
 10
-200.949997
 20
119.468559
 11
-200.949997
 21
119.531441
  0
LINE
  8
0
 10
-202.800003
 20
139.467621
 11
-202.800003
 21
140.169022
  0
LINE
  8
0
 10
-202.399994
 20
139.467621
 11
-202.399994
 21
140.607239
  0
LINE
  8
0
 10
-200.949997
 20
140.468552
 11
-200.949997
 21
140.531433
  0
LINE
  8
0
 10
-203.211548
 20
110.804306
 11
-203.500000
 21
110.804306
  0
LINE
  8
0
 10
-203.211548
 20
120.204308
 11
-203.500000
 21
120.204308
  0
LINE
  8
0
 10
-203.211548
 20
120.204308
 11
-203.211548
 21
110.804306
  0
LINE
  8
0
 10
-203.211548
 20
139.795685
 11
-203.500000
 21
139.795685
  0
LINE
  8
0
 10
-203.211548
 20
149.195694
 11
-203.500000
 21
149.195694
  0
LINE
  8
0
 10
-203.211548
 20
149.195679
 11
-203.211548
 21
139.795685
  0
LINE
  8
0
 10
-245.550003
 20
117.510109
 11
-245.550003
 21
109.289894
  0
LINE
  8
0
 10
-245.250000
 20
117.650002
 11
-245.250000
 21
109.150002
  0
LINE
  8
0
 10
-245.250000
 20
117.650002
 11
-240.550003
 21
117.650002
  0
LINE
  8
0
 10
-245.250000
 20
109.150002
 11
-240.550003
 21
109.150002
  0
LINE
  8
0
 10
-245.550003
 20
117.510109
 11
-245.250000
 21
117.650002
  0
LINE
  8
0
 10
-245.550003
 20
109.289886
 11
-245.250000
 21
109.149994
  0
LINE
  8
0
 10
-245.250000
 20
115.650002
 11
-242.879700
 21
115.650002
  0
LINE
  8
0
 10
-245.250000
 20
113.650002
 11
-244.034393
 21
113.650002
  0
LINE
  8
0
 10
-245.550003
 20
150.710114
 11
-245.550003
 21
142.489899
  0
LINE
  8
0
 10
-245.250000
 20
150.850006
 11
-245.250000
 21
142.350006
  0
LINE
  8
0
 10
-245.250000
 20
150.850006
 11
-240.550003
 21
150.850006
  0
LINE
  8
0
 10
-245.250000
 20
142.350006
 11
-240.550003
 21
142.350006
  0
LINE
  8
0
 10
-245.550003
 20
150.710114
 11
-245.250000
 21
150.850006
  0
LINE
  8
0
 10
-245.550003
 20
142.489899
 11
-245.250000
 21
142.350006
  0
LINE
  8
0
 10
-245.250000
 20
148.850006
 11
-242.879700
 21
148.850006
  0
LINE
  8
0
 10
-245.250000
 20
146.850006
 11
-244.034393
 21
146.850006
  0
LINE
  8
0
 10
-195.299973
 20
127.050278
 11
-194.999969
 21
126.750282
  0
LINE
  8
0
 10
-195.299988
 20
123.050255
 11
-195.000000
 21
123.350250
  0
LINE
  8
0
 10
-195.299988
 20
136.949753
 11
-194.999985
 21
136.649750
  0
LINE
  8
0
 10
-195.299973
 20
132.949722
 11
-194.999969
 21
133.249725
  0
LINE
  8
0
 10
-240.000000
 20
117.500000
 11
-235.500000
 21
117.500000
  0
LINE
  8
0
 10
-240.000000
 20
142.500000
 11
-235.500000
 21
142.500000
  0
LINE
  8
0
 10
-240.550003
 20
108.900002
 11
-240.550003
 21
117.900002
  0
LINE
  8
0
 10
-240.550003
 20
108.900002
 11
-240.000000
 21
108.900002
  0
LINE
  8
0
 10
-240.550003
 20
117.900002
 11
-240.000000
 21
117.900002
  0
LINE
  8
0
 10
-240.550003
 20
142.100006
 11
-240.000000
 21
142.100006
  0
LINE
  8
0
 10
-240.550003
 20
151.100006
 11
-240.000000
 21
151.100006
  0
LINE
  8
0
 10
-240.550003
 20
142.100006
 11
-240.550003
 21
151.100006
  0
LINE
  8
0
 10
-215.500000
 20
159.653595
 11
-215.500000
 21
158.284271
  0
LINE
  8
0
 10
-223.500000
 20
159.653580
 11
-223.500000
 21
158.284271
  0
LINE
  8
0
 10
-222.500000
 20
160.653580
 11
-216.500000
 21
160.653580
  0
LINE
  8
0
 10
-222.500000
 20
100.161957
 11
-216.500000
 21
100.161957
  0
LINE
  8
0
 10
-223.500000
 20
101.715729
 11
-223.500000
 21
101.161957
  0
LINE
  8
0
 10
-215.500000
 20
101.715729
 11
-215.500000
 21
101.161957
  0
CIRCLE
  8
0
 10
-229.500000
 20
130.000000
 40
1.800000
  0
ARC
  8
0
 10
-201.854263
 20
121.518463
 40
1.854259
 50
324.217712
 51
35.782295
  0
ARC
  8
0
 10
-207.784760
 20
124.910652
 40
7.784755
 50
342.753906
 51
17.246075
  0
ARC
  8
0
 10
-202.314545
 20
128.442444
 40
2.314537
 50
328.079498
 51
31.920660
  0
ARC
  8
0
 10
-203.586304
 20
131.977158
 40
3.586298
 50
334.476166
 51
25.523840
  0
ARC
  8
0
 10
-207.464691
 20
135.781387
 40
7.464683
 50
342.385254
 51
17.614857
  0
ARC
  8
0
 10
-200.902557
 20
138.753967
 40
0.902548
 50
307.749664
 51
52.250923
  0
ARC
  8
0
 10
-190.500000
 20
123.799995
 40
1.000000
 50
270.000000
 51
0.000000
  0
ARC
  8
0
 10
-190.500000
 20
136.199997
 40
1.000000
 50
0.000000
 51
90.000000
  0
ARC
  8
0
 10
-203.949997
 20
119.468559
 40
3.000006
 50
326.386139
 51
359.999847
  0
ARC
  8
0
 10
-203.949997
 20
119.531441
 40
3.000000
 50
359.999847
 51
17.514137
  0
ARC
  8
0
 10
-203.949997
 20
140.468552
 40
2.999997
 50
340.509888
 51
0.000000
  0
ARC
  8
0
 10
-203.949997
 20
140.531433
 40
3.000000
 50
0.000000
 51
33.613850
  0
ARC
  8
0
 10
-207.100006
 20
115.504311
 40
6.100012
 50
309.601990
 51
50.397907
  0
ARC
  8
0
 10
-207.100006
 20
144.495682
 40
6.100007
 50
309.602051
 51
50.397953
  0
ARC
  8
0
 10
-216.500000
 20
101.161957
 40
1.000000
 50
270.000000
 51
0.000000
  0
ARC
  8
0
 10
-222.500000
 20
101.161957
 40
1.000000
 50
180.000000
 51
270.000000
  0
ARC
  8
0
 10
-216.500000
 20
159.653595
 40
1.000000
 50
0.000000
 51
90.000000
  0
ARC
  8
0
 10
-222.500000
 20
159.653580
 40
1.000000
 50
90.000000
 51
180.000000
  0
ARC
  8
0
 10
-232.692886
 20
106.311920
 40
0.907122
 50
165.895737
 51
194.104263
  0
ARC
  8
0
 10
-232.455887
 20
106.398788
 40
1.158449
 50
195.414841
 51
231.383331
  0
ARC
  8
0
 10
-231.800003
 20
107.356888
 40
2.317961
 50
233.496933
 51
306.503052
  0
ARC
  8
0
 10
-231.144119
 20
106.398788
 40
1.158442
 50
308.616669
 51
344.585175
  0
ARC
  8
0
 10
-230.907120
 20
106.311920
 40
0.907122
 50
345.895721
 51
14.104265
  0
ARC
  8
0
 10
-231.144119
 20
106.225052
 40
1.158449
 50
15.414836
 51
51.383331
  0
ARC
  8
0
 10
-231.800003
 20
105.266953
 40
2.317961
 50
53.496941
 51
126.503059
  0
ARC
  8
0
 10
-232.455887
 20
106.225052
 40
1.158442
 50
128.616669
 51
164.585159
  0
ARC
  8
0
 10
-232.692871
 20
153.688095
 40
0.907122
 50
165.895737
 51
194.104263
  0
ARC
  8
0
 10
-232.455872
 20
153.774963
 40
1.158449
 50
195.414841
 51
231.383331
  0
ARC
  8
0
 10
-231.799988
 20
154.733063
 40
2.317961
 50
233.496933
 51
306.503052
  0
ARC
  8
0
 10
-231.144104
 20
153.774963
 40
1.158442
 50
308.616669
 51
344.585175
  0
ARC
  8
0
 10
-230.907104
 20
153.688095
 40
0.907122
 50
345.895721
 51
14.104265
  0
ARC
  8
0
 10
-231.144104
 20
153.601227
 40
1.158449
 50
15.414836
 51
51.383331
  0
ARC
  8
0
 10
-231.799988
 20
152.643127
 40
2.317961
 50
53.496941
 51
126.503059
  0
ARC
  8
0
 10
-232.455872
 20
153.601227
 40
1.158442
 50
128.616669
 51
164.585159
  0
POINT
  8
0
 10
-240.000000
 20
30.000000
  0
POINT
  8
0
 10
-215.500000
 20
30.000000
  0
LINE
  8
0
 10
-240.000000
 20
68.205002
 11
-235.500000
 21
68.205002
  0
LINE
  8
0
 10
-235.500000
 20
84.005005
 11
-235.500000
 21
34.000317
  0
LINE
  8
0
 10
-234.000000
 20
47.000320
 11
-223.500000
 21
47.000320
  0
LINE
  8
0
 10
-235.500000
 20
84.000320
 11
-203.500000
 21
84.000320
  0
LINE
  8
0
 10
-235.500000
 20
68.184586
 11
-203.500000
 21
68.184586
  0
LINE
  8
0
 10
-203.500000
 20
83.994995
 11
-203.500000
 21
47.000320
  0
LINE
  8
0
 10
-203.500000
 20
77.212494
 11
-200.350006
 21
77.212494
  0
LINE
  8
0
 10
-203.500000
 20
77.051300
 11
-200.350006
 21
77.051300
  0
LINE
  8
0
 10
-203.500000
 20
69.056183
 11
-200.350006
 21
69.056183
  0
LINE
  8
0
 10
-203.500000
 20
72.973145
 11
-200.350006
 21
72.973145
  0
LINE
  8
0
 10
-200.000000
 20
77.131897
 11
-200.000000
 21
71.014664
  0
LINE
  8
0
 10
-195.000000
 20
74.834335
 11
-195.000000
 21
71.434341
  0
LINE
  8
0
 10
-200.000000
 20
75.134338
 11
-195.300003
 21
75.134338
  0
LINE
  8
0
 10
-200.000000
 20
71.134338
 11
-195.300003
 21
71.134338
  0
LINE
  8
0
 10
-195.300003
 20
75.134331
 11
-195.000000
 21
74.834335
  0
LINE
  8
0
 10
-195.000000
 20
71.434341
 11
-195.300003
 21
71.134338
  0
LINE
  8
0
 10
-195.299988
 20
75.134338
 11
-195.299988
 21
71.134338
  0
LINE
  8
0
 10
-200.000000
 20
74.884338
 11
-195.049988
 21
74.884338
  0
LINE
  8
0
 10
-200.000000
 20
71.384338
 11
-195.050003
 21
71.384338
  0
LINE
  8
0
 10
-207.726715
 20
63.902493
 11
-207.726715
 21
63.404560
  0
LINE
  8
0
 10
-214.726715
 20
63.902493
 11
-214.726715
 21
63.404560
  0
LINE
  8
0
 10
-224.273285
 20
54.083397
 11
-224.273285
 21
53.588417
  0
LINE
  8
0
 10
-231.273285
 20
54.084877
 11
-231.273285
 21
53.586937
  0
LINE
  8
0
 10
-225.173279
 20
53.588417
 11
-225.173279
 21
53.305573
  0
LINE
  8
0
 10
-230.373291
 20
53.589516
 11
-230.373291
 21
53.304932
  0
LINE
  8
0
 10
-213.826721
 20
63.407139
 11
-213.826721
 21
63.122101
  0
LINE
  8
0
 10
-208.626724
 20
63.407143
 11
-208.626724
 21
63.122101
  0
LINE
  8
0
 10
-189.500000
 20
62.363773
 11
-189.500000
 21
49.963776
  0
LINE
  8
0
 10
-201.004135
 20
63.363773
 11
-190.500000
 21
63.363773
  0
LINE
  8
0
 10
-203.500000
 20
48.963776
 11
-190.500000
 21
48.963776
  0
LINE
  8
0
 10
-203.211548
 20
58.888397
 11
-203.500000
 21
58.888397
  0
LINE
  8
0
 10
-203.211548
 20
68.288391
 11
-203.500000
 21
68.288391
  0
LINE
  8
0
 10
-203.211548
 20
68.288391
 11
-203.211548
 21
58.888397
  0
LINE
  8
0
 10
-202.800003
 20
52.663776
 11
-202.800003
 21
59.261734
  0
LINE
  8
0
 10
-202.399994
 20
53.563778
 11
-202.399994
 21
58.763775
  0
LINE
  8
0
 10
-200.949997
 20
56.132336
 11
-200.949997
 21
56.195217
  0
LINE
  8
0
 10
-202.399994
 20
58.763775
 11
-202.800003
 21
58.763775
  0
LINE
  8
0
 10
-202.399994
 20
53.563778
 11
-202.800003
 21
53.563778
  0
LINE
  8
0
 10
-202.800003
 20
52.663776
 11
-203.500000
 21
52.663776
  0
LINE
  8
0
 10
-240.000000
 20
84.000320
 11
-235.500000
 21
84.000320
  0
LINE
  8
0
 10
-240.000000
 20
34.000317
 11
-235.500000
 21
34.000317
  0
LINE
  8
0
 10
-228.000000
 20
36.391525
 11
-228.000000
 21
46.018478
  0
LINE
  8
0
 10
-228.399994
 20
36.205002
 11
-228.399994
 21
46.205002
  0
LINE
  8
0
 10
-228.399994
 20
36.205002
 11
-234.000000
 21
36.205002
  0
LINE
  8
0
 10
-228.399994
 20
46.205002
 11
-234.000000
 21
46.205002
  0
LINE
  8
0
 10
-228.000000
 20
36.391518
 11
-228.400009
 21
36.204994
  0
LINE
  8
0
 10
-227.999985
 20
46.018505
 11
-228.399979
 21
46.205025
  0
LINE
  8
0
 10
-228.399994
 20
38.205002
 11
-231.445297
 21
38.205002
  0
LINE
  8
0
 10
-228.399994
 20
40.205002
 11
-230.290588
 21
40.205002
  0
LINE
  8
0
 10
-228.399994
 20
42.205002
 11
-229.135895
 21
42.205002
  0
LINE
  8
0
 10
-245.550003
 20
78.310425
 11
-245.550003
 21
70.090210
  0
LINE
  8
0
 10
-245.250000
 20
78.450317
 11
-245.250000
 21
69.950317
  0
LINE
  8
0
 10
-245.250000
 20
78.450317
 11
-240.550003
 21
78.450317
  0
LINE
  8
0
 10
-245.250000
 20
69.950317
 11
-240.550003
 21
69.950317
  0
LINE
  8
0
 10
-245.550003
 20
78.310440
 11
-245.250015
 21
78.450333
  0
LINE
  8
0
 10
-245.549988
 20
70.090225
 11
-245.249985
 21
69.950333
  0
LINE
  8
0
 10
-245.250000
 20
76.450317
 11
-242.879700
 21
76.450317
  0
LINE
  8
0
 10
-245.250000
 20
74.450317
 11
-244.034393
 21
74.450317
  0
LINE
  8
0
 10
-240.000000
 20
84.000320
 11
-240.000000
 21
3.250000
  0
LINE
  8
0
 10
-237.500000
 20
34.000317
 11
-237.500000
 21
17.799999
  0
LINE
  8
0
 10
-239.600006
 20
17.500000
 11
-237.800003
 21
17.500000
  0
LINE
  8
0
 10
-237.500000
 20
24.000000
 11
-234.050003
 21
24.000000
  0
LINE
  8
0
 10
-237.799988
 20
17.499989
 11
-237.499985
 21
17.799988
  0
LINE
  8
0
 10
-234.000000
 20
35.105003
 11
-234.000000
 21
24.049997
  0
LINE
  8
0
 10
-234.000000
 20
24.049999
 11
-233.500000
 21
24.049999
  0
LINE
  8
0
 10
-234.000000
 20
35.950001
 11
-233.500000
 21
35.950001
  0
LINE
  8
0
 10
-233.999985
 20
35.950012
 11
-234.049973
 21
36.000008
  0
LINE
  8
0
 10
-234.050018
 20
23.999983
 11
-234.000031
 21
24.049980
  0
LINE
  8
0
 10
-233.500000
 20
35.816162
 11
-233.500000
 21
31.254906
  0
LINE
  8
0
 10
-233.500000
 20
28.745094
 11
-233.500000
 21
24.183838
  0
LINE
  8
0
 10
-240.550003
 20
78.700317
 11
-240.550003
 21
69.700317
  0
LINE
  8
0
 10
-240.550003
 20
78.700317
 11
-240.000000
 21
78.700317
  0
LINE
  8
0
 10
-240.550003
 20
69.700317
 11
-240.000000
 21
69.700317
  0
LINE
  8
0
 10
-234.000000
 20
47.305000
 11
-234.000000
 21
35.105003
  0
LINE
  8
0
 10
-234.000000
 20
47.305000
 11
-235.500000
 21
47.305000
  0
LINE
  8
0
 10
-234.000000
 20
35.105003
 11
-235.500000
 21
35.105003
  0
LINE
  8
0
 10
-235.500000
 20
40.338978
 11
-234.000000
 21
41.205006
  0
LINE
  8
0
 10
-235.500000
 20
40.916328
 11
-234.000000
 21
41.782356
  0
LINE
  8
0
 10
-215.500000
 20
59.653587
 11
-215.500000
 21
1.161961
  0
LINE
  8
0
 10
-223.500000
 20
59.653587
 11
-223.500000
 21
30.707113
  0
LINE
  8
0
 10
-233.500000
 20
36.205002
 11
-233.500000
 21
18.686291
  0
LINE
  8
0
 10
-222.500015
 20
60.653587
 11
-216.500015
 21
60.653587
  0
LINE
  8
0
 10
-222.500000
 20
0.161959
 11
-216.500000
 21
0.161959
  0
LINE
  8
0
 10
-222.500015
 20
53.100906
 11
-216.500015
 21
53.100906
  0
LINE
  8
0
 10
-233.500000
 20
30.000000
 11
-226.500000
 21
30.000000
  0
LINE
  8
0
 10
-233.500000
 20
27.171574
 11
-228.500000
 21
27.171574
  0
LINE
  8
0
 10
-233.500000
 20
18.686291
 11
-228.500000
 21
18.686291
  0
LINE
  8
0
 10
-227.654709
 20
44.990662
 11
-225.345306
 21
44.990662
  0
LINE
  8
0
 10
-228.000000
 20
44.567757
 11
-227.654709
 21
44.990662
  0
LINE
  8
0
 10
-227.654678
 20
42.162231
 11
-228.000000
 21
42.585167
  0
LINE
  8
0
 10
-227.654694
 20
42.162235
 11
-225.345322
 21
42.162235
  0
LINE
  8
0
 10
-225.345291
 20
42.162231
 11
-224.190598
 21
43.576454
  0
LINE
  8
0
 10
-224.190582
 20
43.576454
 11
-225.345291
 21
44.990662
  0
LINE
  8
0
 10
-227.654709
 20
43.222893
 11
-225.345306
 21
43.222893
  0
LINE
  8
0
 10
-228.087692
 20
42.692577
 11
-227.654694
 21
43.222893
  0
LINE
  8
0
 10
-224.912292
 20
42.692574
 11
-225.345291
 21
43.222889
  0
LINE
  8
0
 10
-227.654709
 20
44.990662
 11
-227.654709
 21
43.222893
  0
LINE
  8
0
 10
-225.345306
 20
44.990662
 11
-225.345306
 21
43.222897
  0
LINE
  8
0
 10
-216.500015
 20
45.900364
 11
-222.500000
 21
45.900364
  0
LINE
  8
0
 10
-216.500000
 20
7.028574
 11
-222.500000
 21
7.028574
  0
LINE
  8
0
 10
-215.500000
 20
16.687847
 11
-223.997253
 21
16.687847
  0
LINE
  8
0
 10
-215.500000
 20
29.170019
 11
-223.997269
 21
29.170019
  0
LINE
  8
0
 10
-223.500000
 20
15.158473
 11
-223.500000
 21
1.161959
  0
LINE
  8
0
 10
-215.500000
 20
47.000320
 11
-203.500000
 21
47.000320
  0
ARC
  8
0
 10
-205.654510
 20
71.014664
 40
5.654504
 50
339.735291
 51
20.264696
  0
ARC
  8
0
 10
-206.114807
 20
75.012222
 40
6.114799
 50
340.520721
 51
19.479351
  0
CIRCLE
  8
0
 10
-211.226715
 20
62.392857
 40
0.010000
  0
CIRCLE
  8
0
 10
-227.773285
 20
52.575226
 40
0.010000
  0
ARC
  8
0
 10
-190.500000
 20
49.963776
 40
1.000000
 50
270.000000
 51
0.000000
  0
ARC
  8
0
 10
-190.500000
 20
62.363773
 40
1.000000
 50
0.000000
 51
90.000000
  0
ARC
  8
0
 10
-207.100006
 20
63.588398
 40
6.100009
 50
309.602020
 51
50.397930
  0
ARC
  8
0
 10
-203.949997
 20
56.132336
 40
3.000003
 50
301.108948
 51
0.000000
  0
ARC
  8
0
 10
-203.949997
 20
56.195217
 40
3.000000
 50
0.000000
 51
58.891045
  0
ARC
  8
0
 10
-239.600006
 20
17.100000
 40
0.400000
 50
89.997818
 51
180.000000
  0
CIRCLE
  8
0
 10
-219.500000
 20
57.990944
 40
0.010000
  0
ARC
  8
0
 10
-216.500000
 20
1.161961
 40
1.000000
 50
270.000000
 51
0.000000
  0
ARC
  8
0
 10
-222.500000
 20
1.161959
 40
1.000000
 50
180.000000
 51
270.000000
  0
ARC
  8
0
 10
-216.500015
 20
59.653587
 40
1.000000
 50
0.000000
 51
90.000000
  0
ARC
  8
0
 10
-222.500015
 20
59.653587
 40
1.000000
 50
90.000000
 51
180.000000
  0
ARC
  8
0
 10
-216.500015
 20
52.100906
 40
1.000000
 50
0.000000
 51
90.000000
  0
ARC
  8
0
 10
-222.500015
 20
52.100906
 40
1.000000
 50
90.000000
 51
180.000000
  0
ARC
  8
0
 10
-200.350006
 20
78.315750
 40
1.264351
 50
270.000000
 51
282.242828
  0
ARC
  8
0
 10
-200.108353
 20
77.230309
 40
0.152467
 50
279.993530
 51
312.511688
  0
ARC
  8
0
 10
-200.021042
 20
77.131897
 40
0.021033
 50
318.352661
 51
41.647346
  0
ARC
  8
0
 10
-200.108353
 20
77.033485
 40
0.152466
 50
47.488319
 51
80.006470
  0
ARC
  8
0
 10
-200.350006
 20
75.948044
 40
1.264350
 50
77.757172
 51
90.000000
  0
ARC
  8
0
 10
-230.907135
 20
72.780792
 40
0.907137
 50
345.895966
 51
14.104030
  0
ARC
  8
0
 10
-231.144119
 20
72.693924
 40
1.158449
 50
15.414836
 51
51.383331
  0
ARC
  8
0
 10
-231.800003
 20
71.735840
 40
2.317949
 50
53.496716
 51
126.503288
  0
ARC
  8
0
 10
-232.455887
 20
72.693924
 40
1.158442
 50
128.616669
 51
164.585159
  0
ARC
  8
0
 10
-232.692871
 20
72.780792
 40
0.907137
 50
165.895966
 51
194.104034
  0
ARC
  8
0
 10
-232.455887
 20
72.867661
 40
1.158449
 50
195.414841
 51
231.383331
  0
ARC
  8
0
 10
-231.800003
 20
73.825745
 40
2.317949
 50
233.496719
 51
306.503296
  0
ARC
  8
0
 10
-231.144119
 20
72.867661
 40
1.158442
 50
308.616669
 51
344.585175
  0
ARC
  8
0
 10
-219.500000
 20
53.793667
 40
11.527038
 50
65.413048
 51
126.497223
  0
ARC
  8
0
 10
-222.762360
 20
58.560051
 40
5.758927
 50
128.610916
 51
164.581757
  0
ARC
  8
0
 10
-223.941147
 20
58.992203
 40
4.508850
 50
165.893311
 51
194.106689
  0
ARC
  8
0
 10
-222.762360
 20
59.424355
 40
5.758925
 50
195.418243
 51
209.824554
  0
ARC
  8
0
 10
-226.036758
 20
54.083397
 40
1.763474
 50
0.000000
 51
14.105742
  0
ARC
  8
0
 10
-226.497681
 20
53.914433
 40
2.252262
 50
15.416925
 51
51.386688
  0
ARC
  8
0
 10
-227.773285
 20
52.050858
 40
4.507535
 50
53.500504
 51
126.499496
  0
ARC
  8
0
 10
-229.048889
 20
53.914433
 40
2.252260
 50
128.613312
 51
164.583069
  0
ARC
  8
0
 10
-229.509811
 20
54.083397
 40
1.763469
 50
165.894257
 51
180.053787
  0
ARC
  8
0
 10
-209.490189
 20
63.901012
 40
1.763474
 50
0.000000
 51
14.105622
  0
ARC
  8
0
 10
-209.951111
 20
63.732048
 40
2.252261
 50
15.416832
 51
51.386749
  0
ARC
  8
0
 10
-211.226715
 20
61.868473
 40
4.507537
 50
53.500530
 51
126.499466
  0
ARC
  8
0
 10
-212.502319
 20
63.732048
 40
2.252263
 50
128.613251
 51
164.583160
  0
ARC
  8
0
 10
-212.963242
 20
63.901012
 40
1.763469
 50
165.894379
 51
180.053787
  0
ARC
  8
0
 10
-209.490189
 20
63.406040
 40
1.763469
 50
345.894257
 51
14.105742
  0
ARC
  8
0
 10
-209.951111
 20
63.237076
 40
2.252262
 50
15.416925
 51
51.386749
  0
ARC
  8
0
 10
-211.226715
 20
61.373501
 40
4.507537
 50
53.500530
 51
126.499466
  0
ARC
  8
0
 10
-212.502319
 20
63.237076
 40
2.252263
 50
128.613251
 51
164.583069
  0
ARC
  8
0
 10
-212.963242
 20
63.406040
 40
1.763469
 50
165.894257
 51
194.105743
  0
ARC
  8
0
 10
-212.502319
 20
63.575005
 40
2.252262
 50
195.416931
 51
231.386688
  0
ARC
  8
0
 10
-211.226715
 20
65.438583
 40
4.507537
 50
233.500534
 51
306.499481
  0
ARC
  8
0
 10
-209.951111
 20
63.575005
 40
2.252260
 50
308.613312
 51
344.583069
  0
ARC
  8
0
 10
-226.036758
 20
53.588417
 40
1.763469
 50
345.894257
 51
14.105742
  0
ARC
  8
0
 10
-226.497681
 20
53.419453
 40
2.252262
 50
15.416925
 51
51.386688
  0
ARC
  8
0
 10
-227.773285
 20
51.555878
 40
4.507535
 50
53.500504
 51
126.499496
  0
ARC
  8
0
 10
-229.048889
 20
53.419453
 40
2.252260
 50
128.613312
 51
164.583069
  0
ARC
  8
0
 10
-229.509811
 20
53.588417
 40
1.763469
 50
165.894257
 51
194.105743
  0
ARC
  8
0
 10
-229.048889
 20
53.757381
 40
2.252262
 50
195.416931
 51
231.386688
  0
ARC
  8
0
 10
-227.773285
 20
55.620956
 40
4.507535
 50
233.500504
 51
306.499512
  0
ARC
  8
0
 10
-226.497681
 20
53.757381
 40
2.252260
 50
308.613312
 51
344.583069
  0
ARC
  8
0
 10
-226.483200
 20
53.588417
 40
1.309921
 50
0.000000
 51
14.106173
  0
ARC
  8
0
 10
-226.825623
 20
53.462887
 40
1.673045
 50
15.417580
 51
51.387932
  0
ARC
  8
0
 10
-227.773285
 20
52.078362
 40
3.348557
 50
53.501774
 51
126.498222
  0
ARC
  8
0
 10
-228.720947
 20
53.462887
 40
1.673042
 50
128.612061
 51
164.582413
  0
ARC
  8
0
 10
-229.063370
 20
53.588417
 40
1.309916
 50
165.893829
 51
180.053894
  0
ARC
  8
0
 10
-226.483414
 20
53.305573
 40
1.310129
 50
345.894958
 51
14.105028
  0
ARC
  8
0
 10
-226.825775
 20
53.180073
 40
1.673191
 50
15.416065
 51
51.385319
  0
ARC
  8
0
 10
-227.773285
 20
51.795895
 40
3.348333
 50
53.498940
 51
126.501060
  0
ARC
  8
0
 10
-228.720795
 20
53.180073
 40
1.673191
 50
128.614685
 51
164.583939
  0
ARC
  8
0
 10
-229.063156
 20
53.305573
 40
1.310129
 50
165.894974
 51
194.105026
  0
ARC
  8
0
 10
-228.720795
 20
53.431072
 40
1.673191
 50
195.416061
 51
231.385315
  0
ARC
  8
0
 10
-227.773285
 20
54.815250
 40
3.348333
 50
233.498947
 51
306.501068
  0
ARC
  8
0
 10
-226.825775
 20
53.431072
 40
1.673191
 50
308.614685
 51
344.583923
  0
ARC
  8
0
 10
-219.500000
 20
64.190735
 40
11.527033
 50
245.697052
 51
249.776520
  0
ARC
  8
0
 10
-209.936630
 20
63.123199
 40
1.309916
 50
345.893829
 51
14.106173
  0
ARC
  8
0
 10
-210.279053
 20
62.997669
 40
1.673045
 50
15.417580
 51
51.387852
  0
ARC
  8
0
 10
-211.226715
 20
61.613144
 40
3.348554
 50
53.501736
 51
126.498260
  0
ARC
  8
0
 10
-212.174377
 20
62.997669
 40
1.673039
 50
128.612152
 51
164.582413
  0
ARC
  8
0
 10
-212.516800
 20
63.123199
 40
1.309916
 50
165.893829
 51
194.106171
  0
ARC
  8
0
 10
-212.174377
 20
63.248730
 40
1.673045
 50
195.417587
 51
231.387939
  0
ARC
  8
0
 10
-211.226715
 20
64.633255
 40
3.348557
 50
233.501770
 51
306.498230
  0
ARC
  8
0
 10
-210.279053
 20
63.248730
 40
1.673042
 50
308.612061
 51
344.582428
  0
ARC
  8
0
 10
-209.936630
 20
63.406040
 40
1.309922
 50
0.053727
 51
14.106173
  0
ARC
  8
0
 10
-210.279053
 20
63.280510
 40
1.673045
 50
15.417580
 51
51.387932
  0
ARC
  8
0
 10
-211.226715
 20
61.895988
 40
3.348554
 50
53.501736
 51
126.498260
  0
ARC
  8
0
 10
-212.174377
 20
63.280510
 40
1.673042
 50
128.612061
 51
164.582413
  0
ARC
  8
0
 10
-212.516800
 20
63.406040
 40
1.309916
 50
165.893829
 51
180.053726
  0
ARC
  8
0
 10
-210.036575
 20
62.972134
 40
1.208359
 50
345.893555
 51
14.106435
  0
ARC
  8
0
 10
-210.352478
 20
62.856327
 40
1.543365
 50
15.417816
 51
51.388317
  0
ARC
  8
0
 10
-211.226715
 20
61.579063
 40
3.089070
 50
53.502132
 51
126.497864
  0
ARC
  8
0
 10
-212.100952
 20
62.856327
 40
1.543364
 50
128.611679
 51
164.582184
  0
ARC
  8
0
 10
-212.416855
 20
62.972134
 40
1.208359
 50
165.893570
 51
194.106430
  0
ARC
  8
0
 10
-212.100952
 20
63.087940
 40
1.543365
 50
195.417816
 51
231.388321
  0
ARC
  8
0
 10
-211.226715
 20
64.365204
 40
3.089070
 50
233.502136
 51
306.497864
  0
ARC
  8
0
 10
-210.352478
 20
63.087940
 40
1.543364
 50
308.611694
 51
344.582184
  0
ARC
  8
0
 10
-210.272156
 20
62.708832
 40
0.968439
 50
345.890839
 51
14.109154
  0
ARC
  8
0
 10
-210.525528
 20
62.615932
 40
1.237138
 50
15.421427
 51
51.394711
  0
ARC
  8
0
 10
-211.226715
 20
61.591290
 40
2.477047
 50
53.508781
 51
126.491219
  0
ARC
  8
0
 10
-211.927902
 20
62.615932
 40
1.237134
 50
128.605286
 51
164.578568
  0
ARC
  8
0
 10
-212.181274
 20
62.708832
 40
0.968439
 50
165.890839
 51
194.109161
  0
ARC
  8
0
 10
-211.927902
 20
62.801731
 40
1.237138
 50
195.421432
 51
231.394714
  0
ARC
  8
0
 10
-211.226715
 20
63.826374
 40
2.477047
 50
233.508774
 51
306.491211
  0
ARC
  8
0
 10
-210.525528
 20
62.801731
 40
1.237134
 50
308.605286
 51
344.578583
  0
ARC
  8
0
 10
-210.540665
 20
62.518040
 40
0.695953
 50
345.890625
 51
14.109365
  0
ARC
  8
0
 10
-210.722763
 20
62.451271
 40
0.889067
 50
15.421810
 51
51.395634
  0
ARC
  8
0
 10
-211.226715
 20
61.714832
 40
1.780212
 50
53.509628
 51
126.490372
  0
ARC
  8
0
 10
-211.730667
 20
62.451271
 40
0.889058
 50
128.604370
 51
164.578186
  0
ARC
  8
0
 10
-211.912766
 20
62.518040
 40
0.695953
 50
165.890640
 51
194.109360
  0
ARC
  8
0
 10
-211.730667
 20
62.584808
 40
0.889067
 50
195.421814
 51
231.395630
  0
ARC
  8
0
 10
-211.226715
 20
63.321247
 40
1.780212
 50
233.509628
 51
306.490387
  0
ARC
  8
0
 10
-210.722763
 20
62.584808
 40
0.889058
 50
308.604370
 51
344.578186
  0
ARC
  8
0
 10
-210.773514
 20
62.423985
 40
0.460309
 50
346.065094
 51
14.275323
  0
ARC
  8
0
 10
-210.893677
 20
62.379532
 40
0.587872
 50
15.586324
 51
51.555729
  0
ARC
  8
0
 10
-211.225143
 20
61.892204
 40
1.176441
 50
53.669334
 51
126.670959
  0
ARC
  8
0
 10
-211.559494
 20
62.377556
 40
0.587868
 50
128.784988
 51
164.754272
  0
ARC
  8
0
 10
-211.679916
 20
62.421291
 40
0.460309
 50
166.065094
 51
194.275330
  0
ARC
  8
0
 10
-211.559753
 20
62.465744
 40
0.587872
 50
195.586319
 51
231.555725
  0
ARC
  8
0
 10
-211.228287
 20
62.953072
 40
1.176441
 50
233.669342
 51
306.670959
  0
ARC
  8
0
 10
-210.893936
 20
62.467720
 40
0.587868
 50
308.785004
 51
344.754272
  0
ARC
  8
0
 10
-226.583145
 20
53.154510
 40
1.208359
 50
345.893555
 51
14.106435
  0
ARC
  8
0
 10
-226.899048
 20
53.038704
 40
1.543365
 50
15.417816
 51
51.388317
  0
ARC
  8
0
 10
-227.773285
 20
51.761444
 40
3.089067
 50
53.502090
 51
126.497910
  0
ARC
  8
0
 10
-228.647522
 20
53.038704
 40
1.543364
 50
128.611679
 51
164.582184
  0
ARC
  8
0
 10
-228.963425
 20
53.154510
 40
1.208359
 50
165.893570
 51
194.106430
  0
ARC
  8
0
 10
-228.647522
 20
53.270317
 40
1.543365
 50
195.417816
 51
231.388321
  0
ARC
  8
0
 10
-227.773285
 20
54.547577
 40
3.089067
 50
233.502090
 51
306.497894
  0
ARC
  8
0
 10
-226.899048
 20
53.270317
 40
1.543364
 50
308.611694
 51
344.582184
  0
ARC
  8
0
 10
-226.818726
 20
52.891205
 40
0.968439
 50
345.890839
 51
14.109154
  0
ARC
  8
0
 10
-227.072098
 20
52.798306
 40
1.237138
 50
15.421427
 51
51.394711
  0
ARC
  8
0
 10
-227.773285
 20
51.773663
 40
2.477047
 50
53.508781
 51
126.491219
  0
ARC
  8
0
 10
-228.474472
 20
52.798306
 40
1.237134
 50
128.605286
 51
164.578568
  0
ARC
  8
0
 10
-228.727844
 20
52.891205
 40
0.968439
 50
165.890839
 51
194.109161
  0
ARC
  8
0
 10
-228.474472
 20
52.984104
 40
1.237138
 50
195.421432
 51
231.394714
  0
ARC
  8
0
 10
-227.773285
 20
54.008747
 40
2.477047
 50
233.508774
 51
306.491211
  0
ARC
  8
0
 10
-227.072098
 20
52.984104
 40
1.237134
 50
308.605286
 51
344.578583
  0
ARC
  8
0
 10
-227.087234
 20
52.700417
 40
0.695953
 50
345.890625
 51
14.109365
  0
ARC
  8
0
 10
-227.269333
 20
52.633648
 40
0.889067
 50
15.421810
 51
51.395634
  0
ARC
  8
0
 10
-227.773285
 20
51.897209
 40
1.780212
 50
53.509628
 51
126.490372
  0
ARC
  8
0
 10
-228.277237
 20
52.633648
 40
0.889058
 50
128.604370
 51
164.578186
  0
ARC
  8
0
 10
-228.459335
 20
52.700417
 40
0.695953
 50
165.890640
 51
194.109360
  0
ARC
  8
0
 10
-228.277237
 20
52.767185
 40
0.889067
 50
195.421814
 51
231.395630
  0
ARC
  8
0
 10
-227.773285
 20
53.503624
 40
1.780212
 50
233.509628
 51
306.490387
  0
ARC
  8
0
 10
-227.269333
 20
52.767185
 40
0.889058
 50
308.604370
 51
344.578186
  0
ARC
  8
0
 10
-227.320084
 20
52.606358
 40
0.460309
 50
346.065094
 51
14.275323
  0
ARC
  8
0
 10
-227.440247
 20
52.561905
 40
0.587872
 50
15.586324
 51
51.555729
  0
ARC
  8
0
 10
-227.771713
 20
52.074577
 40
1.176441
 50
53.669334
 51
126.670959
  0
ARC
  8
0
 10
-228.106064
 20
52.559929
 40
0.587868
 50
128.784988
 51
164.754272
  0
ARC
  8
0
 10
-228.226486
 20
52.603664
 40
0.460309
 50
166.065094
 51
194.275330
  0
ARC
  8
0
 10
-228.106323
 20
52.648117
 40
0.587872
 50
195.586319
 51
231.555725
  0
ARC
  8
0
 10
-227.774857
 20
53.135445
 40
1.176441
 50
233.669342
 51
306.670959
  0
ARC
  8
0
 10
-227.440506
 20
52.650093
 40
0.587868
 50
308.785004
 51
344.754272
  0
ARC
  8
0
 10
-218.042068
 20
58.799023
 40
2.573932
 50
46.189320
 51
51.387615
  0
ARC
  8
0
 10
-219.499985
 20
56.669060
 40
5.151576
 50
53.501331
 51
126.498665
  0
ARC
  8
0
 10
-220.957901
 20
58.799023
 40
2.573938
 50
128.612381
 51
133.837891
  0
ARC
  8
0
 10
-219.500015
 20
57.220470
 40
3.928417
 50
60.463886
 51
119.520493
  0
ARC
  8
0
 10
-226.500000
 20
40.754436
 40
5.473664
 50
56.882042
 51
105.867233
  0
ARC
  8
0
 10
-225.266571
 20
43.413055
 40
2.177483
 50
35.716625
 51
51.388412
  0
ARC
  8
0
 10
-226.500015
 20
41.611004
 40
4.358267
 50
53.502075
 51
110.059166
  0
ARC
  8
0
 10
-228.500000
 20
33.611179
 40
6.439604
 50
270.000000
 51
306.497742
  0
ARC
  8
0
 10
-226.677521
 20
30.948526
 40
3.217339
 50
308.611481
 51
344.582123
  0
ARC
  8
0
 10
-226.018997
 20
30.707111
 40
2.519000
 50
345.893585
 51
0.000043
  0
ARC
  8
0
 10
-226.018982
 20
15.150752
 40
2.518982
 50
359.999969
 51
14.106489
  0
ARC
  8
0
 10
-226.677505
 20
14.909337
 40
3.217332
 50
15.417956
 51
51.388687
  0
ARC
  8
0
 10
-228.500000
 20
12.246678
 40
6.439600
 50
53.502277
 51
90.000000
  0
ARC
  8
0
 10
-226.500000
 20
41.995480
 40
3.863752
 50
247.268875
 51
306.497742
  0
ARC
  8
0
 10
-225.406509
 20
40.397892
 40
1.930399
 50
308.611359
 51
344.582031
  0
ARC
  8
0
 10
-225.011398
 20
40.253044
 40
1.511398
 50
345.893463
 51
0.000000
  0
ARC
  8
0
 10
-226.500000
 20
33.863766
 40
3.863752
 50
270.000000
 51
306.497742
  0
ARC
  8
0
 10
-225.406509
 20
32.266178
 40
1.930399
 50
308.611359
 51
344.582092
  0
ARC
  8
0
 10
-225.011398
 20
32.121330
 40
1.511397
 50
345.893524
 51
0.000000
  0
ARC
  8
0
 10
-226.500015
 20
45.541889
 40
4.358270
 50
249.951752
 51
306.497772
  0
ARC
  8
0
 10
-225.266571
 20
43.739826
 40
2.177480
 50
308.611450
 51
324.269257
  0
ARC
  8
0
 10
-226.500000
 20
45.691349
 40
5.473664
 50
254.151352
 51
303.136658
  0
ARC
  8
0
 10
-219.500000
 20
64.190735
 40
11.527032
 50
290.222839
 51
306.497223
  0
ARC
  8
0
 10
-216.237640
 20
59.424355
 40
5.758927
 50
308.610931
 51
344.581757
  0
ARC
  8
0
 10
-215.058853
 20
58.992203
 40
4.508850
 50
345.893311
 51
14.106690
  0
ARC
  8
0
 10
-216.237640
 20
58.560051
 40
5.758925
 50
15.418246
 51
24.330647
  0
POINT
  8
0
 10
-50.499996
 20
130.000000
  0
POINT
  8
0
 10
-90.000000
 20
130.000000
  0
LINE
  8
0
 10
-107.000320
 20
137.100006
 11
-128.184601
 21
158.284286
  0
LINE
  8
0
 10
-128.184601
 20
101.715721
 11
-107.000320
 21
122.899994
  0
LINE
  8
0
 10
-128.184601
 20
101.715714
 11
-144.000320
 21
117.531441
  0
LINE
  8
0
 10
-144.000336
 20
142.468552
 11
-128.184601
 21
158.284271
  0
LINE
  8
0
 10
-107.000320
 20
122.899994
 11
-107.000320
 21
137.100006
  0
LINE
  8
0
 10
-144.000320
 20
117.500290
 11
-144.000320
 21
142.468552
  0
LINE
  8
0
 10
-121.325661
 20
152.415298
 11
-117.577995
 21
156.162964
  0
LINE
  8
0
 10
-116.163780
 20
146.263458
 11
-111.921143
 21
150.506104
  0
LINE
  8
0
 10
-116.552689
 20
155.844757
 11
-115.986580
 21
156.410873
  0
LINE
  8
0
 10
-112.239342
 20
151.531418
 11
-111.673233
 21
152.097519
  0
LINE
  8
0
 10
-111.771706
 20
151.063782
 11
-117.020309
 21
156.312378
  0
LINE
  8
0
 10
-115.986588
 20
156.410858
 11
-111.673233
 21
152.097504
  0
LINE
  8
0
 10
-111.921127
 20
150.506104
 11
-111.771698
 21
151.063782
  0
LINE
  8
0
 10
-117.577980
 20
156.162949
 11
-117.020309
 21
156.312378
  0
LINE
  8
0
 10
-111.921127
 20
150.506104
 11
-117.577980
 21
156.162964
  0
LINE
  8
0
 10
-132.826263
 20
120.526062
 11
-129.203064
 21
122.790077
  0
LINE
  8
0
 10
-137.065613
 20
127.310440
 11
-133.442429
 21
129.574463
  0
LINE
  8
0
 10
-133.126083
 20
120.515572
 11
-136.898376
 21
122.521339
  0
LINE
  8
0
 10
-129.370300
 20
127.579155
 11
-133.142609
 21
129.584930
  0
LINE
  8
0
 10
-137.057404
 20
122.775764
 11
-137.206512
 21
127.045547
  0
LINE
  8
0
 10
-129.062286
 20
123.054955
 11
-129.211395
 21
127.324745
  0
LINE
  8
0
 10
-132.435135
 20
123.176460
 11
-134.511978
 21
126.500114
  0
LINE
  8
0
 10
-131.756699
 20
123.600403
 11
-133.833557
 21
126.924057
  0
LINE
  8
0
 10
-129.665909
 20
132.028595
 11
-128.777634
 21
136.207626
  0
LINE
  8
0
 10
-137.491119
 20
133.691895
 11
-136.602829
 21
137.870911
  0
LINE
  8
0
 10
-129.866623
 20
131.805649
 11
-133.929916
 21
130.485413
  0
LINE
  8
0
 10
-132.338776
 20
139.414108
 11
-136.402054
 21
138.093872
  0
LINE
  8
0
 10
-134.223389
 20
130.547760
 11
-137.398376
 21
133.406540
  0
LINE
  8
0
 10
-128.870331
 20
136.492920
 11
-132.045334
 21
139.351700
  0
LINE
  8
0
 10
-131.300735
 20
134.151062
 11
-135.134277
 21
134.965912
  0
LINE
  8
0
 10
-131.134399
 20
134.933578
 11
-134.967941
 21
135.748428
  0
LINE
  8
0
 10
-94.000000
 20
106.314560
 11
-94.000000
 21
113.899261
  0
LINE
  8
0
 10
-94.000000
 20
143.435028
 11
-94.000000
 21
153.685440
  0
LINE
  8
0
 10
-144.000000
 20
142.400528
 11
-144.000000
 21
142.500000
  0
LINE
  8
0
 10
-125.880920
 20
103.029457
 11
-120.931168
 21
107.979202
  0
LINE
  8
0
 10
-124.961670
 20
103.383011
 11
-121.284721
 21
107.059967
  0
LINE
  8
0
 10
-122.120125
 20
104.173943
 11
-122.075661
 21
104.218407
  0
LINE
  8
0
 10
-121.284729
 20
107.059959
 11
-121.567566
 21
107.342804
  0
LINE
  8
0
 10
-124.961685
 20
103.383003
 11
-125.244530
 21
103.665848
  0
LINE
  8
0
 10
-120.931175
 20
107.979202
 11
-121.426147
 21
108.474182
  0
LINE
  8
0
 10
-125.880920
 20
103.029449
 11
-126.375893
 21
103.524422
  0
LINE
  8
0
 10
-116.063309
 20
112.847069
 11
-111.113548
 21
117.796822
  0
LINE
  8
0
 10
-115.144051
 20
113.200630
 11
-111.467102
 21
116.877579
  0
LINE
  8
0
 10
-112.302498
 20
113.991562
 11
-112.258034
 21
114.036026
  0
LINE
  8
0
 10
-111.467110
 20
116.877579
 11
-111.749954
 21
117.160423
  0
LINE
  8
0
 10
-115.144058
 20
113.200623
 11
-115.426903
 21
113.483467
  0
LINE
  8
0
 10
-111.113548
 20
117.796822
 11
-111.608521
 21
118.291794
  0
LINE
  8
0
 10
-111.113541
 20
142.203186
 11
-115.668800
 21
146.758438
  0
LINE
  8
0
 10
-111.467102
 20
143.122421
 11
-115.144051
 21
146.799377
  0
LINE
  8
0
 10
-112.258034
 20
145.963974
 11
-112.302498
 21
146.008438
  0
LINE
  8
0
 10
-115.144058
 20
146.799377
 11
-115.426895
 21
146.516541
  0
LINE
  8
0
 10
-111.467102
 20
143.122421
 11
-111.749947
 21
142.839584
  0
LINE
  8
0
 10
-111.113548
 20
142.203186
 11
-111.608521
 21
141.708206
  0
LINE
  8
0
 10
-120.931168
 20
152.020798
 11
-125.880905
 21
156.970551
  0
LINE
  8
0
 10
-121.284714
 20
152.940048
 11
-124.961670
 21
156.617004
  0
LINE
  8
0
 10
-122.075653
 20
155.781601
 11
-122.120117
 21
155.826050
  0
LINE
  8
0
 10
-124.961685
 20
156.617004
 11
-125.244522
 21
156.334152
  0
LINE
  8
0
 10
-121.284714
 20
152.940048
 11
-121.567558
 21
152.657196
  0
LINE
  8
0
 10
-125.880920
 20
156.970551
 11
-126.375885
 21
156.475586
  0
LINE
  8
0
 10
-120.931160
 20
152.020798
 11
-121.426132
 21
151.525833
  0
LINE
  8
0
 10
-94.829636
 20
165.294098
 11
-95.491714
 21
162.823196
  0
LINE
  8
0
 10
-85.170372
 20
165.294098
 11
-84.508293
 21
162.823196
  0
LINE
  8
0
 10
-94.829620
 20
94.705910
 11
-95.491692
 21
97.176804
  0
LINE
  8
0
 10
-85.170372
 20
94.705902
 11
-84.508301
 21
97.176804
  0
LINE
  8
0
 10
-64.320129
 20
108.832443
 11
-61.849228
 21
108.170364
  0
LINE
  8
0
 10
-58.828430
 20
118.344360
 11
-57.019604
 21
116.535538
  0
LINE
  8
0
 10
-58.828423
 20
141.655640
 11
-57.019592
 21
143.464462
  0
LINE
  8
0
 10
-84.304092
 20
109.026207
 11
-85.576912
 21
113.776459
  0
LINE
  8
0
 10
-74.684151
 20
114.580284
 11
-78.161560
 21
118.057693
  0
LINE
  8
0
 10
-68.988205
 20
124.445908
 11
-73.738457
 21
125.718727
  0
LINE
  8
0
 10
-68.988205
 20
135.554047
 11
-73.738434
 21
134.281235
  0
LINE
  8
0
 10
-85.576866
 20
146.223541
 11
-84.304047
 21
150.973770
  0
LINE
  8
0
 10
-91.525291
 20
144.000000
 11
-88.474648
 21
144.000000
  0
LINE
  8
0
 10
-90.361412
 20
116.000000
 11
-88.474693
 21
116.000000
  0
LINE
  8
0
 10
-78.638313
 20
121.679008
 11
-77.112991
 21
124.320946
  0
LINE
  8
0
 10
-60.000000
 20
121.172791
 11
-60.000000
 21
138.827209
  0
LINE
  8
0
 10
-72.617340
 20
154.605133
 11
-82.644585
 21
160.394363
  0
LINE
  8
0
 10
-82.644577
 20
99.605621
 11
-67.355392
 21
108.432838
  0
LINE
  8
0
 10
-110.966682
 20
152.535904
 11
-97.355415
 21
160.394379
  0
LINE
  8
0
 10
-120.951965
 20
108.000000
 11
-120.107864
 21
108.000000
  0
LINE
  8
0
 10
-91.007988
 20
124.644028
 11
-95.355972
 21
128.992020
  0
LINE
  8
0
 10
-95.355972
 20
131.007996
 11
-91.007988
 21
135.355972
  0
LINE
  8
0
 10
-88.992012
 20
124.644028
 11
-84.644028
 21
128.992004
  0
LINE
  8
0
 10
-84.644028
 20
131.007980
 11
-88.992012
 21
135.355972
  0
LINE
  8
0
 10
-88.992012
 20
135.355972
 11
-88.745087
 21
135.816162
  0
LINE
  8
0
 10
-91.254906
 20
135.816162
 11
-91.007980
 21
135.355972
  0
LINE
  8
0
 10
-95.816162
 20
131.254913
 11
-95.355972
 21
131.007980
  0
LINE
  8
0
 10
-95.355972
 20
128.992020
 11
-95.816162
 21
128.745087
  0
LINE
  8
0
 10
-91.007988
 20
124.644028
 11
-91.254913
 21
124.183838
  0
LINE
  8
0
 10
-88.992012
 20
124.644028
 11
-88.745094
 21
124.183838
  0
LINE
  8
0
 10
-84.644028
 20
128.992004
 11
-84.183846
 21
128.745087
  0
LINE
  8
0
 10
-84.644028
 20
131.007980
 11
-84.119255
 21
131.190323
  0
LINE
  8
0
 10
-120.642159
 20
108.244728
 11
-116.328812
 21
112.558075
  0
LINE
  8
0
 10
-120.642181
 20
108.244720
 11
-121.148888
 21
108.751427
  0
LINE
  8
0
 10
-116.328835
 20
112.558067
 11
-116.835541
 21
113.064774
  0
LINE
  8
0
 10
-97.355408
 20
99.605629
 11
-107.478645
 21
105.450287
  0
LINE
  8
0
 10
-116.558273
 20
113.342041
 11
-116.063301
 21
112.847069
  0
LINE
  8
0
 10
-98.313248
 20
110.500000
 11
-98.706863
 21
111.181747
  0
LINE
  8
0
 10
-102.643379
 20
108.000000
 11
-103.036987
 21
108.681747
  0
LINE
  8
0
 10
-99.756630
 20
108.000000
 11
-102.643379
 21
108.000000
  0
LINE
  8
0
 10
-98.313248
 20
110.500000
 11
-99.756630
 21
108.000000
  0
LINE
  8
0
 10
-98.313248
 20
149.500000
 11
-99.756622
 21
152.000000
  0
LINE
  8
0
 10
-99.756622
 20
152.000000
 11
-102.643372
 21
152.000000
  0
LINE
  8
0
 10
-104.086754
 20
149.500000
 11
-102.643372
 21
152.000000
  0
LINE
  8
0
 10
-102.643372
 20
147.000000
 11
-104.086754
 21
149.500000
  0
LINE
  8
0
 10
-99.756622
 20
147.000000
 11
-102.643372
 21
147.000000
  0
LINE
  8
0
 10
-98.313248
 20
149.500000
 11
-99.756622
 21
147.000000
  0
LINE
  8
0
 10
-116.163773
 20
120.654701
 11
-117.163780
 21
120.077354
  0
LINE
  8
0
 10
-117.163780
 20
120.077354
 11
-117.163780
 21
118.922653
  0
LINE
  8
0
 10
-116.163780
 20
118.345306
 11
-117.163780
 21
118.922653
  0
LINE
  8
0
 10
-115.163773
 20
118.922653
 11
-116.163780
 21
118.345299
  0
LINE
  8
0
 10
-115.163780
 20
120.077354
 11
-115.163780
 21
118.922653
  0
LINE
  8
0
 10
-116.163780
 20
120.654701
 11
-115.163780
 21
120.077354
  0
LINE
  8
0
 10
-116.163780
 20
141.654709
 11
-117.163780
 21
141.077362
  0
LINE
  8
0
 10
-117.163780
 20
141.077362
 11
-117.163780
 21
139.922653
  0
LINE
  8
0
 10
-116.163780
 20
139.345306
 11
-117.163780
 21
139.922653
  0
LINE
  8
0
 10
-115.163780
 20
139.922653
 11
-116.163780
 21
139.345306
  0
LINE
  8
0
 10
-115.163780
 20
141.077362
 11
-115.163780
 21
139.922653
  0
LINE
  8
0
 10
-116.163780
 20
141.654709
 11
-115.163780
 21
141.077362
  0
LINE
  8
0
 10
-104.463943
 20
105.346680
 11
-103.913383
 21
106.300285
  0
LINE
  8
0
 10
-104.030930
 20
105.096680
 11
-103.480370
 21
106.050285
  0
LINE
  8
0
 10
-104.463943
 20
154.653320
 11
-103.913376
 21
153.699707
  0
LINE
  8
0
 10
-104.030930
 20
154.903320
 11
-103.480370
 21
153.949707
  0
LINE
  8
0
 10
-123.588394
 20
117.654312
 11
-123.588394
 21
113.354317
  0
LINE
  8
0
 10
-125.738403
 20
115.504318
 11
-121.438400
 21
115.504318
  0
LINE
  8
0
 10
-123.588402
 20
146.645691
 11
-123.588402
 21
142.345703
  0
LINE
  8
0
 10
-125.738403
 20
144.495697
 11
-121.438400
 21
144.495697
  0
LINE
  8
0
 10
-89.170021
 20
116.687843
 11
-76.687843
 21
129.170013
  0
LINE
  8
0
 10
-103.435028
 20
134.949753
 11
-99.616653
 21
138.768127
  0
LINE
  8
0
 10
-112.474083
 20
100.454849
 11
-105.900360
 21
107.028572
  0
LINE
  8
0
 10
-120.653587
 20
107.542091
 11
-112.993149
 21
113.969971
  0
LINE
  8
0
 10
-103.435028
 20
132.121323
 11
-103.435028
 21
134.949753
  0
LINE
  8
0
 10
-90.707108
 20
123.636040
 11
-96.363960
 21
129.292892
  0
LINE
  8
0
 10
-89.292892
 20
123.636040
 11
-83.636040
 21
129.292892
  0
LINE
  8
0
 10
-83.636040
 20
130.707108
 11
-89.292892
 21
136.363968
  0
LINE
  8
0
 10
-96.363960
 20
130.707108
 11
-90.707108
 21
136.363968
  0
LINE
  8
0
 10
-97.071068
 20
130.707108
 11
-94.313354
 21
133.464828
  0
LINE
  8
0
 10
-82.928932
 20
130.707108
 11
-89.292892
 21
137.071075
  0
LINE
  8
0
 10
-89.292892
 20
122.928932
 11
-82.928932
 21
129.292892
  0
LINE
  8
0
 10
-90.707108
 20
122.928932
 11
-97.071068
 21
129.292892
  0
LINE
  8
0
 10
-93.959801
 20
133.111267
 11
-99.616653
 21
138.768127
  0
LINE
  8
0
 10
-93.111267
 20
133.959793
 11
-98.768127
 21
139.616653
  0
LINE
  8
0
 10
-93.464821
 20
134.313354
 11
-90.707108
 21
137.071075
  0
LINE
  8
0
 10
-60.454849
 20
152.474075
 11
-67.028572
 21
145.900360
  0
LINE
  8
0
 10
-67.542091
 20
160.653580
 11
-73.969971
 21
152.993149
  0
LINE
  8
0
 10
-92.121323
 20
143.435028
 11
-94.949745
 21
143.435028
  0
LINE
  8
0
 10
-94.949745
 20
143.435028
 11
-98.768127
 21
139.616653
  0
LINE
  8
0
 10
-98.202438
 20
137.353912
 11
-97.353912
 21
138.202438
  0
LINE
  8
0
 10
-94.666901
 20
133.818375
 11
-93.818375
 21
134.666901
  0
LINE
  8
0
 10
-106.228104
 20
131.803116
 11
-103.435028
 21
134.596191
  0
LINE
  8
0
 10
-106.228088
 20
131.803131
 11
-105.969269
 21
130.837204
  0
LINE
  8
0
 10
-102.397995
 20
127.265907
 11
-105.969284
 21
130.837204
  0
LINE
  8
0
 10
-102.450943
 20
128.025970
 11
-106.228104
 21
131.803116
  0
LINE
  8
0
 10
-105.900368
 20
107.028572
 11
-89.170021
 21
116.687851
  0
LINE
  8
0
 10
-67.028580
 20
145.900360
 11
-76.687843
 21
129.170029
  0
CIRCLE
  8
0
 10
-123.588394
 20
115.504318
 40
5.000000
  0
CIRCLE
  8
0
 10
-123.588402
 20
144.495697
 40
5.000000
  0
CIRCLE
  8
0
 10
-116.163780
 20
130.000000
 40
0.750000
  0
CIRCLE
  8
0
 10
-116.163780
 20
130.000000
 40
7.200000
  0
ARC
  8
0
 10
-116.163780
 20
130.000000
 40
8.000008
 50
105.358856
 51
254.641068
  0
ARC
  8
0
 10
-118.285095
 20
149.798996
 40
6.999997
 50
19.169167
 51
70.830696
  0
CIRCLE
  8
0
 10
-133.134338
 20
125.050255
 40
2.000000
  0
CIRCLE
  8
0
 10
-133.134338
 20
125.050255
 40
1.750000
  0
CIRCLE
  8
0
 10
-133.134338
 20
125.050255
 40
4.000000
  0
ARC
  8
0
 10
-136.757538
 20
122.786232
 40
0.300003
 50
181.999542
 51
242.000534
  0
ARC
  8
0
 10
-132.985229
 20
120.780464
 40
0.299999
 50
242.000534
 51
301.998901
  0
ARC
  8
0
 10
-129.362045
 20
123.044487
 40
0.299999
 50
302.001373
 51
1.999539
  0
ARC
  8
0
 10
-129.511139
 20
127.314278
 40
0.299987
 50
1.999641
 51
62.000542
  0
ARC
  8
0
 10
-133.283447
 20
129.320038
 40
0.300006
 50
62.001225
 51
121.999825
  0
ARC
  8
0
 10
-136.906631
 20
127.056023
 40
0.300005
 50
122.000595
 51
181.999542
  0
CIRCLE
  8
0
 10
-133.134338
 20
134.949753
 40
2.000000
  0
CIRCLE
  8
0
 10
-133.134338
 20
134.949753
 40
1.750000
  0
CIRCLE
  8
0
 10
-133.134338
 20
134.949753
 40
4.000000
  0
ARC
  8
0
 10
-134.022614
 20
130.770721
 40
0.300006
 50
227.999573
 51
287.999023
  0
ARC
  8
0
 10
-129.959335
 20
132.090958
 40
0.299990
 50
287.999023
 51
348.001923
  0
ARC
  8
0
 10
-129.071045
 20
136.269989
 40
0.299998
 50
347.999084
 51
48.001740
  0
ARC
  8
0
 10
-132.246063
 20
139.128784
 40
0.300006
 50
47.999573
 51
108.001808
  0
ARC
  8
0
 10
-136.309357
 20
137.808548
 40
0.299990
 50
107.999031
 51
168.001923
  0
ARC
  8
0
 10
-137.197632
 20
133.629517
 40
0.299995
 50
168.001923
 51
228.001740
  0
ARC
  8
0
 10
-116.163780
 20
130.000000
 40
8.000001
 50
285.358856
 51
74.641144
  0
ARC
  8
0
 10
-90.000000
 20
130.000000
 40
29.000004
 50
108.662918
 51
142.181396
  0
ARC
  8
0
 10
-98.000000
 20
106.314560
 40
4.000002
 50
251.337097
 51
0.000000
  0
ARC
  8
0
 10
-98.000000
 20
153.685440
 40
4.000000
 50
0.000000
 51
108.662895
  0
ARC
  8
0
 10
-115.278595
 20
149.621231
 40
2.999998
 50
293.385895
 51
322.181427
  0
CIRCLE
  8
0
 10
-123.588394
 20
115.504318
 40
4.700000
  0
CIRCLE
  8
0
 10
-123.588402
 20
144.495697
 40
4.700000
  0
CIRCLE
  8
0
 10
-116.163780
 20
119.500000
 40
2.600000
  0
CIRCLE
  8
0
 10
-116.163780
 20
119.500000
 40
3.500000
  0
CIRCLE
  8
0
 10
-116.163780
 20
140.500000
 40
2.600000
  0
CIRCLE
  8
0
 10
-116.163780
 20
140.500000
 40
3.500000
  0
ARC
  8
0
 10
-124.241440
 20
106.295265
 40
3.000000
 50
256.108948
 51
315.000092
  0
ARC
  8
0
 10
-124.196976
 20
106.339729
 40
2.999998
 50
315.000092
 51
13.891067
  0
ARC
  8
0
 10
-114.423828
 20
116.112885
 40
3.000000
 50
256.108948
 51
315.000000
  0
ARC
  8
0
 10
-114.379356
 20
116.157349
 40
2.999998
 50
314.999908
 51
13.891067
  0
ARC
  8
0
 10
-114.379356
 20
143.842651
 40
3.000000
 50
346.108948
 51
45.000000
  0
ARC
  8
0
 10
-114.423820
 20
143.887115
 40
3.000003
 50
45.000000
 51
103.891068
  0
ARC
  8
0
 10
-124.196976
 20
153.660278
 40
3.000000
 50
346.108948
 51
45.000000
  0
ARC
  8
0
 10
-124.241440
 20
153.704742
 40
3.000003
 50
45.000000
 51
103.891068
  0
ARC
  8
0
 10
-90.000000
 20
130.000000
 40
12.499998
 50
278.130127
 51
351.869934
  0
ARC
  8
0
 10
-90.000000
 20
130.000000
 40
25.000002
 50
72.534111
 51
99.485817
  0
CIRCLE
  8
0
 10
-78.750015
 20
110.514420
 40
3.000000
  0
CIRCLE
  8
0
 10
-67.500000
 20
129.999985
 40
3.000000
  0
CIRCLE
  8
0
 10
-78.749977
 20
149.485565
 40
3.000000
  0
CIRCLE
  8
0
 10
-78.750015
 20
110.514420
 40
2.500000
  0
CIRCLE
  8
0
 10
-67.500000
 20
129.999985
 40
2.500000
  0
CIRCLE
  8
0
 10
-78.749977
 20
149.485565
 40
2.500000
  0
ARC
  8
0
 10
-78.750015
 20
110.514420
 40
5.750004
 50
195.000015
 51
45.000000
  0
ARC
  8
0
 10
-67.500000
 20
129.999985
 40
5.750010
 50
255.000076
 51
105.000061
  0
ARC
  8
0
 10
-78.749977
 20
149.485565
 40
5.750003
 50
35.835457
 51
165.000031
  0
ARC
  8
0
 10
-90.000000
 20
164.000000
 40
5.000007
 50
15.000010
 51
164.999969
  0
ARC
  8
0
 10
-90.000000
 20
96.000000
 40
5.000000
 50
195.000031
 51
344.999969
  0
ARC
  8
0
 10
-60.555138
 20
113.000000
 40
4.999998
 50
255.000046
 51
45.000031
  0
ARC
  8
0
 10
-60.555130
 20
147.000000
 40
5.000000
 50
314.999939
 51
94.461685
  0
ARC
  8
0
 10
-88.474693
 20
113.000000
 40
3.000004
 50
15.000010
 51
90.000000
  0
ARC
  8
0
 10
-76.040237
 20
120.179016
 40
3.000006
 50
150.000076
 51
225.000000
  0
ARC
  8
0
 10
-74.514915
 20
122.820953
 40
2.999997
 50
74.999954
 51
150.000000
  0
ARC
  8
0
 10
-88.474648
 20
147.000000
 40
3.000000
 50
270.000000
 51
345.000000
  0
ARC
  8
0
 10
-91.525291
 20
147.000000
 40
3.000004
 50
214.421478
 51
269.999847
  0
ARC
  8
0
 10
-90.000000
 20
130.000000
 40
25.000002
 50
260.793091
 51
287.465729
  0
ARC
  8
0
 10
-90.000000
 20
130.000000
 40
25.000000
 50
312.534119
 51
347.465729
  0
ARC
  8
0
 10
-90.000000
 20
130.000000
 40
25.000000
 50
12.534114
 51
31.461674
  0
ARC
  8
0
 10
-99.355408
 20
163.858475
 40
4.000009
 50
299.999939
 51
345.000000
  0
ARC
  8
0
 10
-99.355408
 20
96.141525
 40
4.000006
 50
15.000010
 51
60.000015
  0
ARC
  8
0
 10
-80.644592
 20
96.141533
 40
4.000002
 50
119.999985
 51
165.000061
  0
ARC
  8
0
 10
-65.355408
 20
104.968750
 40
3.999998
 50
74.999962
 51
120.000038
  0
ARC
  8
0
 10
-56.000000
 20
121.172791
 40
4.000000
 50
180.000000
 51
225.000046
  0
ARC
  8
0
 10
-56.000000
 20
138.827209
 40
4.000001
 50
134.999954
 51
180.000000
  0
ARC
  8
0
 10
-80.644592
 20
163.858475
 40
3.999998
 50
195.000046
 51
240.000168
  0
ARC
  8
0
 10
-112.966675
 20
156.000000
 40
4.000000
 50
288.301544
 51
300.000031
  0
ARC
  8
0
 10
-90.000000
 20
130.000000
 40
39.500004
 50
217.729614
 51
142.270370
  0
ARC
  8
0
 10
-90.000000
 20
130.000000
 40
5.449996
 50
169.341751
 51
190.658249
  0
ARC
  8
0
 10
-90.000000
 20
130.000000
 40
5.449998
 50
259.341675
 51
280.658325
  0
ARC
  8
0
 10
-90.000000
 20
130.000000
 40
5.449999
 50
349.341583
 51
10.658255
  0
ARC
  8
0
 10
-90.000000
 20
130.000000
 40
5.449998
 50
79.341667
 51
100.658333
  0
CIRCLE
  8
0
 10
-90.000000
 20
164.000000
 40
2.100000
  0
CIRCLE
  8
0
 10
-90.000000
 20
96.000000
 40
2.100000
  0
CIRCLE
  8
0
 10
-60.555138
 20
113.000000
 40
2.100000
  0
CIRCLE
  8
0
 10
-60.555134
 20
147.000000
 40
2.100000
  0
ARC
  8
0
 10
-90.000000
 20
130.000000
 40
28.999996
 50
234.928177
 51
35.071819
  0
ARC
  8
0
 10
-122.940689
 20
114.856598
 40
6.999995
 50
289.169312
 51
340.830719
  0
ARC
  8
0
 10
-101.199997
 20
149.500000
 40
6.100005
 50
122.348846
 51
117.651154
  0
ARC
  8
0
 10
-101.200005
 20
110.500000
 40
6.099997
 50
216.175125
 51
23.824884
  0
ARC
  8
0
 10
-101.200005
 20
110.500000
 40
5.000001
 50
217.540787
 51
22.459188
  0
CIRCLE
  8
0
 10
-101.199997
 20
149.500000
 40
5.000000
  0
CIRCLE
  8
0
 10
-101.199997
 20
149.500000
 40
4.400000
  0
ARC
  8
0
 10
-101.200005
 20
110.500000
 40
4.399998
 50
218.576401
 51
21.423618
  0
ARC
  8
0
 10
-90.000000
 20
130.000000
 40
37.999996
 50
216.227859
 51
231.206314
  0
ARC
  8
0
 10
-113.181183
 20
101.161957
 40
1.000002
 50
231.205841
 51
314.999695
  0
ARC
  8
0
 10
-117.383369
 20
126.603729
 40
15.000004
 50
307.518250
 51
21.582382
  0
ARC
  8
0
 10
-111.293236
 20
118.672127
 40
5.000002
 50
250.124283
 51
307.518280
  0
ARC
  8
0
 10
-95.656853
 20
130.000000
 40
1.000001
 50
135.000000
 51
225.000000
  0
ARC
  8
0
 10
-90.000000
 20
124.343147
 40
1.000001
 50
225.000000
 51
315.000000
  0
ARC
  8
0
 10
-84.343147
 20
130.000000
 40
1.000001
 50
315.000000
 51
45.000000
  0
ARC
  8
0
 10
-90.000000
 20
135.656860
 40
1.000001
 50
45.000000
 51
135.000000
  0
ARC
  8
0
 10
-90.000000
 20
136.363968
 40
1.000001
 50
45.000000
 51
135.000626
  0
ARC
  8
0
 10
-96.363960
 20
130.000000
 40
1.000001
 50
135.000000
 51
225.000000
  0
ARC
  8
0
 10
-90.000000
 20
123.636040
 40
1.000001
 50
225.000000
 51
315.000000
  0
ARC
  8
0
 10
-83.636040
 20
130.000000
 40
1.000001
 50
315.000000
 51
45.000000
  0
ARC
  8
0
 10
-61.161957
 20
153.181183
 40
1.000001
 50
315.000000
 51
38.794159
  0
ARC
  8
0
 10
-90.000000
 20
130.000000
 40
38.000000
 50
38.793678
 51
53.772121
  0
ARC
  8
0
 10
-78.672127
 20
151.293228
 40
4.999993
 50
322.481842
 51
19.875711
  0
ARC
  8
0
 10
-86.603729
 20
157.383362
 40
14.999995
 50
248.417557
 51
322.481750
  0
ARC
  8
0
 10
-90.000000
 20
130.000000
 40
28.999998
 50
54.945408
 51
108.662941
  0
ARC
  8
0
 10
-90.000000
 20
130.000000
 40
6.000002
 50
168.557343
 51
192.312836
  0
ARC
  8
0
 10
-90.000000
 20
130.000000
 40
5.999997
 50
78.557259
 51
101.442741
  0
ARC
  8
0
 10
-90.000000
 20
130.000000
 40
6.000002
 50
348.557343
 51
11.442655
  0
ARC
  8
0
 10
-90.000000
 20
130.000000
 40
5.999997
 50
258.557251
 51
281.442719
  0
POINT
  8
0
 10
90.500000
 20
130.000000
  0
POINT
  8
0
 10
40.000000
 20
130.000000
  0
LINE
  8
0
 10
40.000000
 20
101.699997
 11
44.500000
 21
101.699997
  0
LINE
  8
0
 10
40.000000
 20
158.299988
 11
44.500000
 21
158.299988
  0
LINE
  8
0
 10
44.500000
 20
117.531456
 11
76.500000
 21
117.531456
  0
LINE
  8
0
 10
44.500000
 20
142.468994
 11
76.500000
 21
142.468994
  0
LINE
  8
0
 10
40.000000
 20
101.699997
 11
40.000000
 21
158.299988
  0
LINE
  8
0
 10
44.500000
 20
101.715729
 11
44.500000
 21
158.284271
  0
LINE
  8
0
 10
76.500000
 20
101.715729
 11
76.500000
 21
158.284271
  0
LINE
  8
0
 10
80.000000
 20
121.518463
 11
80.000000
 21
128.442444
  0
LINE
  8
0
 10
85.000000
 20
123.350250
 11
85.000000
 21
126.750259
  0
LINE
  8
0
 10
76.500000
 20
120.434265
 11
79.650002
 21
120.434265
  0
LINE
  8
0
 10
76.500000
 20
122.602661
 11
79.650002
 21
122.602661
  0
LINE
  8
0
 10
76.500000
 20
127.218651
 11
79.650002
 21
127.218651
  0
LINE
  8
0
 10
76.500000
 20
129.666245
 11
79.650002
 21
129.666245
  0
LINE
  8
0
 10
76.500000
 20
133.522461
 11
79.650002
 21
133.522461
  0
LINE
  8
0
 10
76.500000
 20
130.431885
 11
79.650002
 21
130.431885
  0
LINE
  8
0
 10
76.500000
 20
138.040329
 11
79.650002
 21
138.040329
  0
LINE
  8
0
 10
76.500000
 20
139.467621
 11
79.650002
 21
139.467621
  0
LINE
  8
0
 10
80.000000
 20
131.977158
 11
80.000000
 21
138.753967
  0
LINE
  8
0
 10
85.000000
 20
133.249741
 11
85.000000
 21
136.649750
  0
LINE
  8
0
 10
90.500000
 20
123.799995
 11
90.500000
 21
136.199997
  0
LINE
  8
0
 10
80.000000
 20
123.050255
 11
84.699997
 21
123.050255
  0
LINE
  8
0
 10
80.000000
 20
127.050255
 11
84.699997
 21
127.050255
  0
LINE
  8
0
 10
80.000000
 20
132.949738
 11
84.699997
 21
132.949738
  0
LINE
  8
0
 10
80.000000
 20
136.949738
 11
84.699997
 21
136.949738
  0
LINE
  8
0
 10
84.699997
 20
123.050255
 11
84.699997
 21
127.050255
  0
LINE
  8
0
 10
84.699997
 20
132.949738
 11
84.699997
 21
136.949738
  0
LINE
  8
0
 10
80.000000
 20
123.300255
 11
84.949997
 21
123.300255
  0
LINE
  8
0
 10
80.000000
 20
126.800255
 11
84.949997
 21
126.800255
  0
LINE
  8
0
 10
80.000000
 20
133.199738
 11
84.949997
 21
133.199738
  0
LINE
  8
0
 10
80.000000
 20
136.699738
 11
84.949997
 21
136.699738
  0
LINE
  8
0
 10
80.000000
 20
122.800003
 11
89.500000
 21
122.800003
  0
LINE
  8
0
 10
80.000000
 20
137.199997
 11
89.500000
 21
137.199997
  0
LINE
  8
0
 10
44.500000
 20
101.715729
 11
76.500000
 21
101.715729
  0
LINE
  8
0
 10
44.500000
 20
158.284271
 11
76.500000
 21
158.284271
  0
LINE
  8
0
 10
77.199997
 20
119.830971
 11
77.199997
 21
120.434265
  0
LINE
  8
0
 10
77.599998
 20
119.392754
 11
77.599998
 21
120.434265
  0
LINE
  8
0
 10
79.050003
 20
119.468559
 11
79.050003
 21
119.531441
  0
LINE
  8
0
 10
77.199997
 20
139.467621
 11
77.199997
 21
140.169022
  0
LINE
  8
0
 10
77.599998
 20
139.467621
 11
77.599998
 21
140.607239
  0
LINE
  8
0
 10
79.050003
 20
140.468552
 11
79.050003
 21
140.531433
  0
LINE
  8
0
 10
76.788445
 20
110.804306
 11
76.500000
 21
110.804306
  0
LINE
  8
0
 10
76.788445
 20
120.204308
 11
76.500000
 21
120.204308
  0
LINE
  8
0
 10
76.788445
 20
120.204308
 11
76.788445
 21
110.804306
  0
LINE
  8
0
 10
76.788445
 20
139.795685
 11
76.500000
 21
139.795685
  0
LINE
  8
0
 10
76.788445
 20
149.195694
 11
76.500000
 21
149.195694
  0
LINE
  8
0
 10
76.788445
 20
149.195679
 11
76.788445
 21
139.795685
  0
LINE
  8
0
 10
34.449997
 20
117.510109
 11
34.449997
 21
109.289894
  0
LINE
  8
0
 10
34.750000
 20
117.650002
 11
34.750000
 21
109.150002
  0
LINE
  8
0
 10
34.750000
 20
117.650002
 11
39.449997
 21
117.650002
  0
LINE
  8
0
 10
34.750000
 20
109.150002
 11
39.449997
 21
109.150002
  0
LINE
  8
0
 10
34.449989
 20
117.510109
 11
34.749992
 21
117.650002
  0
LINE
  8
0
 10
34.450001
 20
109.289886
 11
34.750004
 21
109.149994
  0
LINE
  8
0
 10
34.750000
 20
115.650002
 11
37.120293
 21
115.650002
  0
LINE
  8
0
 10
34.750000
 20
113.650002
 11
35.965599
 21
113.650002
  0
LINE
  8
0
 10
34.750000
 20
111.650002
 11
34.810898
 21
111.650002
  0
LINE
  8
0
 10
34.449997
 20
150.710114
 11
34.449997
 21
142.489899
  0
LINE
  8
0
 10
34.750000
 20
150.850006
 11
34.750000
 21
142.350006
  0
LINE
  8
0
 10
34.750000
 20
150.850006
 11
39.449997
 21
150.850006
  0
LINE
  8
0
 10
34.750000
 20
142.350006
 11
39.449997
 21
142.350006
  0
LINE
  8
0
 10
34.450001
 20
150.710114
 11
34.750000
 21
150.850006
  0
LINE
  8
0
 10
34.450001
 20
142.489899
 11
34.750004
 21
142.350006
  0
LINE
  8
0
 10
34.750000
 20
148.850006
 11
37.120293
 21
148.850006
  0
LINE
  8
0
 10
34.750000
 20
146.850006
 11
35.965599
 21
146.850006
  0
LINE
  8
0
 10
34.750000
 20
144.850006
 11
34.810898
 21
144.850006
  0
LINE
  8
0
 10
84.700027
 20
127.050278
 11
85.000023
 21
126.750282
  0
LINE
  8
0
 10
84.700005
 20
123.050255
 11
85.000000
 21
123.350250
  0
LINE
  8
0
 10
84.700012
 20
136.949753
 11
85.000015
 21
136.649750
  0
LINE
  8
0
 10
84.700027
 20
132.949722
 11
85.000023
 21
133.249725
  0
LINE
  8
0
 10
40.000000
 20
117.500000
 11
44.500000
 21
117.500000
  0
LINE
  8
0
 10
40.000000
 20
142.500000
 11
44.500000
 21
142.500000
  0
LINE
  8
0
 10
39.449997
 20
108.900002
 11
39.449997
 21
117.900002
  0
LINE
  8
0
 10
39.449997
 20
108.900002
 11
40.000000
 21
108.900002
  0
LINE
  8
0
 10
39.449997
 20
117.900002
 11
40.000000
 21
117.900002
  0
LINE
  8
0
 10
39.449997
 20
142.100006
 11
40.000000
 21
142.100006
  0
LINE
  8
0
 10
39.449997
 20
151.100006
 11
40.000000
 21
151.100006
  0
LINE
  8
0
 10
39.449997
 20
142.100006
 11
39.449997
 21
151.100006
  0
LINE
  8
0
 10
56.499996
 20
100.346428
 11
56.499996
 21
101.715729
  0
LINE
  8
0
 10
64.500000
 20
100.346428
 11
64.500000
 21
101.715729
  0
LINE
  8
0
 10
56.499996
 20
100.346428
 11
64.500000
 21
100.346428
  0
CIRCLE
  8
0
 10
50.500000
 20
130.000000
 40
1.800000
  0
ARC
  8
0
 10
78.145737
 20
121.518463
 40
1.854259
 50
324.217712
 51
35.782295
  0
ARC
  8
0
 10
72.215240
 20
124.910652
 40
7.784763
 50
342.753906
 51
17.246075
  0
ARC
  8
0
 10
77.685463
 20
128.442444
 40
2.314537
 50
328.079498
 51
31.920660
  0
ARC
  8
0
 10
76.413696
 20
131.977158
 40
3.586298
 50
334.476166
 51
25.523788
  0
ARC
  8
0
 10
72.535316
 20
135.781387
 40
7.464676
 50
342.385223
 51
17.614874
  0
ARC
  8
0
 10
79.097443
 20
138.753967
 40
0.902548
 50
307.749664
 51
52.250538
  0
ARC
  8
0
 10
89.500000
 20
123.799995
 40
1.000000
 50
270.000000
 51
0.000000
  0
ARC
  8
0
 10
89.500000
 20
136.199997
 40
1.000000
 50
0.000000
 51
90.000000
  0
ARC
  8
0
 10
76.050003
 20
119.468559
 40
3.000006
 50
326.386139
 51
359.999847
  0
ARC
  8
0
 10
76.050003
 20
119.531441
 40
3.000000
 50
359.999847
 51
17.514137
  0
ARC
  8
0
 10
76.050003
 20
140.468552
 40
2.999997
 50
340.509888
 51
0.000000
  0
ARC
  8
0
 10
76.050003
 20
140.531433
 40
3.000000
 50
0.000000
 51
33.613850
  0
ARC
  8
0
 10
72.900002
 20
115.504311
 40
6.100008
 50
309.601959
 51
50.397964
  0
ARC
  8
0
 10
72.900002
 20
144.495682
 40
6.100002
 50
309.601990
 51
50.398010
  0
ARC
  8
0
 10
47.307114
 20
106.311920
 40
0.907118
 50
165.895676
 51
194.104324
  0
ARC
  8
0
 10
47.544109
 20
106.398788
 40
1.158442
 50
195.414932
 51
231.383179
  0
ARC
  8
0
 10
48.199997
 20
107.356888
 40
2.317966
 50
233.496796
 51
306.503204
  0
ARC
  8
0
 10
48.855885
 20
106.398788
 40
1.158445
 50
308.616821
 51
344.585052
  0
ARC
  8
0
 10
49.092880
 20
106.311920
 40
0.907118
 50
345.895691
 51
14.104323
  0
ARC
  8
0
 10
48.855885
 20
106.225052
 40
1.158442
 50
15.414936
 51
51.383183
  0
ARC
  8
0
 10
48.199997
 20
105.266953
 40
2.317966
 50
53.496788
 51
126.503212
  0
ARC
  8
0
 10
47.544109
 20
106.225052
 40
1.158445
 50
128.616821
 51
164.585068
  0
ARC
  8
0
 10
47.307121
 20
153.688095
 40
0.907118
 50
165.895676
 51
194.104324
  0
ARC
  8
0
 10
47.544117
 20
153.774963
 40
1.158442
 50
195.414932
 51
231.383179
  0
ARC
  8
0
 10
48.200005
 20
154.733063
 40
2.317966
 50
233.496796
 51
306.503204
  0
ARC
  8
0
 10
48.855892
 20
153.774963
 40
1.158445
 50
308.616821
 51
344.585052
  0
ARC
  8
0
 10
49.092888
 20
153.688095
 40
0.907118
 50
345.895691
 51
14.104323
  0
ARC
  8
0
 10
48.855892
 20
153.601227
 40
1.158442
 50
15.414936
 51
51.383183
  0
ARC
  8
0
 10
48.200005
 20
152.643127
 40
2.317966
 50
53.496788
 51
126.503212
  0
ARC
  8
0
 10
47.544117
 20
153.601227
 40
1.158445
 50
128.616821
 51
164.585068
  0
POINT
  8
0
 10
40.000000
 20
30.000000
  0
POINT
  8
0
 10
64.499985
 20
30.000000
  0
LINE
  8
0
 10
40.000000
 20
68.205002
 11
44.500000
 21
68.205002
  0
LINE
  8
0
 10
44.500000
 20
84.005005
 11
44.500000
 21
34.000317
  0
LINE
  8
0
 10
46.000000
 20
47.000320
 11
56.499989
 21
47.000320
  0
LINE
  8
0
 10
44.500000
 20
84.000320
 11
76.500000
 21
84.000320
  0
LINE
  8
0
 10
44.500000
 20
68.184586
 11
76.500000
 21
68.184586
  0
LINE
  8
0
 10
76.500000
 20
83.994995
 11
76.500000
 21
47.000320
  0
LINE
  8
0
 10
76.500000
 20
77.212494
 11
79.650002
 21
77.212494
  0
LINE
  8
0
 10
76.500000
 20
77.051300
 11
79.650002
 21
77.051300
  0
LINE
  8
0
 10
76.500000
 20
69.056183
 11
79.650002
 21
69.056183
  0
LINE
  8
0
 10
76.500000
 20
72.973145
 11
79.650002
 21
72.973145
  0
LINE
  8
0
 10
80.000000
 20
77.131897
 11
80.000000
 21
71.014664
  0
LINE
  8
0
 10
85.000000
 20
74.834335
 11
85.000000
 21
71.434341
  0
LINE
  8
0
 10
80.000000
 20
75.134338
 11
84.699997
 21
75.134338
  0
LINE
  8
0
 10
80.000000
 20
71.134338
 11
84.699997
 21
71.134338
  0
LINE
  8
0
 10
84.699997
 20
75.134331
 11
85.000000
 21
74.834335
  0
LINE
  8
0
 10
85.000000
 20
71.434341
 11
84.699997
 21
71.134338
  0
LINE
  8
0
 10
84.700012
 20
75.134338
 11
84.700012
 21
71.134338
  0
LINE
  8
0
 10
80.000000
 20
74.884338
 11
84.950012
 21
74.884338
  0
LINE
  8
0
 10
80.000000
 20
71.384338
 11
84.949997
 21
71.384338
  0
LINE
  8
0
 10
72.273285
 20
63.902493
 11
72.273285
 21
63.404560
  0
LINE
  8
0
 10
65.273285
 20
63.902493
 11
65.273285
 21
63.404560
  0
LINE
  8
0
 10
55.726715
 20
54.083397
 11
55.726715
 21
53.588417
  0
LINE
  8
0
 10
48.726715
 20
54.084877
 11
48.726715
 21
53.586937
  0
LINE
  8
0
 10
54.826721
 20
53.588417
 11
54.826721
 21
53.305573
  0
LINE
  8
0
 10
49.626717
 20
53.589516
 11
49.626717
 21
53.304932
  0
LINE
  8
0
 10
66.173279
 20
63.407139
 11
66.173279
 21
63.122101
  0
LINE
  8
0
 10
71.373276
 20
63.407143
 11
71.373276
 21
63.122101
  0
LINE
  8
0
 10
90.500000
 20
62.363773
 11
90.500000
 21
49.963776
  0
LINE
  8
0
 10
78.995865
 20
63.363773
 11
89.500000
 21
63.363773
  0
LINE
  8
0
 10
76.500000
 20
48.963776
 11
89.500000
 21
48.963776
  0
LINE
  8
0
 10
76.788445
 20
58.888397
 11
76.500000
 21
58.888397
  0
LINE
  8
0
 10
76.788445
 20
68.288391
 11
76.500000
 21
68.288391
  0
LINE
  8
0
 10
76.788445
 20
68.288391
 11
76.788445
 21
58.888397
  0
LINE
  8
0
 10
77.199997
 20
52.663776
 11
77.199997
 21
59.261734
  0
LINE
  8
0
 10
77.599998
 20
53.563778
 11
77.599998
 21
58.763775
  0
LINE
  8
0
 10
79.050003
 20
56.132336
 11
79.050003
 21
56.195217
  0
LINE
  8
0
 10
77.599998
 20
58.763775
 11
77.199997
 21
58.763775
  0
LINE
  8
0
 10
77.599998
 20
53.563778
 11
77.199997
 21
53.563778
  0
LINE
  8
0
 10
77.199997
 20
52.663776
 11
76.500000
 21
52.663776
  0
LINE
  8
0
 10
40.000000
 20
84.000320
 11
44.500000
 21
84.000320
  0
LINE
  8
0
 10
40.000000
 20
34.000317
 11
44.500000
 21
34.000317
  0
LINE
  8
0
 10
52.000000
 20
36.391525
 11
52.000000
 21
46.018478
  0
LINE
  8
0
 10
51.599998
 20
36.205002
 11
51.599998
 21
46.205002
  0
LINE
  8
0
 10
51.599998
 20
36.205002
 11
46.000000
 21
36.205002
  0
LINE
  8
0
 10
51.599998
 20
46.205002
 11
46.000000
 21
46.205002
  0
LINE
  8
0
 10
51.999996
 20
36.391518
 11
51.599995
 21
36.204994
  0
LINE
  8
0
 10
52.000015
 20
46.018505
 11
51.600018
 21
46.205025
  0
LINE
  8
0
 10
51.599998
 20
38.205002
 11
48.554703
 21
38.205002
  0
LINE
  8
0
 10
51.599998
 20
40.205002
 11
49.709404
 21
40.205002
  0
LINE
  8
0
 10
51.599998
 20
42.205002
 11
50.864105
 21
42.205002
  0
LINE
  8
0
 10
34.449997
 20
78.310425
 11
34.449997
 21
70.090210
  0
LINE
  8
0
 10
34.750000
 20
78.450317
 11
34.750000
 21
69.950317
  0
LINE
  8
0
 10
34.750000
 20
78.450317
 11
39.449997
 21
78.450317
  0
LINE
  8
0
 10
34.750000
 20
69.950317
 11
39.449997
 21
69.950317
  0
LINE
  8
0
 10
34.449997
 20
78.310440
 11
34.749992
 21
78.450333
  0
LINE
  8
0
 10
34.450008
 20
70.090225
 11
34.750008
 21
69.950333
  0
LINE
  8
0
 10
34.750000
 20
76.450317
 11
37.120293
 21
76.450317
  0
LINE
  8
0
 10
34.750000
 20
74.450317
 11
35.965599
 21
74.450317
  0
LINE
  8
0
 10
34.750000
 20
72.450317
 11
34.810898
 21
72.450317
  0
LINE
  8
0
 10
40.000000
 20
84.000320
 11
40.000000
 21
3.250000
  0
LINE
  8
0
 10
42.500000
 20
34.000317
 11
42.500000
 21
17.799999
  0
LINE
  8
0
 10
40.400002
 20
17.500000
 11
42.199997
 21
17.500000
  0
LINE
  8
0
 10
42.500000
 20
24.000000
 11
45.949997
 21
24.000000
  0
LINE
  8
0
 10
42.200012
 20
17.499989
 11
42.500011
 21
17.799988
  0
LINE
  8
0
 10
46.000000
 20
35.105003
 11
46.000000
 21
24.049997
  0
LINE
  8
0
 10
46.000000
 20
24.049999
 11
46.499992
 21
24.049999
  0
LINE
  8
0
 10
46.000000
 20
35.950001
 11
46.499992
 21
35.950001
  0
LINE
  8
0
 10
46.000019
 20
35.950012
 11
45.950020
 21
36.000008
  0
LINE
  8
0
 10
45.949974
 20
23.999983
 11
45.999977
 21
24.049980
  0
LINE
  8
0
 10
46.499992
 20
35.816162
 11
46.499992
 21
31.254906
  0
LINE
  8
0
 10
46.499992
 20
28.745094
 11
46.499992
 21
24.183838
  0
LINE
  8
0
 10
39.449997
 20
78.700317
 11
39.449997
 21
69.700317
  0
LINE
  8
0
 10
39.449997
 20
78.700317
 11
40.000000
 21
78.700317
  0
LINE
  8
0
 10
39.449997
 20
69.700317
 11
40.000000
 21
69.700317
  0
LINE
  8
0
 10
46.000000
 20
47.305000
 11
46.000000
 21
35.105003
  0
LINE
  8
0
 10
46.000000
 20
47.305000
 11
44.500000
 21
47.305000
  0
LINE
  8
0
 10
46.000000
 20
35.105003
 11
44.500000
 21
35.105003
  0
LINE
  8
0
 10
44.500000
 20
40.338978
 11
46.000008
 21
41.205006
  0
LINE
  8
0
 10
44.500008
 20
40.916328
 11
46.000004
 21
41.782356
  0
LINE
  8
0
 10
64.499985
 20
59.653587
 11
64.499985
 21
0.346430
  0
LINE
  8
0
 10
56.499989
 20
59.653587
 11
56.499989
 21
0.346428
  0
LINE
  8
0
 10
46.499992
 20
36.205002
 11
46.499992
 21
18.856306
  0
LINE
  8
0
 10
57.499985
 20
60.653587
 11
63.499985
 21
60.653587
  0
LINE
  8
0
 10
57.499985
 20
53.100906
 11
63.499985
 21
53.100906
  0
LINE
  8
0
 10
57.499992
 20
6.899115
 11
63.499992
 21
6.899115
  0
LINE
  8
0
 10
57.499992
 20
-0.653572
 11
63.499992
 21
-0.653572
  0
LINE
  8
0
 10
46.499992
 20
30.000000
 11
53.503864
 21
30.000000
  0
LINE
  8
0
 10
46.499992
 20
27.171574
 11
53.495975
 21
27.171574
  0
LINE
  8
0
 10
46.499992
 20
18.856306
 11
56.499989
 21
18.856306
  0
LINE
  8
0
 10
52.000000
 20
43.435028
 11
56.499989
 21
43.435028
  0
LINE
  8
0
 10
57.499992
 20
14.100115
 11
63.499992
 21
14.100115
  0
LINE
  8
0
 10
57.499985
 20
45.899906
 11
63.499985
 21
45.899906
  0
LINE
  8
0
 10
64.499985
 20
47.000320
 11
76.500000
 21
47.000320
  0
ARC
  8
0
 10
74.345482
 20
71.014664
 40
5.654518
 50
339.735352
 51
20.264643
  0
ARC
  8
0
 10
73.885193
 20
75.012222
 40
6.114799
 50
340.520721
 51
19.479351
  0
CIRCLE
  8
0
 10
68.773285
 20
62.392857
 40
0.010000
  0
CIRCLE
  8
0
 10
52.226715
 20
52.575226
 40
0.010000
  0
ARC
  8
0
 10
89.500000
 20
49.963776
 40
1.000000
 50
270.000000
 51
0.000000
  0
ARC
  8
0
 10
89.500000
 20
62.363773
 40
1.000000
 50
0.000000
 51
90.000000
  0
ARC
  8
0
 10
72.900002
 20
63.588398
 40
6.100005
 50
309.601959
 51
50.397987
  0
ARC
  8
0
 10
76.050003
 20
56.132336
 40
3.000003
 50
301.108948
 51
0.000000
  0
ARC
  8
0
 10
76.050003
 20
56.195217
 40
3.000000
 50
0.000000
 51
58.891045
  0
ARC
  8
0
 10
40.400002
 20
17.100000
 40
0.400000
 50
90.000000
 51
180.000000
  0
CIRCLE
  8
0
 10
60.500000
 20
57.990944
 40
0.010000
  0
ARC
  8
0
 10
63.499992
 20
7.899117
 40
1.000000
 50
270.000000
 51
0.000000
  0
ARC
  8
0
 10
57.499992
 20
7.899115
 40
1.000000
 50
180.000000
 51
270.000000
  0
ARC
  8
0
 10
63.499985
 20
52.100906
 40
1.000000
 50
0.000000
 51
90.000000
  0
ARC
  8
0
 10
57.499985
 20
52.100906
 40
1.000000
 50
90.000000
 51
180.000000
  0
ARC
  8
0
 10
63.499985
 20
59.653587
 40
1.000000
 50
0.000000
 51
90.000000
  0
ARC
  8
0
 10
57.499985
 20
59.653587
 40
1.000000
 50
90.000000
 51
180.000000
  0
ARC
  8
0
 10
63.499992
 20
0.346430
 40
1.000000
 50
270.000000
 51
0.000000
  0
ARC
  8
0
 10
57.499992
 20
0.346428
 40
1.000000
 50
180.000000
 51
270.000000
  0
ARC
  8
0
 10
79.650002
 20
78.315750
 40
1.264351
 50
270.000000
 51
282.242828
  0
ARC
  8
0
 10
79.891655
 20
77.230309
 40
0.152467
 50
279.993530
 51
312.511688
  0
ARC
  8
0
 10
79.978966
 20
77.131897
 40
0.021033
 50
318.352661
 51
41.647346
  0
ARC
  8
0
 10
79.891655
 20
77.033485
 40
0.152466
 50
47.488319
 51
80.006470
  0
ARC
  8
0
 10
79.650002
 20
75.948044
 40
1.264350
 50
77.757172
 51
90.000000
  0
ARC
  8
0
 10
49.092869
 20
72.780792
 40
0.907130
 50
345.895844
 51
14.104147
  0
ARC
  8
0
 10
48.855877
 20
72.693924
 40
1.158449
 50
15.414836
 51
51.382889
  0
ARC
  8
0
 10
48.199997
 20
71.735840
 40
2.317954
 50
53.496563
 51
126.503433
  0
ARC
  8
0
 10
47.544117
 20
72.693924
 40
1.158450
 50
128.617111
 51
164.585159
  0
ARC
  8
0
 10
47.307125
 20
72.780792
 40
0.907130
 50
165.895859
 51
194.104141
  0
ARC
  8
0
 10
47.544117
 20
72.867661
 40
1.158449
 50
195.414841
 51
231.382889
  0
ARC
  8
0
 10
48.199997
 20
73.825745
 40
2.317954
 50
233.496567
 51
306.503448
  0
ARC
  8
0
 10
48.855877
 20
72.867661
 40
1.158450
 50
308.617126
 51
344.585175
  0
ARC
  8
0
 10
60.500000
 20
53.793667
 40
11.527038
 50
65.413048
 51
126.497223
  0
ARC
  8
0
 10
57.237644
 20
58.560051
 40
5.758929
 50
128.610947
 51
164.581757
  0
ARC
  8
0
 10
56.058846
 20
58.992203
 40
4.508842
 50
165.893280
 51
194.106720
  0
ARC
  8
0
 10
57.237644
 20
59.424355
 40
5.758929
 50
195.418243
 51
209.824478
  0
ARC
  8
0
 10
53.963249
 20
54.083397
 40
1.763466
 50
0.000000
 51
14.105773
  0
ARC
  8
0
 10
53.502327
 20
53.914433
 40
2.252259
 50
15.416951
 51
51.386765
  0
ARC
  8
0
 10
52.226715
 20
52.050858
 40
4.507536
 50
53.500465
 51
126.499535
  0
ARC
  8
0
 10
50.951103
 20
53.914433
 40
2.252258
 50
128.613235
 51
164.583054
  0
ARC
  8
0
 10
50.490181
 20
54.083397
 40
1.763466
 50
165.894226
 51
180.053787
  0
ARC
  8
0
 10
70.509819
 20
63.901012
 40
1.763466
 50
0.000000
 51
14.105622
  0
ARC
  8
0
 10
70.048897
 20
63.732048
 40
2.252261
 50
15.416832
 51
51.386902
  0
ARC
  8
0
 10
68.773285
 20
61.868473
 40
4.507537
 50
53.500530
 51
126.499466
  0
ARC
  8
0
 10
67.497673
 20
63.732048
 40
2.252259
 50
128.613098
 51
164.583160
  0
ARC
  8
0
 10
67.036751
 20
63.901012
 40
1.763469
 50
165.894379
 51
180.053787
  0
ARC
  8
0
 10
70.509819
 20
63.406040
 40
1.763469
 50
345.894257
 51
14.105742
  0
ARC
  8
0
 10
70.048897
 20
63.237076
 40
2.252262
 50
15.416925
 51
51.386902
  0
ARC
  8
0
 10
68.773285
 20
61.373501
 40
4.507537
 50
53.500530
 51
126.499466
  0
ARC
  8
0
 10
67.497673
 20
63.237076
 40
2.252259
 50
128.613098
 51
164.583069
  0
ARC
  8
0
 10
67.036751
 20
63.406040
 40
1.763469
 50
165.894257
 51
194.105743
  0
ARC
  8
0
 10
67.497673
 20
63.575005
 40
2.252262
 50
195.416931
 51
231.386841
  0
ARC
  8
0
 10
68.773285
 20
65.438583
 40
4.507537
 50
233.500534
 51
306.499481
  0
ARC
  8
0
 10
70.048897
 20
63.575005
 40
2.252255
 50
308.613159
 51
344.583069
  0
ARC
  8
0
 10
53.963249
 20
53.588417
 40
1.763466
 50
345.894226
 51
14.105773
  0
ARC
  8
0
 10
53.502327
 20
53.419453
 40
2.252259
 50
15.416951
 51
51.386765
  0
ARC
  8
0
 10
52.226715
 20
51.555878
 40
4.507536
 50
53.500465
 51
126.499535
  0
ARC
  8
0
 10
50.951103
 20
53.419453
 40
2.252258
 50
128.613235
 51
164.583054
  0
ARC
  8
0
 10
50.490181
 20
53.588417
 40
1.763466
 50
165.894226
 51
194.105774
  0
ARC
  8
0
 10
50.951103
 20
53.757381
 40
2.252259
 50
195.416946
 51
231.386765
  0
ARC
  8
0
 10
52.226715
 20
55.620956
 40
4.507536
 50
233.500458
 51
306.499542
  0
ARC
  8
0
 10
53.502327
 20
53.757381
 40
2.252258
 50
308.613220
 51
344.583038
  0
ARC
  8
0
 10
53.516808
 20
53.588417
 40
1.309910
 50
0.000000
 51
14.106254
  0
ARC
  8
0
 10
53.174385
 20
53.462887
 40
1.673038
 50
15.417649
 51
51.388035
  0
ARC
  8
0
 10
52.226719
 20
52.078362
 40
3.348557
 50
53.501774
 51
126.498222
  0
ARC
  8
0
 10
51.279053
 20
53.462887
 40
1.673040
 50
128.611969
 51
164.582352
  0
ARC
  8
0
 10
50.936630
 20
53.588417
 40
1.309908
 50
165.893753
 51
180.053894
  0
ARC
  8
0
 10
53.516594
 20
53.305573
 40
1.310122
 50
345.894897
 51
14.105109
  0
ARC
  8
0
 10
53.174229
 20
53.180073
 40
1.673188
 50
15.416100
 51
51.385319
  0
ARC
  8
0
 10
52.226719
 20
51.795895
 40
3.348333
 50
53.498940
 51
126.501060
  0
ARC
  8
0
 10
51.279209
 20
53.180073
 40
1.673191
 50
128.614685
 51
164.583893
  0
ARC
  8
0
 10
50.936844
 20
53.305573
 40
1.310122
 50
165.894897
 51
194.105103
  0
ARC
  8
0
 10
51.279209
 20
53.431072
 40
1.673188
 50
195.416107
 51
231.385315
  0
ARC
  8
0
 10
52.226719
 20
54.815250
 40
3.348333
 50
233.498947
 51
306.501068
  0
ARC
  8
0
 10
53.174229
 20
53.431072
 40
1.673191
 50
308.614685
 51
344.583893
  0
ARC
  8
0
 10
60.500000
 20
64.190735
 40
11.527033
 50
245.697052
 51
249.776535
  0
ARC
  8
0
 10
70.063370
 20
63.123199
 40
1.309908
 50
345.893738
 51
14.106254
  0
ARC
  8
0
 10
69.720947
 20
62.997669
 40
1.673038
 50
15.417649
 51
51.388058
  0
ARC
  8
0
 10
68.773277
 20
61.613144
 40
3.348554
 50
53.501736
 51
126.498260
  0
ARC
  8
0
 10
67.825607
 20
62.997669
 40
1.673034
 50
128.611938
 51
164.582352
  0
ARC
  8
0
 10
67.483185
 20
63.123199
 40
1.309908
 50
165.893753
 51
194.106247
  0
ARC
  8
0
 10
67.825607
 20
63.248730
 40
1.673038
 50
195.417648
 51
231.388138
  0
ARC
  8
0
 10
68.773277
 20
64.633255
 40
3.348557
 50
233.501770
 51
306.498230
  0
ARC
  8
0
 10
69.720947
 20
63.248730
 40
1.673037
 50
308.611847
 51
344.582336
  0
ARC
  8
0
 10
70.063370
 20
63.406040
 40
1.309907
 50
0.053728
 51
14.106254
  0
ARC
  8
0
 10
69.720947
 20
63.280510
 40
1.673038
 50
15.417649
 51
51.388138
  0
ARC
  8
0
 10
68.773277
 20
61.895988
 40
3.348554
 50
53.501736
 51
126.498260
  0
ARC
  8
0
 10
67.825607
 20
63.280510
 40
1.673037
 50
128.611862
 51
164.582352
  0
ARC
  8
0
 10
67.483185
 20
63.406040
 40
1.309908
 50
165.893753
 51
180.053726
  0
ARC
  8
0
 10
69.963417
 20
62.972134
 40
1.208367
 50
345.893646
 51
14.106346
  0
ARC
  8
0
 10
69.647530
 20
62.856327
 40
1.543357
 50
15.417892
 51
51.388538
  0
ARC
  8
0
 10
68.773285
 20
61.579063
 40
3.089070
 50
53.502132
 51
126.497864
  0
ARC
  8
0
 10
67.899040
 20
62.856327
 40
1.543360
 50
128.611465
 51
164.582108
  0
ARC
  8
0
 10
67.583153
 20
62.972134
 40
1.208367
 50
165.893646
 51
194.106354
  0
ARC
  8
0
 10
67.899040
 20
63.087940
 40
1.543357
 50
195.417892
 51
231.388535
  0
ARC
  8
0
 10
68.773285
 20
64.365204
 40
3.089070
 50
233.502136
 51
306.497864
  0
ARC
  8
0
 10
69.647530
 20
63.087940
 40
1.543360
 50
308.611450
 51
344.582123
  0
ARC
  8
0
 10
69.727844
 20
62.708832
 40
0.968439
 50
345.890839
 51
14.109154
  0
ARC
  8
0
 10
69.474480
 20
62.615932
 40
1.237131
 50
15.421521
 51
51.394989
  0
ARC
  8
0
 10
68.773285
 20
61.591290
 40
2.477047
 50
53.508781
 51
126.491219
  0
ARC
  8
0
 10
68.072090
 20
62.615932
 40
1.237129
 50
128.605011
 51
164.578476
  0
ARC
  8
0
 10
67.818726
 20
62.708832
 40
0.968439
 50
165.890839
 51
194.109161
  0
ARC
  8
0
 10
68.072090
 20
62.801731
 40
1.237131
 50
195.421524
 51
231.394989
  0
ARC
  8
0
 10
68.773285
 20
63.826374
 40
2.477047
 50
233.508774
 51
306.491211
  0
ARC
  8
0
 10
69.474480
 20
62.801731
 40
1.237129
 50
308.605011
 51
344.578491
  0
ARC
  8
0
 10
69.459335
 20
62.518040
 40
0.695945
 50
345.890472
 51
14.109519
  0
ARC
  8
0
 10
69.277237
 20
62.451271
 40
0.889060
 50
15.421941
 51
51.395634
  0
ARC
  8
0
 10
68.773285
 20
61.714832
 40
1.780212
 50
53.509628
 51
126.490372
  0
ARC
  8
0
 10
68.269333
 20
62.451271
 40
0.889058
 50
128.604370
 51
164.578064
  0
ARC
  8
0
 10
68.087234
 20
62.518040
 40
0.695945
 50
165.890488
 51
194.109512
  0
ARC
  8
0
 10
68.269333
 20
62.584808
 40
0.889060
 50
195.421936
 51
231.395630
  0
ARC
  8
0
 10
68.773285
 20
63.321247
 40
1.780212
 50
233.509628
 51
306.490387
  0
ARC
  8
0
 10
69.277237
 20
62.584808
 40
0.889058
 50
308.604370
 51
344.578064
  0
ARC
  8
0
 10
69.226486
 20
62.423985
 40
0.460302
 50
346.064880
 51
14.275323
  0
ARC
  8
0
 10
69.106323
 20
62.379532
 40
0.587872
 50
15.586324
 51
51.555729
  0
ARC
  8
0
 10
68.774857
 20
61.892204
 40
1.176441
 50
53.669334
 51
126.670959
  0
ARC
  8
0
 10
68.440506
 20
62.377556
 40
0.587868
 50
128.784988
 51
164.754074
  0
ARC
  8
0
 10
68.320084
 20
62.421291
 40
0.460302
 50
166.064865
 51
194.275330
  0
ARC
  8
0
 10
68.440247
 20
62.465744
 40
0.587872
 50
195.586319
 51
231.555725
  0
ARC
  8
0
 10
68.771713
 20
62.953072
 40
1.176441
 50
233.669342
 51
306.670959
  0
ARC
  8
0
 10
69.106064
 20
62.467720
 40
0.587868
 50
308.785004
 51
344.754089
  0
ARC
  8
0
 10
53.416847
 20
53.154510
 40
1.208367
 50
345.893646
 51
14.106346
  0
ARC
  8
0
 10
53.100956
 20
53.038704
 40
1.543361
 50
15.417854
 51
51.388428
  0
ARC
  8
0
 10
52.226715
 20
51.761444
 40
3.089067
 50
53.502090
 51
126.497910
  0
ARC
  8
0
 10
51.352474
 20
53.038704
 40
1.543362
 50
128.611572
 51
164.582153
  0
ARC
  8
0
 10
51.036583
 20
53.154510
 40
1.208367
 50
165.893646
 51
194.106354
  0
ARC
  8
0
 10
51.352474
 20
53.270317
 40
1.543361
 50
195.417847
 51
231.388428
  0
ARC
  8
0
 10
52.226715
 20
54.547577
 40
3.089067
 50
233.502090
 51
306.497894
  0
ARC
  8
0
 10
53.100956
 20
53.270317
 40
1.543362
 50
308.611572
 51
344.582153
  0
ARC
  8
0
 10
53.181278
 20
52.891205
 40
0.968439
 50
345.890839
 51
14.109154
  0
ARC
  8
0
 10
52.927914
 20
52.798306
 40
1.237131
 50
15.421521
 51
51.394852
  0
ARC
  8
0
 10
52.226719
 20
51.773663
 40
2.477049
 50
53.508709
 51
126.491287
  0
ARC
  8
0
 10
51.525524
 20
52.798306
 40
1.237131
 50
128.605148
 51
164.578476
  0
ARC
  8
0
 10
51.272160
 20
52.891205
 40
0.968439
 50
165.890839
 51
194.109161
  0
ARC
  8
0
 10
51.525524
 20
52.984104
 40
1.237131
 50
195.421524
 51
231.394852
  0
ARC
  8
0
 10
52.226719
 20
54.008747
 40
2.477049
 50
233.508713
 51
306.491302
  0
ARC
  8
0
 10
52.927914
 20
52.984104
 40
1.237131
 50
308.605164
 51
344.578491
  0
ARC
  8
0
 10
52.912769
 20
52.700417
 40
0.695945
 50
345.890472
 51
14.109519
  0
ARC
  8
0
 10
52.730675
 20
52.633648
 40
0.889056
 50
15.422006
 51
51.395824
  0
ARC
  8
0
 10
52.226719
 20
51.897209
 40
1.780212
 50
53.509628
 51
126.490372
  0
ARC
  8
0
 10
51.722763
 20
52.633648
 40
0.889055
 50
128.604172
 51
164.577988
  0
ARC
  8
0
 10
51.540668
 20
52.700417
 40
0.695945
 50
165.890488
 51
194.109512
  0
ARC
  8
0
 10
51.722763
 20
52.767185
 40
0.889056
 50
195.422012
 51
231.395828
  0
ARC
  8
0
 10
52.226719
 20
53.503624
 40
1.780212
 50
233.509628
 51
306.490387
  0
ARC
  8
0
 10
52.730675
 20
52.767185
 40
0.889055
 50
308.604187
 51
344.578003
  0
ARC
  8
0
 10
52.679920
 20
52.606358
 40
0.460302
 50
346.064880
 51
14.275323
  0
ARC
  8
0
 10
52.559757
 20
52.561905
 40
0.587872
 50
15.586324
 51
51.555435
  0
ARC
  8
0
 10
52.228294
 20
52.074577
 40
1.176441
 50
53.669334
 51
126.670959
  0
ARC
  8
0
 10
51.893940
 20
52.559929
 40
0.587866
 50
128.784698
 51
164.754074
  0
ARC
  8
0
 10
51.773518
 20
52.603664
 40
0.460302
 50
166.064865
 51
194.275330
  0
ARC
  8
0
 10
51.893681
 20
52.648117
 40
0.587872
 50
195.586319
 51
231.555435
  0
ARC
  8
0
 10
52.225143
 20
53.135445
 40
1.176441
 50
233.669342
 51
306.670959
  0
ARC
  8
0
 10
52.559498
 20
52.650093
 40
0.587866
 50
308.784698
 51
344.754089
  0
ARC
  8
0
 10
61.957928
 20
58.799023
 40
2.573946
 50
44.924343
 51
51.387550
  0
ARC
  8
0
 10
60.500015
 20
56.669060
 40
5.151576
 50
53.501331
 51
126.498665
  0
ARC
  8
0
 10
59.042103
 20
58.799023
 40
2.573941
 50
128.612457
 51
135.114258
  0
ARC
  8
0
 10
60.499985
 20
57.220470
 40
3.928419
 50
60.463837
 51
119.520363
  0
ARC
  8
0
 10
53.496758
 20
43.119286
 40
3.219793
 50
242.459167
 51
306.497864
  0
ARC
  8
0
 10
54.407997
 20
41.787968
 40
1.608672
 50
308.611572
 51
344.582092
  0
ARC
  8
0
 10
54.737259
 20
41.667259
 40
1.259496
 50
345.893585
 51
14.106573
  0
ARC
  8
0
 10
54.407997
 20
41.546555
 40
1.608670
 50
15.417920
 51
51.388443
  0
ARC
  8
0
 10
53.496758
 20
40.215233
 40
3.219793
 50
53.502178
 51
117.575195
  0
ARC
  8
0
 10
53.496754
 20
42.828880
 40
2.575836
 50
234.516754
 51
306.498016
  0
ARC
  8
0
 10
54.225750
 20
41.763824
 40
1.286933
 50
308.611725
 51
344.582275
  0
ARC
  8
0
 10
54.489159
 20
41.667263
 40
1.007595
 50
345.893585
 51
14.106636
  0
ARC
  8
0
 10
54.225750
 20
41.570698
 40
1.286934
 50
15.418046
 51
51.388519
  0
ARC
  8
0
 10
53.496761
 20
40.505638
 40
2.575834
 50
53.502300
 51
125.482628
  0
ARC
  8
0
 10
53.499989
 20
33.863758
 40
3.863760
 50
270.000061
 51
306.497925
  0
ARC
  8
0
 10
54.593487
 20
32.266167
 40
1.930401
 50
308.611603
 51
344.582245
  0
ARC
  8
0
 10
54.988598
 20
32.121323
 40
1.511397
 50
345.893616
 51
0.000000
  0
ARC
  8
0
 10
54.988598
 20
25.050253
 40
1.511395
 50
0.000000
 51
14.106391
  0
ARC
  8
0
 10
54.593487
 20
24.905407
 40
1.930401
 50
15.417812
 51
51.388481
  0
ARC
  8
0
 10
53.499989
 20
23.307814
 40
3.863762
 50
53.502136
 51
89.999947
  0
ARC
  8
0
 10
60.500000
 20
64.190735
 40
11.527034
 50
290.222900
 51
306.497223
  0
ARC
  8
0
 10
63.762356
 20
59.424355
 40
5.758929
 50
308.610962
 51
344.581757
  0
ARC
  8
0
 10
64.941154
 20
58.992203
 40
4.508842
 50
345.893280
 51
14.106714
  0
ARC
  8
0
 10
63.762356
 20
58.560051
 40
5.758929
 50
15.418237
 51
24.330631
  0
POINT
  8
0
 10
190.000000
 20
130.000000
  0
POINT
  8
0
 10
229.500000
 20
130.000000
  0
LINE
  8
0
 10
172.999680
 20
137.100006
 11
151.815399
 21
158.284286
  0
LINE
  8
0
 10
151.815399
 20
101.715721
 11
172.999680
 21
122.899994
  0
LINE
  8
0
 10
151.815399
 20
101.715714
 11
135.999680
 21
117.531433
  0
LINE
  8
0
 10
135.999664
 20
142.468552
 11
151.815399
 21
158.284271
  0
LINE
  8
0
 10
172.999680
 20
122.899994
 11
172.999680
 21
137.100006
  0
LINE
  8
0
 10
135.999680
 20
117.500290
 11
135.999680
 21
142.468552
  0
LINE
  8
0
 10
158.674347
 20
152.415298
 11
162.421997
 21
156.162964
  0
LINE
  8
0
 10
163.836212
 20
146.263458
 11
168.078857
 21
150.506104
  0
LINE
  8
0
 10
163.447311
 20
155.844757
 11
164.013412
 21
156.410873
  0
LINE
  8
0
 10
167.760651
 20
151.531418
 11
168.326767
 21
152.097519
  0
LINE
  8
0
 10
168.228302
 20
151.063782
 11
162.979691
 21
156.312378
  0
LINE
  8
0
 10
164.013412
 20
156.410858
 11
168.326767
 21
152.097504
  0
LINE
  8
0
 10
168.078873
 20
150.506104
 11
168.228302
 21
151.063782
  0
LINE
  8
0
 10
162.422028
 20
156.162949
 11
162.979691
 21
156.312378
  0
LINE
  8
0
 10
168.078873
 20
150.506104
 11
162.422028
 21
156.162964
  0
LINE
  8
0
 10
147.173737
 20
120.526062
 11
150.796936
 21
122.790077
  0
LINE
  8
0
 10
142.934387
 20
127.310440
 11
146.557571
 21
129.574463
  0
LINE
  8
0
 10
146.873917
 20
120.515572
 11
143.101624
 21
122.521339
  0
LINE
  8
0
 10
150.629700
 20
127.579155
 11
146.857391
 21
129.584930
  0
LINE
  8
0
 10
142.942596
 20
122.775764
 11
142.793488
 21
127.045547
  0
LINE
  8
0
 10
150.937714
 20
123.054955
 11
150.788605
 21
127.324745
  0
LINE
  8
0
 10
147.564865
 20
123.176460
 11
145.488022
 21
126.500114
  0
LINE
  8
0
 10
148.243301
 20
123.600403
 11
146.166443
 21
126.924057
  0
LINE
  8
0
 10
150.334091
 20
132.028595
 11
151.222366
 21
136.207626
  0
LINE
  8
0
 10
142.508881
 20
133.691895
 11
143.397171
 21
137.870911
  0
LINE
  8
0
 10
150.133377
 20
131.805649
 11
146.070084
 21
130.485413
  0
LINE
  8
0
 10
147.661224
 20
139.414108
 11
143.597946
 21
138.093872
  0
LINE
  8
0
 10
145.776611
 20
130.547760
 11
142.601624
 21
133.406540
  0
LINE
  8
0
 10
151.129669
 20
136.492920
 11
147.954666
 21
139.351700
  0
LINE
  8
0
 10
148.699265
 20
134.151062
 11
144.865723
 21
134.965912
  0
LINE
  8
0
 10
148.865601
 20
134.933578
 11
145.032059
 21
135.748428
  0
LINE
  8
0
 10
186.000000
 20
106.314560
 11
186.000000
 21
113.826797
  0
LINE
  8
0
 10
186.000000
 20
144.031219
 11
186.000000
 21
153.685440
  0
LINE
  8
0
 10
136.000000
 20
142.400528
 11
136.000000
 21
142.500000
  0
LINE
  8
0
 10
154.119080
 20
103.029457
 11
159.068832
 21
107.979202
  0
LINE
  8
0
 10
155.038330
 20
103.383011
 11
158.715271
 21
107.059967
  0
LINE
  8
0
 10
157.879883
 20
104.173943
 11
157.924347
 21
104.218407
  0
LINE
  8
0
 10
158.715271
 20
107.059959
 11
158.432434
 21
107.342804
  0
LINE
  8
0
 10
155.038315
 20
103.383003
 11
154.755478
 21
103.665848
  0
LINE
  8
0
 10
159.068817
 20
107.979210
 11
158.573853
 21
108.474182
  0
LINE
  8
0
 10
154.119080
 20
103.029449
 11
153.624115
 21
103.524422
  0
LINE
  8
0
 10
163.936691
 20
112.847069
 11
168.886459
 21
117.796822
  0
LINE
  8
0
 10
164.855942
 20
113.200630
 11
168.532898
 21
116.877579
  0
LINE
  8
0
 10
167.697495
 20
113.991562
 11
167.741959
 21
114.036026
  0
LINE
  8
0
 10
168.532898
 20
116.877579
 11
168.250046
 21
117.160423
  0
LINE
  8
0
 10
164.855942
 20
113.200623
 11
164.573090
 21
113.483467
  0
LINE
  8
0
 10
168.886459
 20
117.796814
 11
168.391479
 21
118.291794
  0
LINE
  8
0
 10
168.886459
 20
142.203186
 11
164.331207
 21
146.758438
  0
LINE
  8
0
 10
168.532898
 20
143.122421
 11
164.855957
 21
146.799377
  0
LINE
  8
0
 10
167.741974
 20
145.963974
 11
167.697510
 21
146.008438
  0
LINE
  8
0
 10
164.855942
 20
146.799377
 11
164.573105
 21
146.516541
  0
LINE
  8
0
 10
168.532898
 20
143.122437
 11
168.250061
 21
142.839584
  0
LINE
  8
0
 10
168.886444
 20
142.203186
 11
168.391479
 21
141.708206
  0
LINE
  8
0
 10
159.068832
 20
152.020798
 11
154.119095
 21
156.970551
  0
LINE
  8
0
 10
158.715286
 20
152.940048
 11
155.038330
 21
156.617004
  0
LINE
  8
0
 10
157.924347
 20
155.781601
 11
157.879883
 21
155.826050
  0
LINE
  8
0
 10
155.038315
 20
156.617004
 11
154.755478
 21
156.334152
  0
LINE
  8
0
 10
158.715286
 20
152.940048
 11
158.432449
 21
152.657196
  0
LINE
  8
0
 10
154.119080
 20
156.970551
 11
153.624115
 21
156.475586
  0
LINE
  8
0
 10
159.068832
 20
152.020798
 11
158.573868
 21
151.525833
  0
LINE
  8
0
 10
185.170364
 20
165.294098
 11
184.508286
 21
162.823196
  0
LINE
  8
0
 10
194.829636
 20
165.294098
 11
195.491699
 21
162.823196
  0
LINE
  8
0
 10
185.170380
 20
94.705910
 11
184.508301
 21
97.176804
  0
LINE
  8
0
 10
194.829620
 20
94.705902
 11
195.491699
 21
97.176804
  0
LINE
  8
0
 10
221.171570
 20
118.344360
 11
222.980392
 21
116.535538
  0
LINE
  8
0
 10
221.171570
 20
141.655640
 11
222.980408
 21
143.464462
  0
LINE
  8
0
 10
215.679871
 20
151.167542
 11
218.150772
 21
151.829620
  0
LINE
  8
0
 10
195.695908
 20
109.026207
 11
194.423080
 21
113.776459
  0
LINE
  8
0
 10
211.011795
 20
124.445908
 11
206.261536
 21
125.718727
  0
LINE
  8
0
 10
211.011795
 20
135.554047
 11
206.261566
 21
134.281235
  0
LINE
  8
0
 10
201.838455
 20
141.942261
 11
205.315887
 21
145.419693
  0
LINE
  8
0
 10
194.423126
 20
146.223541
 11
195.695953
 21
150.973770
  0
LINE
  8
0
 10
191.132080
 20
144.000000
 11
191.525360
 21
144.000000
  0
LINE
  8
0
 10
201.964005
 20
122.722244
 11
202.887009
 21
124.320946
  0
LINE
  8
0
 10
202.887039
 20
135.679016
 11
201.361710
 21
138.320953
  0
LINE
  8
0
 10
220.000000
 20
121.172791
 11
220.000000
 21
138.827209
  0
LINE
  8
0
 10
212.644608
 20
151.567154
 11
197.355408
 21
160.394363
  0
LINE
  8
0
 10
197.355423
 20
99.605629
 11
207.478638
 21
105.450272
  0
LINE
  8
0
 10
169.033325
 20
152.535904
 11
182.644592
 21
160.394379
  0
LINE
  8
0
 10
159.048035
 20
108.000000
 11
159.892136
 21
108.000000
  0
LINE
  8
0
 10
189.646439
 20
123.282486
 11
183.282486
 21
129.646454
  0
LINE
  8
0
 10
196.717514
 20
130.353546
 11
190.353561
 21
136.717514
  0
LINE
  8
0
 10
190.353546
 20
123.282486
 11
196.717514
 21
129.646439
  0
LINE
  8
0
 10
188.992004
 20
124.644028
 11
184.644028
 21
128.992020
  0
LINE
  8
0
 10
184.644028
 20
131.007996
 11
188.992020
 21
135.355972
  0
LINE
  8
0
 10
191.007980
 20
124.644028
 11
195.355972
 21
128.992004
  0
LINE
  8
0
 10
195.355972
 20
131.007980
 11
191.007996
 21
135.355972
  0
LINE
  8
0
 10
191.007980
 20
135.355972
 11
191.254913
 21
135.816162
  0
LINE
  8
0
 10
188.745087
 20
135.816162
 11
188.992020
 21
135.355972
  0
LINE
  8
0
 10
184.183838
 20
131.254913
 11
184.644028
 21
131.007980
  0
LINE
  8
0
 10
184.644028
 20
128.992020
 11
184.183838
 21
128.745087
  0
LINE
  8
0
 10
188.992020
 20
124.644028
 11
188.745087
 21
124.183838
  0
LINE
  8
0
 10
191.007980
 20
124.644028
 11
191.254913
 21
124.183838
  0
LINE
  8
0
 10
195.355972
 20
128.992004
 11
195.816162
 21
128.745087
  0
LINE
  8
0
 10
195.355972
 20
131.007980
 11
195.880737
 21
131.190323
  0
LINE
  8
0
 10
159.357834
 20
108.244728
 11
163.671188
 21
112.558075
  0
LINE
  8
0
 10
159.357819
 20
108.244720
 11
158.851105
 21
108.751427
  0
LINE
  8
0
 10
163.671173
 20
112.558067
 11
163.164459
 21
113.064774
  0
LINE
  8
0
 10
182.644592
 20
99.605629
 11
172.521362
 21
105.450287
  0
LINE
  8
0
 10
163.441727
 20
113.342041
 11
163.936707
 21
112.847069
  0
LINE
  8
0
 10
181.686752
 20
110.500000
 11
181.293137
 21
111.181747
  0
LINE
  8
0
 10
177.356628
 20
108.000000
 11
176.963013
 21
108.681747
  0
LINE
  8
0
 10
180.243378
 20
108.000000
 11
177.356628
 21
108.000000
  0
LINE
  8
0
 10
181.686752
 20
110.500000
 11
180.243378
 21
108.000000
  0
LINE
  8
0
 10
181.686752
 20
149.500000
 11
180.243378
 21
152.000000
  0
LINE
  8
0
 10
180.243378
 20
152.000000
 11
177.356628
 21
152.000000
  0
LINE
  8
0
 10
175.913254
 20
149.500000
 11
177.356628
 21
152.000000
  0
LINE
  8
0
 10
177.356628
 20
147.000000
 11
175.913254
 21
149.500000
  0
LINE
  8
0
 10
180.243378
 20
147.000000
 11
177.356628
 21
147.000000
  0
LINE
  8
0
 10
181.686752
 20
149.500000
 11
180.243378
 21
147.000000
  0
LINE
  8
0
 10
163.836227
 20
120.654701
 11
162.836227
 21
120.077354
  0
LINE
  8
0
 10
162.836227
 20
120.077354
 11
162.836227
 21
118.922653
  0
LINE
  8
0
 10
163.836227
 20
118.345306
 11
162.836227
 21
118.922653
  0
LINE
  8
0
 10
164.836227
 20
118.922653
 11
163.836227
 21
118.345299
  0
LINE
  8
0
 10
164.836227
 20
120.077354
 11
164.836227
 21
118.922653
  0
LINE
  8
0
 10
163.836227
 20
120.654701
 11
164.836227
 21
120.077354
  0
LINE
  8
0
 10
163.836212
 20
141.654709
 11
162.836212
 21
141.077362
  0
LINE
  8
0
 10
162.836212
 20
141.077362
 11
162.836212
 21
139.922653
  0
LINE
  8
0
 10
163.836212
 20
139.345306
 11
162.836212
 21
139.922653
  0
LINE
  8
0
 10
164.836212
 20
139.922653
 11
163.836212
 21
139.345306
  0
LINE
  8
0
 10
164.836212
 20
141.077362
 11
164.836212
 21
139.922653
  0
LINE
  8
0
 10
163.836212
 20
141.654709
 11
164.836212
 21
141.077362
  0
LINE
  8
0
 10
175.536057
 20
105.346680
 11
176.086624
 21
106.300285
  0
LINE
  8
0
 10
175.969070
 20
105.096680
 11
176.519623
 21
106.050285
  0
LINE
  8
0
 10
175.536057
 20
154.653320
 11
176.086624
 21
153.699707
  0
LINE
  8
0
 10
175.969070
 20
154.903320
 11
176.519638
 21
153.949707
  0
LINE
  8
0
 10
156.411606
 20
117.654312
 11
156.411606
 21
113.354317
  0
LINE
  8
0
 10
154.261597
 20
115.504318
 11
158.561600
 21
115.504318
  0
LINE
  8
0
 10
156.411591
 20
146.645691
 11
156.411591
 21
142.345703
  0
LINE
  8
0
 10
154.261597
 20
144.495697
 11
158.561600
 21
144.495697
  0
LINE
  8
0
 10
176.564972
 20
134.949753
 11
180.383347
 21
138.768127
  0
LINE
  8
0
 10
201.313705
 20
130.000000
 11
187.878677
 21
143.435028
  0
LINE
  8
0
 10
187.878677
 20
143.435028
 11
185.050247
 21
143.435028
  0
LINE
  8
0
 10
176.564972
 20
134.949753
 11
176.564972
 21
132.121323
  0
LINE
  8
0
 10
167.525925
 20
100.454849
 11
173.168716
 21
106.097649
  0
LINE
  8
0
 10
175.239777
 20
107.686836
 11
184.999985
 21
113.321899
  0
LINE
  8
0
 10
171.930893
 20
114.838211
 11
172.258453
 21
115.113060
  0
LINE
  8
0
 10
159.346420
 20
107.542091
 11
167.006851
 21
113.969971
  0
LINE
  8
0
 10
212.474060
 20
100.454834
 11
206.831268
 21
106.097641
  0
LINE
  8
0
 10
204.760208
 20
107.686829
 11
195.000000
 21
113.321899
  0
LINE
  8
0
 10
220.653564
 20
107.542068
 11
212.993134
 21
113.969955
  0
LINE
  8
0
 10
208.069092
 20
114.838196
 11
206.487595
 21
116.165237
  0
LINE
  8
0
 10
189.646454
 20
122.575378
 11
182.575378
 21
129.646454
  0
LINE
  8
0
 10
190.353546
 20
122.575378
 11
197.424622
 21
129.646454
  0
LINE
  8
0
 10
197.424622
 20
130.353546
 11
190.353546
 21
137.424622
  0
LINE
  8
0
 10
182.575378
 20
130.353546
 11
185.686646
 21
133.464828
  0
LINE
  8
0
 10
186.040207
 20
133.111267
 11
180.383347
 21
138.768127
  0
LINE
  8
0
 10
186.888733
 20
133.959793
 11
181.231873
 21
139.616653
  0
LINE
  8
0
 10
186.535172
 20
134.313354
 11
189.646454
 21
137.424622
  0
LINE
  8
0
 10
181.231873
 20
139.616653
 11
185.050247
 21
143.435028
  0
LINE
  8
0
 10
185.333099
 20
133.818375
 11
186.181625
 21
134.666901
  0
LINE
  8
0
 10
181.797562
 20
137.353912
 11
182.646088
 21
138.202438
  0
LINE
  8
0
 10
193.948471
 20
141.183624
 11
189.162796
 21
145.969284
  0
LINE
  8
0
 10
194.207291
 20
140.217697
 11
188.196884
 21
146.228104
  0
LINE
  8
0
 10
194.207275
 20
140.217697
 11
193.948456
 21
141.183624
  0
LINE
  8
0
 10
188.196869
 20
146.228088
 11
189.162796
 21
145.969269
  0
LINE
  8
0
 10
192.651657
 20
138.662064
 11
194.207291
 21
140.217697
  0
LINE
  8
0
 10
185.403809
 20
143.435028
 11
188.196884
 21
146.228104
  0
LINE
  8
0
 10
183.282486
 20
130.353561
 11
189.646454
 21
136.717514
  0
CIRCLE
  8
0
 10
156.411606
 20
115.504318
 40
5.000000
  0
CIRCLE
  8
0
 10
156.411591
 20
144.495697
 40
5.000000
  0
CIRCLE
  8
0
 10
163.836227
 20
130.000000
 40
0.750000
  0
CIRCLE
  8
0
 10
163.836227
 20
130.000000
 40
7.200000
  0
ARC
  8
0
 10
163.836227
 20
130.000000
 40
8.000008
 50
105.358856
 51
254.641006
  0
ARC
  8
0
 10
161.714905
 20
149.798996
 40
7.000004
 50
19.169146
 51
70.830696
  0
CIRCLE
  8
0
 10
146.865662
 20
125.050255
 40
2.000000
  0
CIRCLE
  8
0
 10
146.865662
 20
125.050255
 40
1.750000
  0
CIRCLE
  8
0
 10
146.865662
 20
125.050255
 40
4.000000
  0
ARC
  8
0
 10
143.242462
 20
122.786232
 40
0.300003
 50
181.999542
 51
242.000534
  0
ARC
  8
0
 10
147.014771
 20
120.780464
 40
0.299999
 50
242.000534
 51
301.998901
  0
ARC
  8
0
 10
150.637955
 20
123.044487
 40
0.299999
 50
302.001373
 51
1.999539
  0
ARC
  8
0
 10
150.488861
 20
127.314278
 40
0.299987
 50
1.999641
 51
62.000542
  0
ARC
  8
0
 10
146.716553
 20
129.320038
 40
0.300006
 50
62.001225
 51
121.999825
  0
ARC
  8
0
 10
143.093369
 20
127.056023
 40
0.300005
 50
122.000595
 51
181.999542
  0
CIRCLE
  8
0
 10
146.865662
 20
134.949753
 40
2.000000
  0
CIRCLE
  8
0
 10
146.865662
 20
134.949753
 40
1.750000
  0
CIRCLE
  8
0
 10
146.865662
 20
134.949753
 40
4.000000
  0
ARC
  8
0
 10
145.977386
 20
130.770721
 40
0.300006
 50
227.999573
 51
287.999023
  0
ARC
  8
0
 10
150.040665
 20
132.090958
 40
0.299990
 50
287.999023
 51
348.001923
  0
ARC
  8
0
 10
150.928955
 20
136.269989
 40
0.299998
 50
347.999084
 51
48.001740
  0
ARC
  8
0
 10
147.753937
 20
139.128784
 40
0.300006
 50
47.999573
 51
108.001808
  0
ARC
  8
0
 10
143.690643
 20
137.808548
 40
0.299990
 50
107.999031
 51
168.001923
  0
ARC
  8
0
 10
142.802368
 20
133.629517
 40
0.299995
 50
168.001923
 51
228.001740
  0
ARC
  8
0
 10
163.836227
 20
130.000000
 40
8.000001
 50
285.358856
 51
74.641144
  0
ARC
  8
0
 10
190.000000
 20
130.000000
 40
29.000004
 50
108.662918
 51
142.181396
  0
ARC
  8
0
 10
190.000000
 20
130.000000
 40
28.999996
 50
234.928177
 51
251.337112
  0
ARC
  8
0
 10
182.000000
 20
106.314560
 40
4.000002
 50
251.337097
 51
0.000000
  0
ARC
  8
0
 10
182.000000
 20
153.685440
 40
4.000000
 50
0.000000
 51
108.662895
  0
ARC
  8
0
 10
164.721405
 20
149.621231
 40
2.999998
 50
293.385895
 51
322.181427
  0
CIRCLE
  8
0
 10
156.411606
 20
115.504318
 40
4.700000
  0
CIRCLE
  8
0
 10
156.411591
 20
144.495697
 40
4.700000
  0
CIRCLE
  8
0
 10
163.836227
 20
119.500000
 40
2.600000
  0
CIRCLE
  8
0
 10
163.836227
 20
119.500000
 40
3.500000
  0
CIRCLE
  8
0
 10
163.836212
 20
140.500000
 40
2.600000
  0
CIRCLE
  8
0
 10
163.836212
 20
140.500000
 40
3.500000
  0
ARC
  8
0
 10
155.758560
 20
106.295265
 40
3.000000
 50
256.108948
 51
315.000092
  0
ARC
  8
0
 10
155.803024
 20
106.339729
 40
2.999998
 50
315.000092
 51
13.891067
  0
ARC
  8
0
 10
165.576172
 20
116.112885
 40
3.000000
 50
256.108948
 51
278.620087
  0
ARC
  8
0
 10
165.620636
 20
116.157349
 40
3.000006
 50
308.784821
 51
13.891067
  0
ARC
  8
0
 10
165.620636
 20
143.842651
 40
3.000000
 50
346.108948
 51
45.000000
  0
ARC
  8
0
 10
165.576172
 20
143.887115
 40
3.000003
 50
45.000000
 51
103.890785
  0
ARC
  8
0
 10
155.803024
 20
153.660278
 40
3.000000
 50
346.108948
 51
45.000000
  0
ARC
  8
0
 10
155.758560
 20
153.704742
 40
3.000003
 50
45.000000
 51
103.891068
  0
ARC
  8
0
 10
190.000000
 20
130.000000
 40
12.499994
 50
335.703857
 51
76.129608
  0
ARC
  8
0
 10
190.000000
 20
130.000000
 40
25.000002
 50
72.534111
 51
99.485817
  0
ARC
  8
0
 10
190.000000
 20
130.000000
 40
29.000000
 50
90.000000
 51
108.662956
  0
ARC
  8
0
 10
201.249985
 20
110.514420
 40
2.999997
 50
163.368698
 51
316.631226
  0
CIRCLE
  8
0
 10
212.500000
 20
129.999985
 40
3.000000
  0
CIRCLE
  8
0
 10
201.250031
 20
149.485565
 40
3.000000
  0
ARC
  8
0
 10
201.249985
 20
110.514420
 40
2.499998
 50
166.108627
 51
313.891266
  0
CIRCLE
  8
0
 10
212.500000
 20
129.999985
 40
2.500000
  0
CIRCLE
  8
0
 10
201.250031
 20
149.485565
 40
2.500000
  0
ARC
  8
0
 10
201.249985
 20
110.514420
 40
5.750004
 50
195.000015
 51
323.071198
  0
ARC
  8
0
 10
212.500000
 20
129.999985
 40
5.750010
 50
255.000076
 51
104.999985
  0
ARC
  8
0
 10
201.250031
 20
149.485565
 40
5.750001
 50
314.999878
 51
165.000046
  0
ARC
  8
0
 10
190.000000
 20
164.000000
 40
5.000007
 50
15.000010
 51
164.999939
  0
ARC
  8
0
 10
190.000000
 20
96.000000
 40
5.000007
 50
195.000015
 51
345.000000
  0
ARC
  8
0
 10
219.444870
 20
113.000000
 40
4.999998
 50
277.092468
 51
45.000122
  0
ARC
  8
0
 10
219.444870
 20
147.000000
 40
5.000005
 50
315.000000
 51
105.000053
  0
ARC
  8
0
 10
205.485077
 20
122.820953
 40
2.999997
 50
74.999954
 51
149.999924
  0
ARC
  8
0
 10
205.485107
 20
137.179016
 40
3.000014
 50
210.000183
 51
285.000000
  0
ARC
  8
0
 10
203.959778
 20
139.820953
 40
2.999992
 50
135.000214
 51
210.000076
  0
ARC
  8
0
 10
191.525360
 20
147.000000
 40
3.000000
 50
270.000000
 51
344.999908
  0
ARC
  8
0
 10
188.474701
 20
147.000000
 40
2.999998
 50
214.421555
 51
231.687592
  0
ARC
  8
0
 10
190.000000
 20
130.000000
 40
25.000000
 50
260.793091
 51
287.465729
  0
ARC
  8
0
 10
190.000000
 20
130.000000
 40
25.000004
 50
320.466156
 51
347.465729
  0
ARC
  8
0
 10
190.000000
 20
130.000000
 40
25.000000
 50
12.534114
 51
47.465740
  0
ARC
  8
0
 10
180.644592
 20
163.858475
 40
4.000009
 50
299.999939
 51
345.000000
  0
ARC
  8
0
 10
180.644592
 20
96.141525
 40
4.000006
 50
15.000010
 51
60.000015
  0
ARC
  8
0
 10
199.355408
 20
96.141533
 40
4.000002
 50
119.999985
 51
165.000092
  0
ARC
  8
0
 10
224.000000
 20
121.172791
 40
4.000000
 50
180.000000
 51
225.000000
  0
ARC
  8
0
 10
224.000000
 20
138.827209
 40
4.000004
 50
135.000000
 51
180.000000
  0
ARC
  8
0
 10
214.644592
 20
155.031250
 40
3.999995
 50
239.999954
 51
285.000000
  0
ARC
  8
0
 10
199.355408
 20
163.858475
 40
3.999991
 50
195.000061
 51
240.000076
  0
ARC
  8
0
 10
167.033325
 20
156.000000
 40
4.000000
 50
288.301544
 51
300.000031
  0
ARC
  8
0
 10
190.000000
 20
130.000000
 40
39.500004
 50
217.729614
 51
142.270370
  0
ARC
  8
0
 10
190.000000
 20
130.000000
 40
5.449996
 50
169.341751
 51
190.658249
  0
ARC
  8
0
 10
190.000000
 20
130.000000
 40
5.449996
 50
259.341736
 51
280.658417
  0
ARC
  8
0
 10
190.000000
 20
130.000000
 40
5.449999
 50
349.341583
 51
10.658255
  0
ARC
  8
0
 10
190.000000
 20
130.000000
 40
5.449996
 50
79.341743
 51
100.658257
  0
CIRCLE
  8
0
 10
190.000000
 20
164.000000
 40
2.100000
  0
CIRCLE
  8
0
 10
190.000000
 20
96.000000
 40
2.100000
  0
CIRCLE
  8
0
 10
219.444870
 20
113.000000
 40
2.100000
  0
CIRCLE
  8
0
 10
219.444870
 20
147.000000
 40
2.100000
  0
ARC
  8
0
 10
190.000000
 20
130.000000
 40
29.000002
 50
251.337051
 51
305.071747
  0
ARC
  8
0
 10
157.059311
 20
114.856598
 40
6.999995
 50
289.169312
 51
340.830688
  0
ARC
  8
0
 10
178.800003
 20
149.500000
 40
6.100005
 50
122.348846
 51
117.651154
  0
ARC
  8
0
 10
178.800003
 20
110.500000
 40
6.100010
 50
217.333496
 51
23.825006
  0
ARC
  8
0
 10
178.800003
 20
110.500000
 40
5.000001
 50
217.540787
 51
22.459188
  0
CIRCLE
  8
0
 10
178.800003
 20
149.500000
 40
5.000000
  0
CIRCLE
  8
0
 10
178.800003
 20
149.500000
 40
4.400000
  0
ARC
  8
0
 10
178.800003
 20
110.500000
 40
4.400010
 50
218.576279
 51
21.423655
  0
ARC
  8
0
 10
190.000000
 20
130.000000
 40
38.000004
 50
216.227859
 51
231.206314
  0
ARC
  8
0
 10
166.818817
 20
101.161957
 40
1.000002
 50
231.205841
 51
315.000000
  0
ARC
  8
0
 10
180.239777
 20
99.026581
 40
9.999994
 50
120.000015
 51
134.999969
  0
ARC
  8
0
 10
168.716949
 20
118.668427
 40
4.999994
 50
250.000198
 51
310.000092
  0
ARC
  8
0
 10
162.616638
 20
126.603729
 40
14.999997
 50
310.000031
 51
21.582392
  0
ARC
  8
0
 10
199.760193
 20
99.026573
 40
10.000000
 50
45.000061
 51
60.000004
  0
ARC
  8
0
 10
213.181168
 20
101.161942
 40
1.000001
 50
225.000000
 51
308.793488
  0
ARC
  8
0
 10
190.000000
 20
130.000000
 40
37.999996
 50
308.793732
 51
323.772186
  0
ARC
  8
0
 10
211.283035
 20
118.668419
 40
5.000004
 50
229.999954
 51
289.999969
  0
ARC
  8
0
 10
190.000000
 20
104.661644
 40
10.000001
 50
60.000004
 51
120.000069
  0
ARC
  8
0
 10
216.129410
 20
127.655899
 40
14.999997
 50
171.009338
 51
230.000046
  0
ARC
  8
0
 10
183.636032
 20
130.000000
 40
0.499990
 50
135.000000
 51
225.000000
  0
ARC
  8
0
 10
190.000000
 20
123.636040
 40
0.499995
 50
225.000626
 51
314.999390
  0
ARC
  8
0
 10
196.363968
 20
130.000000
 40
0.499990
 50
315.000000
 51
45.000000
  0
ARC
  8
0
 10
190.000000
 20
136.363968
 40
0.499990
 50
45.000000
 51
135.000000
  0
ARC
  8
0
 10
182.928925
 20
130.000000
 40
0.499990
 50
135.000000
 51
225.000000
  0
ARC
  8
0
 10
190.000000
 20
122.928932
 40
0.499995
 50
225.000626
 51
314.999390
  0
ARC
  8
0
 10
197.071075
 20
130.000000
 40
0.499990
 50
315.000000
 51
45.000000
  0
ARC
  8
0
 10
190.000000
 20
137.071075
 40
0.499990
 50
45.000000
 51
135.000000
  0
ARC
  8
0
 10
190.000000
 20
130.000000
 40
5.999995
 50
168.557327
 51
192.312836
  0
ARC
  8
0
 10
190.000000
 20
130.000000
 40
5.999995
 50
78.557327
 51
101.442673
  0
ARC
  8
0
 10
190.000000
 20
130.000000
 40
5.999995
 50
348.557343
 51
11.442669
  0
ARC
  8
0
 10
190.000000
 20
130.000000
 40
5.999998
 50
258.557190
 51
281.442657
  0
ARC
  8
0
 10
190.000000
 20
130.000000
 40
28.999994
 50
324.945374
 51
89.999969
  0
POINT
  8
0
 10
-240.000000
 20
-155.000000
  0
POINT
  8
0
 10
-215.500000
 20
-155.000000
  0
LINE
  8
0
 10
-215.500000
 20
-125.287285
 11
-215.500000
 21
-168.435028
  0
LINE
  8
0
 10
-223.500000
 20
-125.287292
 11
-223.500000
 21
-149.888840
  0
LINE
  8
0
 10
-222.500015
 20
-124.287292
 11
-216.500015
 21
-124.287292
  0
LINE
  8
0
 10
-222.500015
 20
-132.623016
 11
-216.500015
 21
-132.623016
  0
LINE
  8
0
 10
-233.500000
 20
-155.000000
 11
-215.500000
 21
-155.000000
  0
LINE
  8
0
 10
-233.500000
 20
-168.435028
 11
-215.500000
 21
-168.435028
  0
LINE
  8
0
 10
-223.500000
 20
-139.050888
 11
-215.500015
 21
-139.050888
  0
LINE
  8
0
 10
-228.000000
 20
-143.094879
 11
-226.500000
 21
-143.094879
  0
LINE
  8
0
 10
-233.500000
 20
-152.762985
 11
-226.500000
 21
-152.762985
  0
LINE
  8
0
 10
-223.500000
 20
-144.040009
 11
-215.500000
 21
-144.040009
  0
LINE
  8
0
 10
-240.000000
 20
-116.794998
 11
-235.500000
 21
-116.794998
  0
LINE
  8
0
 10
-235.500000
 20
-100.994995
 11
-235.500000
 21
-150.999680
  0
LINE
  8
0
 10
-234.000000
 20
-137.999680
 11
-223.500000
 21
-137.999680
  0
LINE
  8
0
 10
-235.500000
 20
-100.999680
 11
-203.500000
 21
-100.999680
  0
LINE
  8
0
 10
-235.500000
 20
-116.815414
 11
-203.500000
 21
-116.815414
  0
LINE
  8
0
 10
-203.500000
 20
-101.005005
 11
-203.500000
 21
-137.999680
  0
LINE
  8
0
 10
-203.500000
 20
-107.787506
 11
-200.350006
 21
-107.787506
  0
LINE
  8
0
 10
-203.500000
 20
-107.948700
 11
-200.350006
 21
-107.948700
  0
LINE
  8
0
 10
-203.500000
 20
-115.943817
 11
-200.350006
 21
-115.943817
  0
LINE
  8
0
 10
-203.500000
 20
-112.026855
 11
-200.350006
 21
-112.026855
  0
LINE
  8
0
 10
-200.000000
 20
-107.868103
 11
-200.000000
 21
-113.985336
  0
LINE
  8
0
 10
-195.000000
 20
-110.165665
 11
-195.000000
 21
-113.565659
  0
LINE
  8
0
 10
-200.000000
 20
-109.865662
 11
-195.300003
 21
-109.865662
  0
LINE
  8
0
 10
-200.000000
 20
-113.865662
 11
-195.300003
 21
-113.865662
  0
LINE
  8
0
 10
-195.300003
 20
-109.865669
 11
-195.000000
 21
-110.165665
  0
LINE
  8
0
 10
-195.000000
 20
-113.565659
 11
-195.300003
 21
-113.865662
  0
LINE
  8
0
 10
-195.299988
 20
-109.865662
 11
-195.299988
 21
-113.865662
  0
LINE
  8
0
 10
-200.000000
 20
-110.115662
 11
-195.049988
 21
-110.115662
  0
LINE
  8
0
 10
-200.000000
 20
-113.615662
 11
-195.050003
 21
-113.615662
  0
LINE
  8
0
 10
-207.726715
 20
-121.097504
 11
-207.726715
 21
-121.595444
  0
LINE
  8
0
 10
-214.726715
 20
-121.097504
 11
-214.726715
 21
-121.595444
  0
LINE
  8
0
 10
-224.273285
 20
-130.916611
 11
-224.273285
 21
-131.411591
  0
LINE
  8
0
 10
-231.273285
 20
-130.915131
 11
-231.273285
 21
-131.413071
  0
LINE
  8
0
 10
-225.173279
 20
-131.411591
 11
-225.173279
 21
-131.694427
  0
LINE
  8
0
 10
-230.373291
 20
-131.410492
 11
-230.373291
 21
-131.695068
  0
LINE
  8
0
 10
-213.826721
 20
-121.592865
 11
-213.826721
 21
-121.877899
  0
LINE
  8
0
 10
-208.626724
 20
-121.592857
 11
-208.626724
 21
-121.877899
  0
LINE
  8
0
 10
-189.500000
 20
-122.636230
 11
-189.500000
 21
-135.036224
  0
LINE
  8
0
 10
-201.004135
 20
-121.636230
 11
-190.500000
 21
-121.636230
  0
LINE
  8
0
 10
-203.500000
 20
-136.036224
 11
-190.500000
 21
-136.036224
  0
LINE
  8
0
 10
-203.211548
 20
-126.111603
 11
-203.500000
 21
-126.111603
  0
LINE
  8
0
 10
-203.211548
 20
-116.711609
 11
-203.500000
 21
-116.711609
  0
LINE
  8
0
 10
-203.211548
 20
-116.711609
 11
-203.211548
 21
-126.111603
  0
LINE
  8
0
 10
-202.800003
 20
-132.336227
 11
-202.800003
 21
-125.738266
  0
LINE
  8
0
 10
-202.399994
 20
-131.436218
 11
-202.399994
 21
-126.236221
  0
LINE
  8
0
 10
-200.949997
 20
-128.867661
 11
-200.949997
 21
-128.804779
  0
LINE
  8
0
 10
-202.399994
 20
-126.236221
 11
-202.800003
 21
-126.236221
  0
LINE
  8
0
 10
-202.399994
 20
-131.436218
 11
-202.800003
 21
-131.436218
  0
LINE
  8
0
 10
-202.800003
 20
-132.336227
 11
-203.500000
 21
-132.336227
  0
LINE
  8
0
 10
-240.000000
 20
-100.999680
 11
-235.500000
 21
-100.999680
  0
LINE
  8
0
 10
-240.000000
 20
-150.999680
 11
-235.500000
 21
-150.999680
  0
LINE
  8
0
 10
-228.000000
 20
-148.608475
 11
-228.000000
 21
-138.981522
  0
LINE
  8
0
 10
-228.399994
 20
-148.794998
 11
-228.399994
 21
-138.794998
  0
LINE
  8
0
 10
-228.399994
 20
-148.794998
 11
-234.000000
 21
-148.794998
  0
LINE
  8
0
 10
-228.399994
 20
-138.794998
 11
-234.000000
 21
-138.794998
  0
LINE
  8
0
 10
-228.000000
 20
-148.608475
 11
-228.400009
 21
-148.794998
  0
LINE
  8
0
 10
-227.999985
 20
-138.981491
 11
-228.399979
 21
-138.794968
  0
LINE
  8
0
 10
-228.399994
 20
-146.794998
 11
-231.445297
 21
-146.794998
  0
LINE
  8
0
 10
-228.399994
 20
-144.794998
 11
-230.290588
 21
-144.794998
  0
LINE
  8
0
 10
-228.399994
 20
-142.794998
 11
-229.135895
 21
-142.794998
  0
LINE
  8
0
 10
-245.550003
 20
-106.689575
 11
-245.550003
 21
-114.909790
  0
LINE
  8
0
 10
-245.250000
 20
-106.549683
 11
-245.250000
 21
-115.049683
  0
LINE
  8
0
 10
-245.250000
 20
-106.549683
 11
-240.550003
 21
-106.549683
  0
LINE
  8
0
 10
-245.250000
 20
-115.049683
 11
-240.550003
 21
-115.049683
  0
LINE
  8
0
 10
-245.550003
 20
-106.689560
 11
-245.250015
 21
-106.549667
  0
LINE
  8
0
 10
-245.549988
 20
-114.909775
 11
-245.249985
 21
-115.049667
  0
LINE
  8
0
 10
-245.250000
 20
-108.549683
 11
-242.879700
 21
-108.549683
  0
LINE
  8
0
 10
-245.250000
 20
-110.549683
 11
-244.034393
 21
-110.549683
  0
LINE
  8
0
 10
-245.250000
 20
-112.549683
 11
-245.189102
 21
-112.549683
  0
LINE
  8
0
 10
-240.000000
 20
-100.999680
 11
-240.000000
 21
-181.750000
  0
LINE
  8
0
 10
-237.500000
 20
-150.999680
 11
-237.500000
 21
-167.199997
  0
LINE
  8
0
 10
-239.600006
 20
-167.500000
 11
-237.800003
 21
-167.500000
  0
LINE
  8
0
 10
-237.500000
 20
-161.000000
 11
-234.050003
 21
-161.000000
  0
LINE
  8
0
 10
-237.799988
 20
-167.500015
 11
-237.499985
 21
-167.200012
  0
LINE
  8
0
 10
-234.000000
 20
-149.895004
 11
-234.000000
 21
-160.949997
  0
LINE
  8
0
 10
-234.000000
 20
-160.949997
 11
-233.500000
 21
-160.949997
  0
LINE
  8
0
 10
-234.000000
 20
-149.050003
 11
-233.500000
 21
-149.050003
  0
LINE
  8
0
 10
-233.999985
 20
-149.049988
 11
-234.049973
 21
-148.999985
  0
LINE
  8
0
 10
-234.050018
 20
-161.000015
 11
-234.000031
 21
-160.950012
  0
LINE
  8
0
 10
-240.550003
 20
-106.299683
 11
-240.550003
 21
-115.299683
  0
LINE
  8
0
 10
-240.550003
 20
-106.299683
 11
-240.000000
 21
-106.299683
  0
LINE
  8
0
 10
-240.550003
 20
-115.299683
 11
-240.000000
 21
-115.299683
  0
LINE
  8
0
 10
-234.000000
 20
-137.694992
 11
-234.000000
 21
-149.895004
  0
LINE
  8
0
 10
-234.000000
 20
-137.694992
 11
-235.500000
 21
-137.694992
  0
LINE
  8
0
 10
-234.000000
 20
-149.895004
 11
-235.500000
 21
-149.895004
  0
LINE
  8
0
 10
-235.500000
 20
-144.661026
 11
-234.000000
 21
-143.794998
  0
LINE
  8
0
 10
-235.500000
 20
-144.083664
 11
-234.000000
 21
-143.217651
  0
LINE
  8
0
 10
-233.500000
 20
-168.435028
 11
-233.500000
 21
-148.794998
  0
LINE
  8
0
 10
-215.500000
 20
-137.999680
 11
-203.500000
 21
-137.999680
  0
ARC
  8
0
 10
-216.500015
 20
-125.287285
 40
1.000000
 50
0.000000
 51
90.000000
  0
ARC
  8
0
 10
-222.500015
 20
-125.287292
 40
1.000000
 50
90.000000
 51
180.000000
  0
ARC
  8
0
 10
-216.500015
 20
-133.623016
 40
1.000000
 50
0.000000
 51
90.000000
  0
ARC
  8
0
 10
-222.500015
 20
-133.623016
 40
1.000000
 50
90.000000
 51
180.000000
  0
ARC
  8
0
 10
-205.654510
 20
-113.985336
 40
5.654504
 50
339.735291
 51
20.264696
  0
ARC
  8
0
 10
-206.114807
 20
-109.987778
 40
6.114799
 50
340.520721
 51
19.479351
  0
CIRCLE
  8
0
 10
-211.226715
 20
-122.607147
 40
0.010000
  0
CIRCLE
  8
0
 10
-227.773285
 20
-132.424774
 40
0.010000
  0
ARC
  8
0
 10
-190.500000
 20
-135.036224
 40
1.000000
 50
270.000000
 51
0.000000
  0
ARC
  8
0
 10
-190.500000
 20
-122.636230
 40
1.000000
 50
0.000000
 51
90.000000
  0
ARC
  8
0
 10
-207.100006
 20
-121.411606
 40
6.100007
 50
309.602051
 51
50.397953
  0
ARC
  8
0
 10
-203.949997
 20
-128.867661
 40
3.000000
 50
301.109009
 51
0.000000
  0
ARC
  8
0
 10
-203.949997
 20
-128.804779
 40
3.000000
 50
0.000000
 51
58.891006
  0
ARC
  8
0
 10
-239.600006
 20
-167.899994
 40
0.399994
 50
89.997818
 51
180.000000
  0
CIRCLE
  8
0
 10
-219.500000
 20
-127.009056
 40
0.010000
  0
ARC
  8
0
 10
-227.740509
 20
-166.667267
 40
1.259494
 50
165.893219
 51
194.106110
  0
ARC
  8
0
 10
-227.411240
 20
-166.546555
 40
1.608672
 50
195.417755
 51
231.388229
  0
ARC
  8
0
 10
-226.500000
 20
-165.215240
 40
3.219791
 50
233.501984
 51
306.497833
  0
ARC
  8
0
 10
-225.588760
 20
-166.546555
 40
1.608684
 50
308.611420
 51
344.581726
  0
ARC
  8
0
 10
-225.259491
 20
-166.667267
 40
1.259494
 50
345.893219
 51
14.106111
  0
ARC
  8
0
 10
-225.588760
 20
-166.787979
 40
1.608672
 50
15.417753
 51
51.388233
  0
ARC
  8
0
 10
-226.500000
 20
-168.119293
 40
3.219791
 50
53.501991
 51
126.497849
  0
ARC
  8
0
 10
-227.411240
 20
-166.787979
 40
1.608684
 50
128.611435
 51
164.581726
  0
ARC
  8
0
 10
-227.492401
 20
-166.667267
 40
1.007603
 50
165.893677
 51
194.106323
  0
ARC
  8
0
 10
-227.228989
 20
-166.570694
 40
1.286946
 50
195.418076
 51
231.388565
  0
ARC
  8
0
 10
-226.500000
 20
-165.505646
 40
2.575839
 50
233.502167
 51
306.497833
  0
ARC
  8
0
 10
-225.771011
 20
-166.570709
 40
1.286935
 50
308.611847
 51
344.582581
  0
ARC
  8
0
 10
-225.507599
 20
-166.667267
 40
1.007603
 50
345.893677
 51
14.106320
  0
ARC
  8
0
 10
-225.771011
 20
-166.763840
 40
1.286946
 50
15.418074
 51
51.388569
  0
ARC
  8
0
 10
-226.500000
 20
-167.828888
 40
2.575839
 50
53.502167
 51
126.497833
  0
ARC
  8
0
 10
-227.228989
 20
-166.763824
 40
1.286935
 50
128.611847
 51
164.582581
  0
ARC
  8
0
 10
-226.500000
 20
-137.427643
 40
5.667240
 50
269.933502
 51
293.923126
  0
ARC
  8
0
 10
-224.764435
 20
-141.374084
 40
1.356121
 50
294.508667
 51
333.999176
  0
ARC
  8
0
 10
-224.137329
 20
-141.731903
 40
0.637327
 50
338.200378
 51
0.000000
  0
ARC
  8
0
 10
-226.499268
 20
-149.681503
 40
3.081497
 50
269.986389
 51
318.019287
  0
ARC
  8
0
 10
-226.328003
 20
-149.867172
 40
2.830074
 50
318.494354
 51
349.270111
  0
ARC
  8
0
 10
-226.265930
 20
-149.884186
 40
2.765925
 50
349.376984
 51
0.017701
  0
ARC
  8
0
 10
-200.350006
 20
-106.684250
 40
1.264351
 50
270.000000
 51
282.242828
  0
ARC
  8
0
 10
-200.108353
 20
-107.769691
 40
0.152467
 50
279.993530
 51
312.511688
  0
ARC
  8
0
 10
-200.021042
 20
-107.868103
 40
0.021033
 50
318.352661
 51
41.647346
  0
ARC
  8
0
 10
-200.108353
 20
-107.966515
 40
0.152466
 50
47.488319
 51
80.006470
  0
ARC
  8
0
 10
-200.350006
 20
-109.051956
 40
1.264350
 50
77.757172
 51
90.000000
  0
ARC
  8
0
 10
-230.907135
 20
-112.219208
 40
0.907137
 50
345.895966
 51
14.104030
  0
ARC
  8
0
 10
-231.144119
 20
-112.306076
 40
1.158449
 50
15.414836
 51
51.383331
  0
ARC
  8
0
 10
-231.800003
 20
-113.264160
 40
2.317949
 50
53.496716
 51
126.503288
  0
ARC
  8
0
 10
-232.455887
 20
-112.306076
 40
1.158442
 50
128.616669
 51
164.585159
  0
ARC
  8
0
 10
-232.692871
 20
-112.219208
 40
0.907137
 50
165.895966
 51
194.104034
  0
ARC
  8
0
 10
-232.455887
 20
-112.132339
 40
1.158449
 50
195.414841
 51
231.383331
  0
ARC
  8
0
 10
-231.800003
 20
-111.174255
 40
2.317949
 50
233.496719
 51
306.503296
  0
ARC
  8
0
 10
-231.144119
 20
-112.132339
 40
1.158442
 50
308.616669
 51
344.585175
  0
ARC
  8
0
 10
-219.500000
 20
-131.206329
 40
11.527034
 50
65.413040
 51
126.497246
  0
ARC
  8
0
 10
-222.762360
 20
-126.439949
 40
5.758924
 50
128.610947
 51
164.581787
  0
ARC
  8
0
 10
-223.941147
 20
-126.007797
 40
4.508849
 50
165.893356
 51
194.106644
  0
ARC
  8
0
 10
-222.762360
 20
-125.575645
 40
5.758924
 50
195.418213
 51
209.824524
  0
ARC
  8
0
 10
-226.036758
 20
-130.916611
 40
1.763474
 50
0.000000
 51
14.105742
  0
ARC
  8
0
 10
-226.497681
 20
-131.085571
 40
2.252261
 50
15.416832
 51
51.386627
  0
ARC
  8
0
 10
-227.773285
 20
-132.949158
 40
4.507541
 50
53.500561
 51
126.499435
  0
ARC
  8
0
 10
-229.048889
 20
-131.085571
 40
2.252257
 50
128.613373
 51
164.583160
  0
ARC
  8
0
 10
-229.509811
 20
-130.916611
 40
1.763469
 50
165.894257
 51
180.053543
  0
ARC
  8
0
 10
-209.490189
 20
-121.098984
 40
1.763474
 50
0.000000
 51
14.105742
  0
ARC
  8
0
 10
-209.951111
 20
-121.267952
 40
2.252263
 50
15.417020
 51
51.386749
  0
ARC
  8
0
 10
-211.226715
 20
-123.131523
 40
4.507535
 50
53.500504
 51
126.499496
  0
ARC
  8
0
 10
-212.502319
 20
-121.267952
 40
2.252263
 50
128.613251
 51
164.582977
  0
ARC
  8
0
 10
-212.963242
 20
-121.098984
 40
1.763469
 50
165.894257
 51
180.054031
  0
ARC
  8
0
 10
-209.490189
 20
-121.593964
 40
1.763469
 50
345.894257
 51
14.105742
  0
ARC
  8
0
 10
-209.951111
 20
-121.762932
 40
2.252263
 50
15.417020
 51
51.386749
  0
ARC
  8
0
 10
-211.226715
 20
-123.626503
 40
4.507535
 50
53.500504
 51
126.499496
  0
ARC
  8
0
 10
-212.502319
 20
-121.762932
 40
2.252263
 50
128.613251
 51
164.582977
  0
ARC
  8
0
 10
-212.963242
 20
-121.593964
 40
1.763469
 50
165.894257
 51
194.105743
  0
ARC
  8
0
 10
-212.502319
 20
-121.424995
 40
2.252263
 50
195.417023
 51
231.386749
  0
ARC
  8
0
 10
-211.226715
 20
-119.561424
 40
4.507535
 50
233.500504
 51
306.499512
  0
ARC
  8
0
 10
-209.951111
 20
-121.424995
 40
2.252263
 50
308.613251
 51
344.582977
  0
ARC
  8
0
 10
-226.036758
 20
-131.411591
 40
1.763469
 50
345.894257
 51
14.105742
  0
ARC
  8
0
 10
-226.497681
 20
-131.580551
 40
2.252261
 50
15.416832
 51
51.386627
  0
ARC
  8
0
 10
-227.773285
 20
-133.444138
 40
4.507541
 50
53.500561
 51
126.499435
  0
ARC
  8
0
 10
-229.048889
 20
-131.580551
 40
2.252257
 50
128.613373
 51
164.583160
  0
ARC
  8
0
 10
-229.509811
 20
-131.411591
 40
1.763469
 50
165.894257
 51
194.105743
  0
ARC
  8
0
 10
-229.048889
 20
-131.242630
 40
2.252261
 50
195.416840
 51
231.386627
  0
ARC
  8
0
 10
-227.773285
 20
-129.379044
 40
4.507541
 50
233.500565
 51
306.499451
  0
ARC
  8
0
 10
-226.497681
 20
-131.242630
 40
2.252257
 50
308.613373
 51
344.583160
  0
ARC
  8
0
 10
-226.483200
 20
-131.411591
 40
1.309921
 50
0.000000
 51
14.106497
  0
ARC
  8
0
 10
-226.825623
 20
-131.537125
 40
1.673048
 50
15.417957
 51
51.387932
  0
ARC
  8
0
 10
-227.773285
 20
-132.921646
 40
3.348554
 50
53.501736
 51
126.498260
  0
ARC
  8
0
 10
-228.720947
 20
-131.537125
 40
1.673042
 50
128.612061
 51
164.582047
  0
ARC
  8
0
 10
-229.063370
 20
-131.411591
 40
1.309918
 50
165.893509
 51
180.053391
  0
ARC
  8
0
 10
-226.483414
 20
-131.694427
 40
1.310129
 50
345.895142
 51
14.104867
  0
ARC
  8
0
 10
-226.825775
 20
-131.819931
 40
1.673191
 50
15.416065
 51
51.385483
  0
ARC
  8
0
 10
-227.773285
 20
-133.204102
 40
3.348333
 50
53.498940
 51
126.501060
  0
ARC
  8
0
 10
-228.720795
 20
-131.819931
 40
1.673197
 50
128.614517
 51
164.583939
  0
ARC
  8
0
 10
-229.063156
 20
-131.694427
 40
1.310129
 50
165.895126
 51
194.104874
  0
ARC
  8
0
 10
-228.720795
 20
-131.568924
 40
1.673191
 50
195.416061
 51
231.385483
  0
ARC
  8
0
 10
-227.773285
 20
-130.184753
 40
3.348333
 50
233.498947
 51
306.501068
  0
ARC
  8
0
 10
-226.825775
 20
-131.568924
 40
1.673197
 50
308.614532
 51
344.583923
  0
ARC
  8
0
 10
-219.500000
 20
-120.809265
 40
11.527040
 50
245.697067
 51
249.776520
  0
ARC
  8
0
 10
-209.936630
 20
-121.876801
 40
1.309916
 50
345.893829
 51
14.106173
  0
ARC
  8
0
 10
-210.279053
 20
-122.002327
 40
1.673044
 50
15.417454
 51
51.387772
  0
ARC
  8
0
 10
-211.226715
 20
-123.386856
 40
3.348554
 50
53.501736
 51
126.498260
  0
ARC
  8
0
 10
-212.174377
 20
-122.002327
 40
1.673036
 50
128.612228
 51
164.582550
  0
ARC
  8
0
 10
-212.516800
 20
-121.876801
 40
1.309916
 50
165.893829
 51
194.106171
  0
ARC
  8
0
 10
-212.174377
 20
-121.751274
 40
1.673044
 50
195.417450
 51
231.387772
  0
ARC
  8
0
 10
-211.226715
 20
-120.366745
 40
3.348554
 50
233.501740
 51
306.498260
  0
ARC
  8
0
 10
-210.279053
 20
-121.751274
 40
1.673036
 50
308.612244
 51
344.582550
  0
ARC
  8
0
 10
-209.936630
 20
-121.593964
 40
1.309922
 50
0.054061
 51
14.106173
  0
ARC
  8
0
 10
-210.279053
 20
-121.719490
 40
1.673044
 50
15.417454
 51
51.387772
  0
ARC
  8
0
 10
-211.226715
 20
-123.104019
 40
3.348554
 50
53.501736
 51
126.498260
  0
ARC
  8
0
 10
-212.174377
 20
-121.719490
 40
1.673036
 50
128.612228
 51
164.582550
  0
ARC
  8
0
 10
-212.516800
 20
-121.593964
 40
1.309916
 50
165.893829
 51
180.053391
  0
ARC
  8
0
 10
-210.036575
 20
-122.027863
 40
1.208360
 50
345.893402
 51
14.106610
  0
ARC
  8
0
 10
-210.352478
 20
-122.143669
 40
1.543366
 50
15.417953
 51
51.388229
  0
ARC
  8
0
 10
-211.226715
 20
-123.420929
 40
3.089063
 50
53.502048
 51
126.497948
  0
ARC
  8
0
 10
-212.100952
 20
-122.143669
 40
1.543361
 50
128.611771
 51
164.582047
  0
ARC
  8
0
 10
-212.416855
 20
-122.027863
 40
1.208360
 50
165.893387
 51
194.106613
  0
ARC
  8
0
 10
-212.100952
 20
-121.912056
 40
1.543366
 50
195.417953
 51
231.388229
  0
ARC
  8
0
 10
-211.226715
 20
-120.634796
 40
3.089063
 50
233.502045
 51
306.497955
  0
ARC
  8
0
 10
-210.352478
 20
-121.912056
 40
1.543361
 50
308.611755
 51
344.582062
  0
ARC
  8
0
 10
-210.272156
 20
-122.291168
 40
0.968439
 50
345.890839
 51
14.109154
  0
ARC
  8
0
 10
-210.525528
 20
-122.384071
 40
1.237139
 50
15.421597
 51
51.394711
  0
ARC
  8
0
 10
-211.226715
 20
-123.408707
 40
2.477041
 50
53.508675
 51
126.491325
  0
ARC
  8
0
 10
-211.927902
 20
-122.384071
 40
1.237134
 50
128.605286
 51
164.578400
  0
ARC
  8
0
 10
-212.181274
 20
-122.291168
 40
0.968439
 50
165.890839
 51
194.109161
  0
ARC
  8
0
 10
-211.927902
 20
-122.198265
 40
1.237139
 50
195.421600
 51
231.394714
  0
ARC
  8
0
 10
-211.226715
 20
-121.173630
 40
2.477041
 50
233.508682
 51
306.491333
  0
ARC
  8
0
 10
-210.525528
 20
-122.198265
 40
1.237134
 50
308.605286
 51
344.578400
  0
ARC
  8
0
 10
-210.540665
 20
-122.481964
 40
0.695953
 50
345.890625
 51
14.109365
  0
ARC
  8
0
 10
-210.722763
 20
-122.548737
 40
0.889068
 50
15.422047
 51
51.395786
  0
ARC
  8
0
 10
-211.226715
 20
-123.285172
 40
1.780212
 50
53.509628
 51
126.490372
  0
ARC
  8
0
 10
-211.730667
 20
-122.548737
 40
0.889061
 50
128.604218
 51
164.577957
  0
ARC
  8
0
 10
-211.912766
 20
-122.481964
 40
0.695953
 50
165.890640
 51
194.109360
  0
ARC
  8
0
 10
-211.730667
 20
-122.415192
 40
0.889068
 50
195.422043
 51
231.395782
  0
ARC
  8
0
 10
-211.226715
 20
-121.678757
 40
1.780212
 50
233.509628
 51
306.490387
  0
ARC
  8
0
 10
-210.722763
 20
-122.415192
 40
0.889061
 50
308.604218
 51
344.577942
  0
ARC
  8
0
 10
-210.773514
 20
-122.576019
 40
0.460308
 50
346.065552
 51
14.275323
  0
ARC
  8
0
 10
-210.893677
 20
-122.620468
 40
0.587871
 50
15.585965
 51
51.555729
  0
ARC
  8
0
 10
-211.225143
 20
-123.107796
 40
1.176441
 50
53.669334
 51
126.670959
  0
ARC
  8
0
 10
-211.559494
 20
-122.622444
 40
0.587868
 50
128.784988
 51
164.754272
  0
ARC
  8
0
 10
-211.679916
 20
-122.578705
 40
0.460308
 50
166.065567
 51
194.275330
  0
ARC
  8
0
 10
-211.559753
 20
-122.534256
 40
0.587871
 50
195.585968
 51
231.555725
  0
ARC
  8
0
 10
-211.228287
 20
-122.046928
 40
1.176441
 50
233.669342
 51
306.670959
  0
ARC
  8
0
 10
-210.893936
 20
-122.532280
 40
0.587868
 50
308.785004
 51
344.754272
  0
ARC
  8
0
 10
-226.583145
 20
-131.845490
 40
1.208360
 50
345.893402
 51
14.106610
  0
ARC
  8
0
 10
-226.899048
 20
-131.961288
 40
1.543364
 50
15.417680
 51
51.388054
  0
ARC
  8
0
 10
-227.773285
 20
-133.238556
 40
3.089063
 50
53.502048
 51
126.497948
  0
ARC
  8
0
 10
-228.647522
 20
-131.961288
 40
1.543355
 50
128.611954
 51
164.582321
  0
ARC
  8
0
 10
-228.963425
 20
-131.845490
 40
1.208360
 50
165.893387
 51
194.106613
  0
ARC
  8
0
 10
-228.647522
 20
-131.729691
 40
1.543364
 50
195.417679
 51
231.388046
  0
ARC
  8
0
 10
-227.773285
 20
-130.452423
 40
3.089063
 50
233.502045
 51
306.497955
  0
ARC
  8
0
 10
-226.899048
 20
-131.729691
 40
1.543355
 50
308.611938
 51
344.582306
  0
ARC
  8
0
 10
-226.818726
 20
-132.108795
 40
0.968437
 50
345.891296
 51
14.108716
  0
ARC
  8
0
 10
-227.072098
 20
-132.201691
 40
1.237135
 50
15.420917
 51
51.394493
  0
ARC
  8
0
 10
-227.773285
 20
-133.226334
 40
2.477041
 50
53.508675
 51
126.491325
  0
ARC
  8
0
 10
-228.474472
 20
-132.201691
 40
1.237128
 50
128.605515
 51
164.579086
  0
ARC
  8
0
 10
-228.727844
 20
-132.108795
 40
0.968437
 50
165.891281
 51
194.108719
  0
ARC
  8
0
 10
-228.474472
 20
-132.015900
 40
1.237135
 50
195.420914
 51
231.394485
  0
ARC
  8
0
 10
-227.773285
 20
-130.991257
 40
2.477041
 50
233.508682
 51
306.491333
  0
ARC
  8
0
 10
-227.072098
 20
-132.015900
 40
1.237128
 50
308.605499
 51
344.579071
  0
ARC
  8
0
 10
-227.087234
 20
-132.299591
 40
0.695955
 50
345.890015
 51
14.109975
  0
ARC
  8
0
 10
-227.269333
 20
-132.366364
 40
0.889070
 50
15.422521
 51
51.395786
  0
ARC
  8
0
 10
-227.773285
 20
-133.102798
 40
1.780212
 50
53.509628
 51
126.490372
  0
ARC
  8
0
 10
-228.277237
 20
-132.366364
 40
0.889061
 50
128.604218
 51
164.577484
  0
ARC
  8
0
 10
-228.459335
 20
-132.299591
 40
0.695955
 50
165.890030
 51
194.109970
  0
ARC
  8
0
 10
-228.277237
 20
-132.232819
 40
0.889070
 50
195.422516
 51
231.395782
  0
ARC
  8
0
 10
-227.773285
 20
-131.496384
 40
1.780212
 50
233.509628
 51
306.490387
  0
ARC
  8
0
 10
-227.269333
 20
-132.232819
 40
0.889061
 50
308.604218
 51
344.577484
  0
ARC
  8
0
 10
-227.320084
 20
-132.393646
 40
0.460310
 50
346.064636
 51
14.276243
  0
ARC
  8
0
 10
-227.440247
 20
-132.438095
 40
0.587873
 50
15.586681
 51
51.555264
  0
ARC
  8
0
 10
-227.771713
 20
-132.925415
 40
1.176428
 50
53.668896
 51
126.671181
  0
ARC
  8
0
 10
-228.106064
 20
-132.440079
 40
0.587874
 50
128.784531
 51
164.752838
  0
ARC
  8
0
 10
-228.226486
 20
-132.396332
 40
0.460310
 50
166.064636
 51
194.276245
  0
ARC
  8
0
 10
-228.106323
 20
-132.351883
 40
0.587873
 50
195.586685
 51
231.555267
  0
ARC
  8
0
 10
-227.774857
 20
-131.864563
 40
1.176428
 50
233.668900
 51
306.671173
  0
ARC
  8
0
 10
-227.440506
 20
-132.349899
 40
0.587874
 50
308.784515
 51
344.752838
  0
ARC
  8
0
 10
-218.042068
 20
-126.200974
 40
2.573937
 50
48.105797
 51
51.387615
  0
ARC
  8
0
 10
-219.499985
 20
-128.330933
 40
5.151573
 50
53.501308
 51
126.498695
  0
ARC
  8
0
 10
-220.957901
 20
-126.200974
 40
2.573938
 50
128.612381
 51
131.925125
  0
ARC
  8
0
 10
-219.500015
 20
-127.779533
 40
3.928421
 50
62.201668
 51
117.776428
  0
ARC
  8
0
 10
-219.500000
 20
-120.809265
 40
11.527037
 50
290.222900
 51
306.497223
  0
ARC
  8
0
 10
-216.237640
 20
-125.575645
 40
5.758930
 50
308.610901
 51
344.581787
  0
ARC
  8
0
 10
-215.058853
 20
-126.007797
 40
4.508849
 50
345.893341
 51
14.106644
  0
ARC
  8
0
 10
-216.237640
 20
-126.439949
 40
5.758924
 50
15.418210
 51
24.330647
  0
POINT
  8
0
 10
-50.499996
 20
-60.000000
  0
POINT
  8
0
 10
-90.000000
 20
-60.000000
  0
LINE
  8
0
 10
-81.231873
 20
-50.383347
 11
-85.050255
 21
-46.564972
  0
LINE
  8
0
 10
-101.313705
 20
-60.000000
 11
-87.878677
 21
-46.564972
  0
LINE
  8
0
 10
-111.108856
 20
-74.744896
 11
-107.324120
 21
-70.960159
  0
LINE
  8
0
 10
-120.712708
 20
-82.376984
 11
-113.052269
 21
-75.949104
  0
LINE
  8
0
 10
-107.324120
 20
-70.960159
 11
-103.780685
 21
-65.899612
  0
LINE
  8
0
 10
-87.878677
 20
-46.564972
 11
-85.050255
 21
-46.564972
  0
LINE
  8
0
 10
-86.888733
 20
-56.040203
 11
-81.231873
 21
-50.383347
  0
LINE
  8
0
 10
-90.707108
 20
-66.363960
 11
-96.363960
 21
-60.707108
  0
LINE
  8
0
 10
-89.292892
 20
-66.363960
 11
-83.636040
 21
-60.707108
  0
LINE
  8
0
 10
-83.636040
 20
-59.292892
 11
-86.040199
 21
-56.888729
  0
LINE
  8
0
 10
-96.363960
 20
-59.292892
 11
-90.707108
 21
-53.636040
  0
LINE
  8
0
 10
-90.707108
 20
-67.071068
 11
-97.071068
 21
-60.707108
  0
LINE
  8
0
 10
-89.292892
 20
-67.071068
 11
-82.928932
 21
-60.707108
  0
LINE
  8
0
 10
-82.928932
 20
-59.292892
 11
-85.686646
 21
-56.535175
  0
LINE
  8
0
 10
-97.071068
 20
-59.292892
 11
-90.707108
 21
-52.928932
  0
LINE
  8
0
 10
-80.383347
 20
-51.231876
 11
-76.564972
 21
-55.050255
  0
LINE
  8
0
 10
-90.000000
 20
-71.313705
 11
-76.564972
 21
-57.878677
  0
LINE
  8
0
 10
-104.744896
 20
-81.108856
 11
-100.960159
 21
-77.324120
  0
LINE
  8
0
 10
-86.040199
 20
-56.888729
 11
-80.383347
 21
-51.231876
  0
LINE
  8
0
 10
-112.376984
 20
-90.712708
 11
-105.949104
 21
-83.052269
  0
LINE
  8
0
 10
-100.960159
 20
-77.324112
 11
-95.899612
 21
-73.780685
  0
LINE
  8
0
 10
-76.564972
 20
-57.878681
 11
-76.564972
 21
-55.050251
  0
LINE
  8
0
 10
-86.535179
 20
-55.686649
 11
-89.292892
 21
-52.928932
  0
LINE
  8
0
 10
-86.888733
 20
-56.040203
 11
-89.292892
 21
-53.636040
  0
LINE
  8
0
 10
-82.646088
 20
-51.797562
 11
-81.797562
 21
-52.646088
  0
LINE
  8
0
 10
-86.181625
 20
-55.333096
 11
-85.333099
 21
-56.181625
  0
LINE
  8
0
 10
-93.948463
 20
-48.816380
 11
-89.162804
 21
-44.030716
  0
LINE
  8
0
 10
-88.196877
 20
-43.771900
 11
-85.403809
 21
-46.564972
  0
LINE
  8
0
 10
-94.207283
 20
-49.782307
 11
-92.651649
 21
-51.337944
  0
LINE
  8
0
 10
-94.207283
 20
-49.782307
 11
-88.196877
 21
-43.771900
  0
LINE
  8
0
 10
-94.207283
 20
-49.782307
 11
-93.948463
 21
-48.816380
  0
LINE
  8
0
 10
-88.196877
 20
-43.771912
 11
-89.162804
 21
-44.030727
  0
LINE
  8
0
 10
-107.000320
 20
-52.899998
 11
-128.184601
 21
-31.715719
  0
LINE
  8
0
 10
-128.184601
 20
-88.284279
 11
-107.000320
 21
-67.100006
  0
LINE
  8
0
 10
-128.184601
 20
-88.284286
 11
-144.000320
 21
-72.468559
  0
LINE
  8
0
 10
-144.000336
 20
-47.531448
 11
-128.184601
 21
-31.715723
  0
LINE
  8
0
 10
-107.000320
 20
-67.100006
 11
-107.000320
 21
-52.899998
  0
LINE
  8
0
 10
-144.000320
 20
-72.499710
 11
-144.000320
 21
-47.531441
  0
LINE
  8
0
 10
-121.325661
 20
-37.584702
 11
-117.577995
 21
-33.837036
  0
LINE
  8
0
 10
-116.163780
 20
-43.736538
 11
-111.921135
 21
-39.493896
  0
LINE
  8
0
 10
-116.552689
 20
-34.155243
 11
-115.986580
 21
-33.589134
  0
LINE
  8
0
 10
-112.239342
 20
-38.468582
 11
-111.673233
 21
-37.902477
  0
LINE
  8
0
 10
-111.771706
 20
-38.936222
 11
-117.020309
 21
-33.687614
  0
LINE
  8
0
 10
-115.986588
 20
-33.589142
 11
-111.673233
 21
-37.902496
  0
LINE
  8
0
 10
-111.921127
 20
-39.493904
 11
-111.771698
 21
-38.936226
  0
LINE
  8
0
 10
-117.577980
 20
-33.837051
 11
-117.020309
 21
-33.687622
  0
LINE
  8
0
 10
-111.921127
 20
-39.493896
 11
-117.577980
 21
-33.837044
  0
LINE
  8
0
 10
-132.826263
 20
-69.473938
 11
-129.203064
 21
-67.209923
  0
LINE
  8
0
 10
-137.065613
 20
-62.689556
 11
-133.442429
 21
-60.425533
  0
LINE
  8
0
 10
-133.126083
 20
-69.484428
 11
-136.898376
 21
-67.478661
  0
LINE
  8
0
 10
-129.370300
 20
-62.420841
 11
-133.142609
 21
-60.415073
  0
LINE
  8
0
 10
-137.057404
 20
-67.224236
 11
-137.206512
 21
-62.954449
  0
LINE
  8
0
 10
-129.062286
 20
-66.945045
 11
-129.211395
 21
-62.675251
  0
LINE
  8
0
 10
-132.435135
 20
-66.823540
 11
-134.511978
 21
-63.499886
  0
LINE
  8
0
 10
-131.756699
 20
-66.399597
 11
-133.833557
 21
-63.075943
  0
LINE
  8
0
 10
-129.665909
 20
-57.971401
 11
-128.777634
 21
-53.792374
  0
LINE
  8
0
 10
-137.491119
 20
-56.308113
 11
-136.602829
 21
-52.129082
  0
LINE
  8
0
 10
-129.866623
 20
-58.194347
 11
-133.929916
 21
-59.514591
  0
LINE
  8
0
 10
-132.338776
 20
-50.585888
 11
-136.402054
 21
-51.906128
  0
LINE
  8
0
 10
-134.223389
 20
-59.452240
 11
-137.398376
 21
-56.593452
  0
LINE
  8
0
 10
-128.870331
 20
-53.507084
 11
-132.045334
 21
-50.648293
  0
LINE
  8
0
 10
-131.300735
 20
-55.848930
 11
-135.134277
 21
-55.034088
  0
LINE
  8
0
 10
-131.134399
 20
-55.066414
 11
-134.967941
 21
-54.251572
  0
LINE
  8
0
 10
-94.000000
 20
-83.685440
 11
-94.000000
 21
-72.649475
  0
LINE
  8
0
 10
-94.000000
 20
-48.157280
 11
-94.000000
 21
-36.314560
  0
LINE
  8
0
 10
-144.000000
 20
-47.599472
 11
-144.000000
 21
-47.499996
  0
LINE
  8
0
 10
-125.880920
 20
-86.970543
 11
-120.931168
 21
-82.020798
  0
LINE
  8
0
 10
-124.961670
 20
-86.616989
 11
-121.284721
 21
-82.940033
  0
LINE
  8
0
 10
-122.120125
 20
-85.826057
 11
-122.075661
 21
-85.781593
  0
LINE
  8
0
 10
-121.284729
 20
-82.940041
 11
-121.567566
 21
-82.657196
  0
LINE
  8
0
 10
-124.961685
 20
-86.616997
 11
-125.244530
 21
-86.334152
  0
LINE
  8
0
 10
-120.931175
 20
-82.020790
 11
-121.426147
 21
-81.525818
  0
LINE
  8
0
 10
-125.880920
 20
-86.970551
 11
-126.375893
 21
-86.475578
  0
LINE
  8
0
 10
-116.063309
 20
-77.152931
 11
-111.113548
 21
-72.203178
  0
LINE
  8
0
 10
-115.144051
 20
-76.799370
 11
-111.467102
 21
-73.122421
  0
LINE
  8
0
 10
-111.467110
 20
-73.122421
 11
-111.749954
 21
-72.839577
  0
LINE
  8
0
 10
-115.144058
 20
-76.799377
 11
-115.426903
 21
-76.516533
  0
LINE
  8
0
 10
-111.113541
 20
-72.203178
 11
-111.608521
 21
-71.708206
  0
LINE
  8
0
 10
-111.113541
 20
-47.796822
 11
-115.668800
 21
-43.241562
  0
LINE
  8
0
 10
-111.467102
 20
-46.877579
 11
-115.144051
 21
-43.200623
  0
LINE
  8
0
 10
-112.258034
 20
-44.036026
 11
-112.302498
 21
-43.991562
  0
LINE
  8
0
 10
-115.144058
 20
-43.200615
 11
-115.426895
 21
-43.483459
  0
LINE
  8
0
 10
-111.467102
 20
-46.877571
 11
-111.749947
 21
-47.160416
  0
LINE
  8
0
 10
-111.113548
 20
-47.796822
 11
-111.608521
 21
-48.291794
  0
LINE
  8
0
 10
-120.931168
 20
-37.979198
 11
-125.880905
 21
-33.029449
  0
LINE
  8
0
 10
-121.284714
 20
-37.059959
 11
-124.961670
 21
-33.383003
  0
LINE
  8
0
 10
-122.075653
 20
-34.218407
 11
-122.120117
 21
-34.173943
  0
LINE
  8
0
 10
-124.961685
 20
-33.382999
 11
-125.244522
 21
-33.665840
  0
LINE
  8
0
 10
-121.284714
 20
-37.059952
 11
-121.567551
 21
-37.342796
  0
LINE
  8
0
 10
-125.880920
 20
-33.029446
 11
-126.375885
 21
-33.524422
  0
LINE
  8
0
 10
-120.931160
 20
-37.979198
 11
-121.426132
 21
-38.474171
  0
LINE
  8
0
 10
-94.829636
 20
-24.705902
 11
-95.491714
 21
-27.176800
  0
LINE
  8
0
 10
-85.170372
 20
-24.705906
 11
-84.508293
 21
-27.176804
  0
LINE
  8
0
 10
-94.829620
 20
-95.294090
 11
-95.491692
 21
-92.823196
  0
LINE
  8
0
 10
-85.170372
 20
-95.294098
 11
-84.508301
 21
-92.823196
  0
LINE
  8
0
 10
-64.320129
 20
-81.167557
 11
-61.849228
 21
-81.829636
  0
LINE
  8
0
 10
-58.828430
 20
-71.655640
 11
-57.019604
 21
-73.464462
  0
LINE
  8
0
 10
-58.828423
 20
-48.344368
 11
-57.019592
 21
-46.535538
  0
LINE
  8
0
 10
-64.320129
 20
-38.832458
 11
-61.849228
 21
-38.170383
  0
LINE
  8
0
 10
-84.304092
 20
-80.973793
 11
-85.576912
 21
-76.223541
  0
LINE
  8
0
 10
-74.684151
 20
-75.419716
 11
-78.161560
 21
-71.942307
  0
LINE
  8
0
 10
-68.988205
 20
-65.554092
 11
-73.738457
 21
-64.281273
  0
LINE
  8
0
 10
-68.988205
 20
-54.445950
 11
-73.738434
 21
-55.718769
  0
LINE
  8
0
 10
-78.161537
 20
-48.057732
 11
-74.684113
 21
-44.580307
  0
LINE
  8
0
 10
-85.576866
 20
-43.776459
 11
-84.304047
 21
-39.026230
  0
LINE
  8
0
 10
-91.525291
 20
-46.000000
 11
-91.132088
 21
-46.000000
  0
LINE
  8
0
 10
-91.525337
 20
-74.000000
 11
-88.474693
 21
-74.000000
  0
LINE
  8
0
 10
-78.638313
 20
-68.320992
 11
-77.112991
 21
-65.679054
  0
LINE
  8
0
 10
-77.112961
 20
-54.320988
 11
-78.638283
 21
-51.679047
  0
LINE
  8
0
 10
-60.000000
 20
-68.827209
 11
-60.000000
 21
-51.172791
  0
LINE
  8
0
 10
-67.355400
 20
-38.432854
 11
-82.644585
 21
-29.605633
  0
LINE
  8
0
 10
-82.644577
 20
-90.394379
 11
-67.355392
 21
-81.567162
  0
LINE
  8
0
 10
-110.966682
 20
-37.464088
 11
-97.355415
 21
-29.605623
  0
LINE
  8
0
 10
-120.951965
 20
-82.000000
 11
-120.263443
 21
-82.000000
  0
LINE
  8
0
 10
-91.254913
 20
-65.816162
 11
-95.816162
 21
-61.254910
  0
LINE
  8
0
 10
-84.119255
 20
-58.809673
 11
-88.745087
 21
-54.183842
  0
LINE
  8
0
 10
-95.816162
 20
-58.745090
 11
-91.254906
 21
-54.183842
  0
LINE
  8
0
 10
-88.745094
 20
-65.816162
 11
-84.183838
 21
-61.254910
  0
LINE
  8
0
 10
-91.007988
 20
-65.355972
 11
-95.355972
 21
-61.007988
  0
LINE
  8
0
 10
-95.355972
 20
-58.992012
 11
-91.007988
 21
-54.644024
  0
LINE
  8
0
 10
-88.992012
 20
-65.355972
 11
-84.644028
 21
-61.007988
  0
LINE
  8
0
 10
-84.644028
 20
-58.992012
 11
-88.992012
 21
-54.644024
  0
LINE
  8
0
 10
-88.992012
 20
-54.644024
 11
-88.745087
 21
-54.183842
  0
LINE
  8
0
 10
-91.254906
 20
-54.183838
 11
-91.007980
 21
-54.644024
  0
LINE
  8
0
 10
-95.816162
 20
-58.745090
 11
-95.355972
 21
-58.992012
  0
LINE
  8
0
 10
-95.355972
 20
-61.007984
 11
-95.816162
 21
-61.254906
  0
LINE
  8
0
 10
-91.007988
 20
-65.355972
 11
-91.254913
 21
-65.816162
  0
LINE
  8
0
 10
-88.992012
 20
-65.355972
 11
-88.745094
 21
-65.816162
  0
LINE
  8
0
 10
-84.644028
 20
-61.007988
 11
-84.183846
 21
-61.254910
  0
LINE
  8
0
 10
-84.644028
 20
-58.992016
 11
-84.119255
 21
-58.809673
  0
LINE
  8
0
 10
-120.642159
 20
-81.755272
 11
-116.328812
 21
-77.441925
  0
LINE
  8
0
 10
-120.642181
 20
-81.755280
 11
-121.148888
 21
-81.248573
  0
LINE
  8
0
 10
-116.328835
 20
-77.441933
 11
-116.835541
 21
-76.935226
  0
LINE
  8
0
 10
-97.355408
 20
-90.394371
 11
-107.294716
 21
-84.655907
  0
LINE
  8
0
 10
-116.558273
 20
-76.657959
 11
-116.063301
 21
-77.152931
  0
LINE
  8
0
 10
-98.313248
 20
-79.500000
 11
-99.756630
 21
-77.000000
  0
LINE
  8
0
 10
-99.756630
 20
-77.000000
 11
-100.636040
 21
-77.000000
  0
LINE
  8
0
 10
-102.643379
 20
-82.000000
 11
-103.738770
 21
-80.102730
  0
LINE
  8
0
 10
-99.756630
 20
-82.000000
 11
-102.643379
 21
-82.000000
  0
LINE
  8
0
 10
-98.313248
 20
-79.500000
 11
-99.756630
 21
-82.000000
  0
LINE
  8
0
 10
-98.313248
 20
-40.500000
 11
-99.756622
 21
-38.000000
  0
LINE
  8
0
 10
-99.756622
 20
-38.000000
 11
-102.643372
 21
-38.000000
  0
LINE
  8
0
 10
-104.086754
 20
-40.500000
 11
-102.643372
 21
-38.000000
  0
LINE
  8
0
 10
-102.643372
 20
-43.000000
 11
-104.086754
 21
-40.500000
  0
LINE
  8
0
 10
-99.756622
 20
-43.000000
 11
-102.643372
 21
-43.000000
  0
LINE
  8
0
 10
-98.313248
 20
-40.500000
 11
-99.756622
 21
-43.000000
  0
LINE
  8
0
 10
-116.163773
 20
-69.345299
 11
-117.163780
 21
-69.922646
  0
LINE
  8
0
 10
-117.163780
 20
-69.922646
 11
-117.163780
 21
-71.077347
  0
LINE
  8
0
 10
-116.163780
 20
-71.654694
 11
-117.163780
 21
-71.077347
  0
LINE
  8
0
 10
-115.163773
 20
-71.077347
 11
-116.163780
 21
-71.654701
  0
LINE
  8
0
 10
-115.163780
 20
-69.922646
 11
-115.163780
 21
-71.077347
  0
LINE
  8
0
 10
-116.163780
 20
-69.345299
 11
-115.163780
 21
-69.922646
  0
LINE
  8
0
 10
-116.163780
 20
-48.345295
 11
-117.163780
 21
-48.922646
  0
LINE
  8
0
 10
-117.163780
 20
-48.922646
 11
-117.163780
 21
-50.077347
  0
LINE
  8
0
 10
-116.163780
 20
-50.654694
 11
-117.163780
 21
-50.077347
  0
LINE
  8
0
 10
-115.163780
 20
-50.077347
 11
-116.163780
 21
-50.654694
  0
LINE
  8
0
 10
-115.163780
 20
-48.922646
 11
-115.163780
 21
-50.077347
  0
LINE
  8
0
 10
-116.163780
 20
-48.345295
 11
-115.163780
 21
-48.922646
  0
LINE
  8
0
 10
-104.463943
 20
-84.653320
 11
-103.913383
 21
-83.699715
  0
LINE
  8
0
 10
-104.030930
 20
-84.903320
 11
-103.480370
 21
-83.949715
  0
LINE
  8
0
 10
-104.463943
 20
-35.346680
 11
-103.913376
 21
-36.300285
  0
LINE
  8
0
 10
-104.030930
 20
-35.096680
 11
-103.480370
 21
-36.050285
  0
LINE
  8
0
 10
-123.588394
 20
-72.345688
 11
-123.588394
 21
-76.645683
  0
LINE
  8
0
 10
-125.738403
 20
-74.495682
 11
-121.438400
 21
-74.495682
  0
LINE
  8
0
 10
-123.588402
 20
-43.354305
 11
-123.588402
 21
-47.654305
  0
LINE
  8
0
 10
-125.738403
 20
-45.504303
 11
-121.438400
 21
-45.504303
  0
ARC
  8
0
 10
-90.000000
 20
-60.000000
 40
38.000008
 50
216.076736
 51
233.923340
  0
ARC
  8
0
 10
-116.067970
 20
-57.295967
 40
15.000003
 50
325.000000
 51
349.614563
  0
ARC
  8
0
 10
-114.644394
 20
-71.209366
 40
4.999998
 50
288.567719
 51
314.999939
  0
ARC
  8
0
 10
-95.656853
 20
-60.000000
 40
1.000001
 50
135.000000
 51
225.000000
  0
ARC
  8
0
 10
-90.000000
 20
-65.656853
 40
1.000001
 50
225.000000
 51
315.000000
  0
ARC
  8
0
 10
-84.343147
 20
-60.000000
 40
1.000001
 50
315.000000
 51
45.000000
  0
ARC
  8
0
 10
-90.000000
 20
-54.343147
 40
1.000001
 50
45.000000
 51
135.000000
  0
ARC
  8
0
 10
-96.363960
 20
-60.000000
 40
1.000001
 50
135.000000
 51
225.000000
  0
ARC
  8
0
 10
-90.000000
 20
-66.363960
 40
1.000001
 50
225.000000
 51
315.000000
  0
ARC
  8
0
 10
-83.636040
 20
-60.000000
 40
1.000001
 50
315.000000
 51
45.000000
  0
ARC
  8
0
 10
-90.000000
 20
-53.636040
 40
1.000001
 50
45.000000
 51
135.000000
  0
ARC
  8
0
 10
-87.295967
 20
-86.067970
 40
14.999996
 50
100.385422
 51
124.999985
  0
ARC
  8
0
 10
-101.209366
 20
-84.644394
 40
5.000005
 50
135.000000
 51
161.432297
  0
CIRCLE
  8
0
 10
-123.588394
 20
-74.495682
 40
5.000000
  0
CIRCLE
  8
0
 10
-123.588402
 20
-45.504303
 40
5.000000
  0
CIRCLE
  8
0
 10
-116.163780
 20
-59.999996
 40
0.750000
  0
CIRCLE
  8
0
 10
-116.163780
 20
-59.999996
 40
7.200000
  0
ARC
  8
0
 10
-116.163780
 20
-59.999996
 40
7.999997
 50
105.358879
 51
254.641068
  0
ARC
  8
0
 10
-118.285095
 20
-40.201004
 40
7.000000
 50
19.169226
 51
70.830704
  0
CIRCLE
  8
0
 10
-133.134338
 20
-64.949745
 40
2.000000
  0
CIRCLE
  8
0
 10
-133.134338
 20
-64.949745
 40
1.750000
  0
CIRCLE
  8
0
 10
-133.134338
 20
-64.949745
 40
4.000000
  0
ARC
  8
0
 10
-136.757538
 20
-67.213768
 40
0.300003
 50
181.999542
 51
242.000534
  0
ARC
  8
0
 10
-132.985229
 20
-69.219536
 40
0.299999
 50
242.000534
 51
301.998901
  0
ARC
  8
0
 10
-129.362045
 20
-66.955513
 40
0.299999
 50
302.001373
 51
1.999539
  0
ARC
  8
0
 10
-129.511139
 20
-62.685722
 40
0.299987
 50
1.999641
 51
62.000542
  0
ARC
  8
0
 10
-133.283447
 20
-60.679955
 40
0.299999
 50
62.000542
 51
122.000984
  0
ARC
  8
0
 10
-136.906631
 20
-62.943977
 40
0.300005
 50
122.000595
 51
181.999542
  0
CIRCLE
  8
0
 10
-133.134338
 20
-55.050247
 40
2.000000
  0
CIRCLE
  8
0
 10
-133.134338
 20
-55.050247
 40
1.750000
  0
CIRCLE
  8
0
 10
-133.134338
 20
-55.050247
 40
4.000000
  0
ARC
  8
0
 10
-134.022614
 20
-59.229279
 40
0.300003
 50
227.999084
 51
287.998596
  0
ARC
  8
0
 10
-129.959335
 20
-57.909035
 40
0.299997
 50
287.998596
 51
347.999786
  0
ARC
  8
0
 10
-129.071045
 20
-53.730007
 40
0.299998
 50
347.999786
 51
48.001251
  0
ARC
  8
0
 10
-132.246063
 20
-50.871216
 40
0.300000
 50
47.998600
 51
108.001358
  0
ARC
  8
0
 10
-136.309357
 20
-52.191460
 40
0.299997
 50
107.998581
 51
167.999786
  0
ARC
  8
0
 10
-137.197632
 20
-56.370487
 40
0.299998
 50
167.999786
 51
228.001740
  0
ARC
  8
0
 10
-116.163780
 20
-59.999996
 40
8.000004
 50
285.358856
 51
74.641129
  0
ARC
  8
0
 10
-90.000000
 20
-60.000000
 40
12.500001
 50
108.662926
 51
193.450134
  0
ARC
  8
0
 10
-90.000000
 20
-60.000000
 40
29.000000
 50
108.662926
 51
142.181396
  0
ARC
  8
0
 10
-90.000000
 20
-60.000000
 40
28.999998
 50
235.143723
 51
251.337097
  0
ARC
  8
0
 10
-98.000000
 20
-83.685440
 40
4.000002
 50
251.337097
 51
0.000000
  0
ARC
  8
0
 10
-98.000000
 20
-36.314560
 40
4.000000
 50
0.000000
 51
108.662910
  0
ARC
  8
0
 10
-115.278595
 20
-40.378769
 40
2.999998
 50
293.385895
 51
322.181488
  0
CIRCLE
  8
0
 10
-123.588394
 20
-74.495682
 40
4.700000
  0
CIRCLE
  8
0
 10
-123.588402
 20
-45.504303
 40
4.700000
  0
CIRCLE
  8
0
 10
-116.163780
 20
-70.500000
 40
2.600000
  0
CIRCLE
  8
0
 10
-116.163780
 20
-70.500000
 40
3.500000
  0
CIRCLE
  8
0
 10
-116.163780
 20
-49.499996
 40
2.600000
  0
CIRCLE
  8
0
 10
-116.163780
 20
-49.499996
 40
3.500000
  0
ARC
  8
0
 10
-124.241440
 20
-83.704735
 40
3.000000
 50
256.108948
 51
315.000092
  0
ARC
  8
0
 10
-124.196976
 20
-83.660271
 40
2.999998
 50
315.000092
 51
13.891067
  0
ARC
  8
0
 10
-114.423828
 20
-73.887115
 40
3.000000
 50
256.108948
 51
275.124786
  0
ARC
  8
0
 10
-114.379356
 20
-73.842651
 40
2.999995
 50
331.241699
 51
13.891208
  0
ARC
  8
0
 10
-114.379356
 20
-46.157341
 40
3.000000
 50
346.108948
 51
44.999897
  0
ARC
  8
0
 10
-114.423820
 20
-46.112881
 40
3.000000
 50
44.999947
 51
103.891068
  0
ARC
  8
0
 10
-124.196976
 20
-36.339722
 40
3.000000
 50
346.108948
 51
44.999897
  0
ARC
  8
0
 10
-124.241440
 20
-36.295258
 40
3.000000
 50
44.999947
 51
103.891068
  0
ARC
  8
0
 10
-90.000000
 20
-60.000000
 40
12.500000
 50
103.870399
 51
193.450134
  0
ARC
  8
0
 10
-90.000000
 20
-60.000000
 40
25.000002
 50
72.534111
 51
99.485817
  0
ARC
  8
0
 10
-90.000000
 20
-60.000000
 40
29.000000
 50
90.000000
 51
108.662941
  0
CIRCLE
  8
0
 10
-78.750015
 20
-79.485580
 40
3.000000
  0
CIRCLE
  8
0
 10
-67.500000
 20
-60.000023
 40
3.000000
  0
CIRCLE
  8
0
 10
-78.749977
 20
-40.514442
 40
3.000000
  0
CIRCLE
  8
0
 10
-78.750015
 20
-79.485580
 40
2.500000
  0
CIRCLE
  8
0
 10
-67.500000
 20
-60.000023
 40
2.500000
  0
CIRCLE
  8
0
 10
-78.749977
 20
-40.514442
 40
2.500000
  0
ARC
  8
0
 10
-78.750015
 20
-79.485580
 40
5.750004
 50
195.000015
 51
45.000000
  0
ARC
  8
0
 10
-67.500000
 20
-60.000023
 40
5.750002
 50
255.000046
 51
105.000031
  0
ARC
  8
0
 10
-78.749977
 20
-40.514442
 40
5.750001
 50
315.000000
 51
164.999954
  0
ARC
  8
0
 10
-90.000000
 20
-26.000000
 40
5.000006
 50
14.999969
 51
165.000015
  0
ARC
  8
0
 10
-90.000000
 20
-94.000000
 40
5.000000
 50
195.000031
 51
344.999969
  0
ARC
  8
0
 10
-60.555138
 20
-77.000000
 40
4.999998
 50
255.000046
 51
45.000031
  0
ARC
  8
0
 10
-60.555130
 20
-43.000004
 40
4.999997
 50
314.999969
 51
105.000023
  0
ARC
  8
0
 10
-91.525337
 20
-77.000000
 40
3.000000
 50
90.000000
 51
145.577072
  0
ARC
  8
0
 10
-88.474693
 20
-77.000000
 40
3.000004
 50
15.000010
 51
90.000000
  0
ARC
  8
0
 10
-76.040237
 20
-69.820984
 40
3.000006
 50
150.000076
 51
225.000000
  0
ARC
  8
0
 10
-74.514915
 20
-67.179047
 40
2.999997
 50
74.999954
 51
150.000000
  0
ARC
  8
0
 10
-74.514893
 20
-52.820992
 40
3.000000
 50
210.000000
 51
285.000031
  0
ARC
  8
0
 10
-76.040222
 20
-50.179054
 40
2.999998
 50
134.999893
 51
210.000076
  0
ARC
  8
0
 10
-88.474648
 20
-43.000000
 40
3.000001
 50
308.311676
 51
345.000000
  0
ARC
  8
0
 10
-91.525291
 20
-43.000000
 40
3.000002
 50
214.421417
 51
269.999847
  0
ARC
  8
0
 10
-90.000000
 20
-60.000000
 40
25.000002
 50
260.793091
 51
287.465729
  0
ARC
  8
0
 10
-90.000000
 20
-60.000000
 40
25.000000
 50
312.534119
 51
347.465729
  0
ARC
  8
0
 10
-90.000000
 20
-60.000000
 40
25.000002
 50
12.534131
 51
47.465740
  0
ARC
  8
0
 10
-99.355408
 20
-26.141529
 40
4.000002
 50
300.000000
 51
345.000031
  0
ARC
  8
0
 10
-99.355408
 20
-93.858475
 40
4.000006
 50
15.000010
 51
60.000015
  0
ARC
  8
0
 10
-80.644592
 20
-93.858467
 40
4.000002
 50
119.999985
 51
165.000061
  0
ARC
  8
0
 10
-65.355408
 20
-85.031250
 40
3.999998
 50
74.999962
 51
120.000038
  0
ARC
  8
0
 10
-56.000000
 20
-68.827209
 40
4.000000
 50
180.000000
 51
225.000046
  0
ARC
  8
0
 10
-56.000000
 20
-51.172794
 40
3.999999
 50
135.000000
 51
179.999939
  0
ARC
  8
0
 10
-65.355400
 20
-34.968750
 40
3.999999
 50
239.999985
 51
284.999939
  0
ARC
  8
0
 10
-80.644592
 20
-26.141529
 40
3.999998
 50
195.000046
 51
240.000092
  0
ARC
  8
0
 10
-112.966675
 20
-34.000000
 40
3.999997
 50
288.301575
 51
300.000000
  0
ARC
  8
0
 10
-90.000000
 20
-60.000000
 40
39.500004
 50
217.729614
 51
142.270370
  0
ARC
  8
0
 10
-90.000000
 20
-60.000000
 40
5.449998
 50
169.341660
 51
190.658340
  0
ARC
  8
0
 10
-90.000000
 20
-60.000000
 40
5.449998
 50
259.341675
 51
280.658325
  0
ARC
  8
0
 10
-90.000000
 20
-60.000000
 40
5.449998
 50
349.341675
 51
10.658294
  0
ARC
  8
0
 10
-90.000000
 20
-60.000000
 40
5.449998
 50
79.341667
 51
100.658333
  0
CIRCLE
  8
0
 10
-90.000000
 20
-26.000000
 40
2.100000
  0
CIRCLE
  8
0
 10
-90.000000
 20
-94.000000
 40
2.100000
  0
CIRCLE
  8
0
 10
-60.555138
 20
-77.000000
 40
2.100000
  0
CIRCLE
  8
0
 10
-60.555134
 20
-43.000000
 40
2.100000
  0
ARC
  8
0
 10
-90.000000
 20
-60.000000
 40
29.000002
 50
251.337051
 51
89.999985
  0
ARC
  8
0
 10
-122.940689
 20
-75.143402
 40
6.999995
 50
289.169312
 51
340.830719
  0
ARC
  8
0
 10
-101.199997
 20
-40.500000
 40
6.100005
 50
122.348846
 51
117.651154
  0
ARC
  8
0
 10
-101.200005
 20
-79.500000
 40
6.099996
 50
217.936172
 51
50.642929
  0
ARC
  8
0
 10
-101.200005
 20
-79.500000
 40
4.999999
 50
210.855759
 51
54.205826
  0
CIRCLE
  8
0
 10
-101.199997
 20
-40.500000
 40
5.000000
  0
CIRCLE
  8
0
 10
-101.199997
 20
-40.500000
 40
4.400000
  0
ARC
  8
0
 10
-101.200005
 20
-79.500000
 40
4.399998
 50
207.283371
 51
56.951466
  0
ARC
  8
0
 10
-90.000000
 20
-60.000000
 40
6.000002
 50
168.557343
 51
192.312805
  0
ARC
  8
0
 10
-90.000000
 20
-60.000000
 40
5.999997
 50
258.557251
 51
281.442719
  0
ARC
  8
0
 10
-90.000000
 20
-60.000000
 40
6.000003
 50
348.557312
 51
11.442691
  0
ARC
  8
0
 10
-90.000000
 20
-60.000000
 40
6.000000
 50
78.557266
 51
101.442734
  0
ARC
  8
0
 10
-90.000000
 20
-60.000000
 40
12.500002
 50
256.549805
 51
5.208184
  0
POINT
  8
0
 10
-189.500000
 20
-60.000000
  0
POINT
  8
0
 10
-240.000000
 20
-60.000000
  0
LINE
  8
0
 10
-240.000000
 20
-88.300003
 11
-235.500000
 21
-88.300003
  0
LINE
  8
0
 10
-240.000000
 20
-31.700005
 11
-235.500000
 21
-31.700005
  0
LINE
  8
0
 10
-235.500000
 20
-72.468544
 11
-203.500000
 21
-72.468544
  0
LINE
  8
0
 10
-235.500000
 20
-47.530998
 11
-203.500000
 21
-47.530998
  0
LINE
  8
0
 10
-240.000000
 20
-88.300003
 11
-240.000000
 21
-31.700005
  0
LINE
  8
0
 10
-235.500000
 20
-88.284271
 11
-235.500000
 21
-31.715729
  0
LINE
  8
0
 10
-203.500000
 20
-88.284271
 11
-203.500000
 21
-31.715731
  0
LINE
  8
0
 10
-200.000000
 20
-68.481537
 11
-200.000000
 21
-61.557556
  0
LINE
  8
0
 10
-195.000000
 20
-66.649750
 11
-195.000000
 21
-63.249744
  0
LINE
  8
0
 10
-203.500000
 20
-69.565735
 11
-200.350006
 21
-69.565735
  0
LINE
  8
0
 10
-203.500000
 20
-67.397339
 11
-200.350006
 21
-67.397339
  0
LINE
  8
0
 10
-203.500000
 20
-62.781349
 11
-200.350006
 21
-62.781349
  0
LINE
  8
0
 10
-203.500000
 20
-60.333755
 11
-200.350006
 21
-60.333755
  0
LINE
  8
0
 10
-203.500000
 20
-56.477539
 11
-200.350006
 21
-56.477539
  0
LINE
  8
0
 10
-203.500000
 20
-59.568123
 11
-200.350006
 21
-59.568123
  0
LINE
  8
0
 10
-203.500000
 20
-51.959671
 11
-200.350006
 21
-51.959671
  0
LINE
  8
0
 10
-203.500000
 20
-50.532379
 11
-200.350006
 21
-50.532379
  0
LINE
  8
0
 10
-200.000000
 20
-58.022839
 11
-200.000000
 21
-51.246029
  0
LINE
  8
0
 10
-195.000000
 20
-56.750256
 11
-195.000000
 21
-53.350254
  0
LINE
  8
0
 10
-189.500000
 20
-66.200005
 11
-189.500000
 21
-53.800007
  0
LINE
  8
0
 10
-200.000000
 20
-66.949745
 11
-195.300003
 21
-66.949745
  0
LINE
  8
0
 10
-200.000000
 20
-62.949745
 11
-195.300003
 21
-62.949745
  0
LINE
  8
0
 10
-200.000000
 20
-57.050255
 11
-195.300003
 21
-57.050255
  0
LINE
  8
0
 10
-200.000000
 20
-53.050255
 11
-195.300003
 21
-53.050255
  0
LINE
  8
0
 10
-195.300003
 20
-66.949745
 11
-195.300003
 21
-62.949749
  0
LINE
  8
0
 10
-195.300003
 20
-57.050259
 11
-195.300003
 21
-53.050259
  0
LINE
  8
0
 10
-200.000000
 20
-66.699745
 11
-195.050003
 21
-66.699745
  0
LINE
  8
0
 10
-200.000000
 20
-63.199745
 11
-195.050003
 21
-63.199745
  0
LINE
  8
0
 10
-200.000000
 20
-56.800255
 11
-195.050003
 21
-56.800255
  0
LINE
  8
0
 10
-200.000000
 20
-53.300255
 11
-195.050003
 21
-53.300255
  0
LINE
  8
0
 10
-200.000000
 20
-67.199997
 11
-190.500000
 21
-67.199997
  0
LINE
  8
0
 10
-200.000000
 20
-52.800003
 11
-190.500000
 21
-52.800003
  0
LINE
  8
0
 10
-235.500000
 20
-88.284271
 11
-203.500000
 21
-88.284271
  0
LINE
  8
0
 10
-235.500000
 20
-31.715729
 11
-203.500000
 21
-31.715729
  0
LINE
  8
0
 10
-202.800003
 20
-70.169029
 11
-202.800003
 21
-69.565735
  0
LINE
  8
0
 10
-202.399994
 20
-70.607246
 11
-202.399994
 21
-69.565735
  0
LINE
  8
0
 10
-200.949997
 20
-70.531441
 11
-200.949997
 21
-70.468559
  0
LINE
  8
0
 10
-202.800003
 20
-50.532383
 11
-202.800003
 21
-49.830978
  0
LINE
  8
0
 10
-202.399994
 20
-50.532383
 11
-202.399994
 21
-49.392761
  0
LINE
  8
0
 10
-200.949997
 20
-49.531445
 11
-200.949997
 21
-49.468563
  0
LINE
  8
0
 10
-203.211548
 20
-79.195694
 11
-203.500000
 21
-79.195694
  0
LINE
  8
0
 10
-203.211548
 20
-69.795692
 11
-203.500000
 21
-69.795692
  0
LINE
  8
0
 10
-203.211548
 20
-69.795692
 11
-203.211548
 21
-79.195694
  0
LINE
  8
0
 10
-203.211548
 20
-50.204311
 11
-203.500000
 21
-50.204311
  0
LINE
  8
0
 10
-203.211548
 20
-40.804314
 11
-203.500000
 21
-40.804314
  0
LINE
  8
0
 10
-203.211548
 20
-40.804314
 11
-203.211548
 21
-50.204315
  0
LINE
  8
0
 10
-245.550003
 20
-72.489891
 11
-245.550003
 21
-80.710106
  0
LINE
  8
0
 10
-245.250000
 20
-72.349998
 11
-245.250000
 21
-80.849998
  0
LINE
  8
0
 10
-245.250000
 20
-72.349998
 11
-240.550003
 21
-72.349998
  0
LINE
  8
0
 10
-245.250000
 20
-80.849998
 11
-240.550003
 21
-80.849998
  0
LINE
  8
0
 10
-245.550003
 20
-72.489891
 11
-245.250000
 21
-72.349998
  0
LINE
  8
0
 10
-245.550003
 20
-80.710114
 11
-245.250000
 21
-80.850006
  0
LINE
  8
0
 10
-245.250000
 20
-74.349998
 11
-242.879700
 21
-74.349998
  0
LINE
  8
0
 10
-245.250000
 20
-76.349998
 11
-244.034393
 21
-76.349998
  0
LINE
  8
0
 10
-245.250000
 20
-78.349998
 11
-245.189102
 21
-78.349998
  0
LINE
  8
0
 10
-245.550003
 20
-39.289894
 11
-245.550003
 21
-47.510109
  0
LINE
  8
0
 10
-245.250000
 20
-39.150002
 11
-245.250000
 21
-47.650002
  0
LINE
  8
0
 10
-245.250000
 20
-39.150002
 11
-240.550003
 21
-39.150002
  0
LINE
  8
0
 10
-245.250000
 20
-47.650002
 11
-240.550003
 21
-47.650002
  0
LINE
  8
0
 10
-245.550003
 20
-39.289886
 11
-245.250000
 21
-39.149994
  0
LINE
  8
0
 10
-245.550003
 20
-47.510105
 11
-245.250000
 21
-47.650002
  0
LINE
  8
0
 10
-245.250000
 20
-41.150002
 11
-242.879700
 21
-41.150002
  0
LINE
  8
0
 10
-245.250000
 20
-43.150002
 11
-244.034393
 21
-43.150002
  0
LINE
  8
0
 10
-245.250000
 20
-45.150002
 11
-245.189102
 21
-45.150002
  0
LINE
  8
0
 10
-195.299973
 20
-62.949722
 11
-194.999969
 21
-63.249722
  0
LINE
  8
0
 10
-195.299988
 20
-66.949745
 11
-195.000000
 21
-66.649750
  0
LINE
  8
0
 10
-195.299988
 20
-53.050243
 11
-194.999985
 21
-53.350243
  0
LINE
  8
0
 10
-195.299973
 20
-57.050278
 11
-194.999969
 21
-56.750278
  0
LINE
  8
0
 10
-240.000000
 20
-72.500000
 11
-235.500000
 21
-72.500000
  0
LINE
  8
0
 10
-240.000000
 20
-47.500000
 11
-235.500000
 21
-47.500000
  0
LINE
  8
0
 10
-240.550003
 20
-81.099998
 11
-240.550003
 21
-72.099998
  0
LINE
  8
0
 10
-240.550003
 20
-81.099998
 11
-240.000000
 21
-81.099998
  0
LINE
  8
0
 10
-240.550003
 20
-72.099998
 11
-240.000000
 21
-72.099998
  0
LINE
  8
0
 10
-240.550003
 20
-47.900002
 11
-240.000000
 21
-47.900002
  0
LINE
  8
0
 10
-240.550003
 20
-38.900002
 11
-240.000000
 21
-38.900002
  0
LINE
  8
0
 10
-240.550003
 20
-47.900002
 11
-240.550003
 21
-38.900002
  0
LINE
  8
0
 10
-223.500000
 20
-90.712669
 11
-215.500000
 21
-90.712669
  0
LINE
  8
0
 10
-215.500000
 20
-90.712669
 11
-215.500000
 21
-88.284271
  0
LINE
  8
0
 10
-223.500000
 20
-90.712669
 11
-223.500000
 21
-88.284271
  0
CIRCLE
  8
0
 10
-229.500000
 20
-59.999992
 40
1.800000
  0
ARC
  8
0
 10
-201.854263
 20
-68.481537
 40
1.854259
 50
324.217712
 51
35.782295
  0
ARC
  8
0
 10
-207.784760
 20
-65.089348
 40
7.784755
 50
342.753906
 51
17.246048
  0
ARC
  8
0
 10
-202.314545
 20
-61.557556
 40
2.314539
 50
328.079407
 51
31.920580
  0
ARC
  8
0
 10
-203.586304
 20
-58.022839
 40
3.586298
 50
334.476166
 51
25.523840
  0
ARC
  8
0
 10
-207.464691
 20
-54.218609
 40
7.464685
 50
342.385193
 51
17.614801
  0
ARC
  8
0
 10
-200.902557
 20
-51.246029
 40
0.902554
 50
307.749390
 51
52.250626
  0
ARC
  8
0
 10
-190.500000
 20
-66.200005
 40
1.000000
 50
270.000000
 51
0.000000
  0
ARC
  8
0
 10
-190.500000
 20
-53.800007
 40
1.000000
 50
0.000000
 51
90.000000
  0
ARC
  8
0
 10
-203.949997
 20
-70.531441
 40
3.000006
 50
326.386139
 51
359.999847
  0
ARC
  8
0
 10
-203.949997
 20
-70.468559
 40
3.000000
 50
359.999847
 51
17.514137
  0
ARC
  8
0
 10
-203.949997
 20
-49.531445
 40
2.999999
 50
340.509766
 51
0.000000
  0
ARC
  8
0
 10
-203.949997
 20
-49.468563
 40
3.000000
 50
0.000000
 51
33.613789
  0
ARC
  8
0
 10
-207.100006
 20
-74.495689
 40
6.100012
 50
309.601990
 51
50.397907
  0
ARC
  8
0
 10
-207.100006
 20
-45.504314
 40
6.100007
 50
309.602051
 51
50.397953
  0
ARC
  8
0
 10
-232.692886
 20
-83.688080
 40
0.907122
 50
165.895737
 51
194.104263
  0
ARC
  8
0
 10
-232.455887
 20
-83.601212
 40
1.158449
 50
195.414841
 51
231.383331
  0
ARC
  8
0
 10
-231.800003
 20
-82.643112
 40
2.317961
 50
233.496933
 51
306.503052
  0
ARC
  8
0
 10
-231.144119
 20
-83.601212
 40
1.158442
 50
308.616669
 51
344.585175
  0
ARC
  8
0
 10
-230.907120
 20
-83.688080
 40
0.907122
 50
345.895721
 51
14.104265
  0
ARC
  8
0
 10
-231.144119
 20
-83.774948
 40
1.158449
 50
15.414836
 51
51.383331
  0
ARC
  8
0
 10
-231.800003
 20
-84.733047
 40
2.317961
 50
53.496941
 51
126.503059
  0
ARC
  8
0
 10
-232.455887
 20
-83.774948
 40
1.158442
 50
128.616669
 51
164.585159
  0
ARC
  8
0
 10
-232.692871
 20
-36.311905
 40
0.907122
 50
165.895737
 51
194.104263
  0
ARC
  8
0
 10
-232.455872
 20
-36.225037
 40
1.158449
 50
195.414841
 51
231.383209
  0
ARC
  8
0
 10
-231.799988
 20
-35.266933
 40
2.317961
 50
233.496933
 51
306.502991
  0
ARC
  8
0
 10
-231.144104
 20
-36.225037
 40
1.158442
 50
308.616669
 51
344.585175
  0
ARC
  8
0
 10
-230.907104
 20
-36.311905
 40
0.907122
 50
345.895721
 51
14.104265
  0
ARC
  8
0
 10
-231.144104
 20
-36.398773
 40
1.158449
 50
15.414836
 51
51.383213
  0
ARC
  8
0
 10
-231.799988
 20
-37.356876
 40
2.317961
 50
53.496941
 51
126.503006
  0
ARC
  8
0
 10
-232.455872
 20
-36.398773
 40
1.158442
 50
128.616669
 51
164.585159
  0
ENDSEC
  0
EOF
