  0
SECTION
  2
HEADER
  0
ENDSEC
  0
SECTION
  2
TABLES
  0
TABLE
  2
LTYPE
 70
     4
  0
LTYPE
  2
CONTINUOUS
 70
    64
  3
Solid line
 72
    65
 73
     0
 40
0.000000
  0
LTYPE
  2
DASHED
 70
    64
  3
__ __ __ __ __ __ __ __ __ __ __ __ __ __ __
 72
    65
 73
     2
 40
3.500000
 49
2.000000
 49
-1.500000
  0
LTYPE
  2
CENTER
 70
    64
  3
____ _ ____ _ ____ _ ____ _ ____ _ ____ _ ____
 72
    65
 73
     4
 40
17.500000
 49
13.000000
 49
-1.500000
 49
1.500000
 49
-1.500000
  0
LTYPE
  2
PHANTOM
 70
    64
  3
_____ _ _ _____ _ _ _____ _ _ _____ _ _ ____  
 72
    65
 73
     6
 40
15.500000
 49
8.000000
 49
-1.500000
 49
1.500000
 49
-1.500000
 49
1.500000
 49
-1.500000
  0
LTYPE
  2
DASHED1
 70
    64
  3
__ __ __ __ __ __ __ __ __ __ __ __ __ __ __
 72
    65
 73
     2
 40
1.500000
 49
1.000000
 49
-0.500000
  0
LTYPE
  2
DASHED2
 70
    64
  3
__ __ __ __ __ __ __ __ __ __ __ __ __ __ __
 72
    65
 73
     2
 40
3.500000
 49
2.500000
 49
-1.000000
  0
LTYPE
  2
DASHED3
 70
    64
  3
__ __ __ __ __ __ __ __ __ __ __ __ __ __ __
 72
    65
 73
     2
 40
6.000000
 49
4.000000
 49
-2.000000
  0
LTYPE
  2
DASHED4
 70
    64
  3
__ __ __ __ __ __ __ __ __ __ __ __ __ __ __
 72
    65
 73
     2
 40
12.000000
 49
10.000000
 49
-2.000000
  0
LTYPE
  2
DASHED5
 70
    64
  3
__ __ __ __ __ __ __ __ __ __ __ __ __ __ __
 72
    65
 73
     2
 40
17.000000
 49
15.000000
 49
-2.000000
  0
LTYPE
  2
DASHED6
 70
    64
  3
__ __ __ __ __ __ __ __ __ __ __ __ __ __ __
 72
    65
 73
     2
 40
29.000000
 49
27.000000
 49
-2.000000
  0
LTYPE
  2
PHANTOM1
 70
    64
  3
_____ _ _ _____ _ _ _____ _ _ _____ _ _ ____  
 72
    65
 73
     6
 40
31.000000
 49
25.000000
 49
-1.500000
 49
1.000000
 49
-1.000000
 49
1.000000
 49
-1.500000
  0
LTYPE
  2
PHANTOM2
 70
    64
  3
_____ _ _ _____ _ _ _____ _ _ _____ _ _ ____  
 72
    65
 73
     6
 40
36.000000
 49
27.000000
 49
-1.500000
 49
2.500000
 49
-1.000000
 49
2.500000
 49
-1.500000
  0
LTYPE
  2
PHANTOM3
 70
    64
  3
_____ _ _ _____ _ _ _____ _ _ _____ _ _ ____  
 72
    65
 73
     6
 40
78.000000
 49
64.000000
 49
-2.000000
 49
4.000000
 49
-2.000000
 49
4.000000
 49
-2.000000
  0
LTYPE
  2
CENTER1
 70
    64
  3
____ _ ____ _ ____ _ ____ _ ____ _ ____ _ ____
 72
    65
 73
     4
 40
19.000000
 49
14.000000
 49
-1.000000
 49
3.000000
 49
-1.000000
  0
LTYPE
  2
CENTER2
 70
    64
  3
____ _ ____ _ ____ _ ____ _ ____ _ ____ _ ____
 72
    65
 73
     4
 40
28.500000
 49
25.000000
 49
-1.000000
 49
1.500000
 49
-1.000000
  0
LTYPE
  2
CENTER3
 70
    64
  3
____ _ ____ _ ____ _ ____ _ ____ _ ____ _ ____
 72
    65
 73
     4
 40
31.500000
 49
27.000000
 49
-1.000000
 49
2.500000
 49
-1.000000
  0
LTYPE
  2
CENTER4
 70
    64
  3
____ _ ____ _ ____ _ ____ _ ____ _ ____ _ ____
 72
    65
 73
     4
 40
50.000000
 49
45.000000
 49
-1.000000
 49
3.000000
 49
-1.000000
  0
LTYPE
  2
CENTER5
 70
    64
  3
____ _ ____ _ ____ _ ____ _ ____ _ ____ _ ____
 72
    65
 73
     4
 40
100.000000
 49
92.000000
 49
-2.000000
 49
4.000000
 49
-2.000000
  0
LTYPE
  2
SBK1
 70
    64
  3
______ _ _ _ ______ _ _ _ ______ _ _ _ _____  
 72
    65
 73
     8
 40
60.500000
 49
45.000000
 49
-2.000000
 49
2.500000
 49
-2.000000
 49
2.500000
 49
-2.000000
 49
2.500000
 49
-2.000000
  0
LTYPE
  2
SBK2
 70
    64
  3
______ _ _ _ ______ _ _ _ ______ _ _ _ _____  
 72
    65
 73
     8
 40
84.000000
 49
64.000000
 49
-2.000000
 49
4.000000
 49
-2.000000
 49
4.000000
 49
-2.000000
 49
4.000000
 49
-2.000000
  0
LTYPE
  2
STCH
 70
    64
  3
__ __ __ __ __ __ __ __ __ __ __ __ __ __ __
 72
    65
 73
     2
 40
3.000000
 49
1.000000
 49
-2.000000
  0
LTYPE
  2
MTCH
 70
    64
  3
_____ _ _ _____ _ _ _____ _ _ _____ _ _ ____  
 72
    65
 73
     6
 40
80.000000
 49
66.000000
 49
-2.000000
 49
4.000000
 49
-2.000000
 49
4.000000
 49
-2.000000
  0
ENDTAB
  0
TABLE
  2
LAYER
 70
     1
  0
LAYER
  2
0
 70
     0
 62
     7
  6
CONTINUOUS
  0
ENDTAB
  0
TABLE
  2
STYLE
 70
     1
  0
STYLE
  2
STANDARD
 70
     0
 40
0.000000
 41
1.000000
 50
0.000000
 71
     0
 42
0.200000
  3
txt
  4
BIGFONT
  0
ENDTAB
  0
TABLE
  2
VIEW
 70
     0
  0
ENDTAB
  0
ENDSEC
  0
SECTION
  2
BLOCKS
  0
ENDSEC
  0
SECTION
  2
ENTITIES
  0
LINE
  8
0
 10
-420.500000
 20
297.000000
 11
420.500000
 21
297.000000
  0
LINE
  8
0
 10
-420.500000
 20
-297.000000
 11
420.500000
 21
-297.000000
  0
LINE
  8
0
 10
420.500000
 20
297.000000
 11
420.500000
 21
-297.000000
  0
LINE
  8
0
 10
-420.500000
 20
297.000000
 11
-420.500000
 21
-297.000000
  0
LINE
  8
0
 10
399.799988
 20
276.250000
 11
399.799988
 21
-276.750000
  0
LINE
  8
0
 10
-399.250000
 20
276.250000
 11
-399.250000
 21
-276.750000
  0
LINE
  8
0
 10
-399.250000
 20
276.250000
 11
399.799988
 21
276.250000
  0
LINE
  8
0
 10
-399.250000
 20
-276.750000
 11
399.799988
 21
-276.750000
  0
LINE
  8
0
 10
-399.250000
 20
-100.250000
 11
-249.725006
 21
-100.250000
  0
LINE
  8
0
 10
-399.250000
 20
-85.250000
 11
-249.725006
 21
-85.250000
  0
LINE
  8
0
 10
-249.725006
 20
-100.250000
 11
-249.725006
 21
26.250006
  0
LINE
  8
0
 10
-9.724976
 20
98.634789
 11
-9.724976
 21
276.250000
  0
LINE
  8
0
 10
-177.340271
 20
98.634796
 11
-249.725052
 21
26.250013
  0
LINE
  8
0
 10
85.274994
 20
-85.250000
 11
399.799988
 21
-85.250000
  0
LINE
  8
0
 10
85.274994
 20
-100.250000
 11
399.799988
 21
-100.250000
  0
LINE
  8
0
 10
-399.250000
 20
-261.750000
 11
85.274994
 21
-261.750000
  0
LINE
  8
0
 10
-399.250000
 20
261.250000
 11
-299.250000
 21
261.250000
  0
LINE
  8
0
 10
-299.250000
 20
276.250000
 11
-299.250000
 21
261.250000
  0
LINE
  8
0
 10
299.799988
 20
261.250000
 11
399.799988
 21
261.250000
  0
LINE
  8
0
 10
299.799988
 20
276.250000
 11
299.799988
 21
261.250000
  0
LINE
  8
0
 10
299.799988
 20
-256.750000
 11
399.799988
 21
-256.750000
  0
LINE
  8
0
 10
299.799988
 20
-256.750000
 11
299.799988
 21
-276.750000
  0
LINE
  8
0
 10
-9.724977
 20
98.634796
 11
85.275002
 21
3.634826
  0
LINE
  8
0
 10
-9.724976
 20
98.634789
 11
-177.340256
 21
98.634789
  0
LINE
  8
0
 10
85.274994
 20
-276.750000
 11
85.274994
 21
3.634827
  0
TEXT
  8
0
 10
-399.231873
 20
-97.025002
 40
6.000000
  1
SWING ANGLE : 90 DEGREE
 50
0.000000
 41
1.052632
 51
0.000000
  7
STANDARD
  0
TEXT
  8
0
 10
157.293121
 20
-97.025002
 40
6.000000
  1
SWING ANGLE : 270 DEGREE
 50
0.000000
 41
1.052631
 51
0.000000
  7
STANDARD
  0
TEXT
  8
0
 10
-272.094391
 20
-273.649994
 40
6.000000
  1
SWING ANGLE : 180 DEGREE
 50
0.000000
 41
1.052631
 51
0.000000
  7
STANDARD
  0
TEXT
  8
0
 10
178.498459
 20
-187.711563
 40
6.000000
  1
MODEL : RAK300-USK
 50
0.000000
 41
1.052632
 51
0.000000
  7
STANDARD
  0
TEXT
  8
0
 10
-394.856873
 20
264.350006
 40
6.000000
  1
ROTARY ACTUATER
 50
0.000000
 41
1.052631
 51
0.000000
  7
STANDARD
  0
TEXT
  8
0
 10
304.193115
 20
264.350006
 40
6.000000
  1
DATE: MAY ,1992
 50
0.000000
 41
1.052632
 51
0.000000
  7
STANDARD
  0
TEXT
  8
0
 10
303.465027
 20
-271.149994
 40
6.000000
  1
ＫＯＧＡＮＥＩ，ＣＯＲＰ．
 50
0.000000
 41
0.902367
 51
15.000000
  7
STANDARD
  0
POINT
  8
0
 10
-271.299988
 20
180.000000
  0
POINT
  8
0
 10
-335.000000
 20
180.000000
  0
LINE
  8
0
 10
-340.000000
 20
123.500000
 11
-340.000000
 21
135.527374
  0
LINE
  8
0
 10
-340.000000
 20
236.500000
 11
-333.799988
 21
236.500000
  0
LINE
  8
0
 10
-340.000000
 20
123.500000
 11
-333.799988
 21
123.500000
  0
LINE
  8
0
 10
-340.000000
 20
145.899994
 11
-340.000000
 21
156.100006
  0
LINE
  8
0
 10
-333.799988
 20
123.500000
 11
-333.799988
 21
236.500000
  0
LINE
  8
0
 10
-329.299988
 20
134.038055
 11
-287.299988
 21
134.038055
  0
LINE
  8
0
 10
-329.299988
 20
225.961945
 11
-287.299988
 21
225.961945
  0
LINE
  8
0
 10
-329.299988
 20
225.949997
 11
-329.299988
 21
134.050003
  0
LINE
  8
0
 10
-287.299988
 20
225.961929
 11
-287.299988
 21
134.038040
  0
LINE
  8
0
 10
-282.299988
 20
189.013550
 11
-282.299988
 21
181.366959
  0
LINE
  8
0
 10
-275.299988
 20
188.563934
 11
-275.299988
 21
184.163940
  0
LINE
  8
0
 10
-285.299988
 20
198.723694
 11
-285.299988
 21
191.461639
  0
LINE
  8
0
 10
-271.299988
 20
191.049988
 11
-271.299988
 21
168.949982
  0
LINE
  8
0
 10
-287.299988
 20
167.905563
 11
-282.749969
 21
167.905563
  0
LINE
  8
0
 10
-287.299988
 20
171.380157
 11
-282.749969
 21
171.380157
  0
LINE
  8
0
 10
-287.299988
 20
177.110626
 11
-282.749969
 21
177.110626
  0
LINE
  8
0
 10
-287.299988
 20
179.366501
 11
-282.749969
 21
179.366501
  0
LINE
  8
0
 10
-287.299988
 20
181.467743
 11
-282.749969
 21
181.467743
  0
LINE
  8
0
 10
-287.299988
 20
181.266266
 11
-282.749969
 21
181.266266
  0
LINE
  8
0
 10
-287.299988
 20
186.565460
 11
-282.749969
 21
186.565460
  0
LINE
  8
0
 10
-287.299988
 20
191.461655
 11
-282.749969
 21
191.461655
  0
LINE
  8
0
 10
-282.299988
 20
188.863953
 11
-275.599976
 21
188.863953
  0
LINE
  8
0
 10
-282.299988
 20
183.863953
 11
-275.599976
 21
183.863953
  0
LINE
  8
0
 10
-282.299988
 20
176.136032
 11
-275.599976
 21
176.136032
  0
LINE
  8
0
 10
-282.299988
 20
171.136032
 11
-275.599976
 21
171.136032
  0
LINE
  8
0
 10
-275.299988
 20
175.836014
 11
-275.299988
 21
171.436020
  0
LINE
  8
0
 10
-282.299988
 20
178.238556
 11
-282.299988
 21
169.642853
  0
LINE
  8
0
 10
-275.599976
 20
171.136002
 11
-275.299957
 21
171.436005
  0
LINE
  8
0
 10
-275.599976
 20
176.136017
 11
-275.299988
 21
175.836029
  0
LINE
  8
0
 10
-275.299957
 20
184.163925
 11
-275.599976
 21
183.863922
  0
LINE
  8
0
 10
-275.599976
 20
188.863968
 11
-275.299957
 21
188.563965
  0
LINE
  8
0
 10
-275.599976
 20
171.136017
 11
-275.599976
 21
176.136017
  0
LINE
  8
0
 10
-275.599976
 20
183.863953
 11
-275.599976
 21
188.863953
  0
LINE
  8
0
 10
-275.349976
 20
171.386047
 11
-282.299988
 21
171.386047
  0
LINE
  8
0
 10
-275.350006
 20
175.886047
 11
-282.299988
 21
175.886047
  0
LINE
  8
0
 10
-275.349976
 20
184.113953
 11
-282.299988
 21
184.113953
  0
LINE
  8
0
 10
-275.349976
 20
188.613953
 11
-282.299988
 21
188.613953
  0
LINE
  8
0
 10
-282.750000
 20
168.750000
 11
-271.500000
 21
168.750000
  0
LINE
  8
0
 10
-283.123383
 20
191.250000
 11
-271.500000
 21
191.250000
  0
LINE
  8
0
 10
-271.499969
 20
168.749969
 11
-271.299988
 21
168.949966
  0
LINE
  8
0
 10
-271.299988
 20
191.049973
 11
-271.500000
 21
191.249969
  0
LINE
  8
0
 10
-285.299988
 20
167.905548
 11
-285.299988
 21
161.276276
  0
LINE
  8
0
 10
-285.299988
 20
181.266251
 11
-285.299988
 21
179.366486
  0
LINE
  8
0
 10
-329.299988
 20
163.276108
 11
-287.299988
 21
163.276108
  0
LINE
  8
0
 10
-329.299988
 20
196.723618
 11
-287.299988
 21
196.723618
  0
LINE
  8
0
 10
-329.299988
 20
197.000000
 11
-333.799988
 21
197.000000
  0
LINE
  8
0
 10
-329.299988
 20
163.000000
 11
-333.799988
 21
163.000000
  0
LINE
  8
0
 10
-284.899994
 20
149.261215
 11
-284.899994
 21
161.241272
  0
LINE
  8
0
 10
-284.899994
 20
149.261215
 11
-287.300018
 21
149.051239
  0
LINE
  8
0
 10
-284.899994
 20
161.241257
 11
-287.299988
 21
161.451233
  0
LINE
  8
0
 10
-284.899994
 20
198.758698
 11
-284.899994
 21
210.738754
  0
LINE
  8
0
 10
-284.899994
 20
198.758698
 11
-287.299988
 21
198.548737
  0
LINE
  8
0
 10
-284.899963
 20
210.738770
 11
-287.299988
 21
210.948730
  0
LINE
  8
0
 10
-284.899994
 20
161.399994
 11
-284.899994
 21
167.905563
  0
LINE
  8
0
 10
-282.849976
 20
164.950699
 11
-282.849976
 21
165.049286
  0
LINE
  8
0
 10
-284.899994
 20
161.399994
 11
-285.299988
 21
161.399994
  0
LINE
  8
0
 10
-284.899994
 20
191.461655
 11
-284.899994
 21
198.599991
  0
LINE
  8
0
 10
-282.849976
 20
194.950699
 11
-282.849976
 21
195.049286
  0
LINE
  8
0
 10
-284.899994
 20
198.600006
 11
-285.299988
 21
198.600006
  0
LINE
  8
0
 10
-333.799988
 20
134.050003
 11
-329.299988
 21
134.050003
  0
LINE
  8
0
 10
-333.799988
 20
225.949997
 11
-329.299988
 21
225.949997
  0
LINE
  8
0
 10
-334.399994
 20
135.850006
 11
-334.399994
 21
146.350006
  0
LINE
  8
0
 10
-340.399994
 20
136.699997
 11
-340.399994
 21
145.500000
  0
LINE
  8
0
 10
-339.799988
 20
136.100006
 11
-334.399994
 21
136.100006
  0
LINE
  8
0
 10
-339.799988
 20
146.100006
 11
-334.399994
 21
146.100006
  0
LINE
  8
0
 10
-339.799988
 20
165.899994
 11
-334.399994
 21
165.899994
  0
LINE
  8
0
 10
-339.799988
 20
155.899994
 11
-334.399994
 21
155.899994
  0
LINE
  8
0
 10
-339.799988
 20
204.100006
 11
-334.399994
 21
204.100006
  0
LINE
  8
0
 10
-339.799988
 20
194.100006
 11
-334.399994
 21
194.100006
  0
LINE
  8
0
 10
-339.799988
 20
213.899994
 11
-334.399994
 21
213.899994
  0
LINE
  8
0
 10
-339.799988
 20
223.899994
 11
-334.399994
 21
223.899994
  0
LINE
  8
0
 10
-334.399994
 20
224.149994
 11
-333.799988
 21
224.149994
  0
LINE
  8
0
 10
-334.399994
 20
213.649994
 11
-333.799988
 21
213.649994
  0
LINE
  8
0
 10
-334.399994
 20
204.350006
 11
-333.799988
 21
204.350006
  0
LINE
  8
0
 10
-334.399994
 20
193.850006
 11
-333.799988
 21
193.850006
  0
LINE
  8
0
 10
-334.399994
 20
166.149994
 11
-333.799988
 21
166.149994
  0
LINE
  8
0
 10
-334.399994
 20
155.649994
 11
-333.799988
 21
155.649994
  0
LINE
  8
0
 10
-334.399994
 20
135.850006
 11
-333.799988
 21
135.850006
  0
LINE
  8
0
 10
-334.399994
 20
146.350006
 11
-333.799988
 21
146.350006
  0
LINE
  8
0
 10
-340.399994
 20
194.699997
 11
-340.399994
 21
203.500000
  0
LINE
  8
0
 10
-334.399994
 20
193.850006
 11
-334.399994
 21
204.350006
  0
LINE
  8
0
 10
-340.399994
 20
156.500000
 11
-340.399994
 21
165.300003
  0
LINE
  8
0
 10
-334.399994
 20
155.649994
 11
-334.399994
 21
166.149994
  0
LINE
  8
0
 10
-340.399994
 20
214.500000
 11
-340.399994
 21
223.300003
  0
LINE
  8
0
 10
-334.399994
 20
213.649994
 11
-334.399994
 21
224.149994
  0
LINE
  8
0
 10
-339.799988
 20
136.100006
 11
-339.799988
 21
146.100006
  0
LINE
  8
0
 10
-339.799988
 20
155.899994
 11
-339.799988
 21
165.899994
  0
LINE
  8
0
 10
-339.799988
 20
194.100006
 11
-339.799988
 21
204.100006
  0
LINE
  8
0
 10
-339.799988
 20
213.899994
 11
-339.799988
 21
223.899994
  0
LINE
  8
0
 10
-339.799988
 20
136.100006
 11
-340.399994
 21
136.699997
  0
LINE
  8
0
 10
-339.799988
 20
146.100006
 11
-340.399994
 21
145.500000
  0
LINE
  8
0
 10
-339.799988
 20
155.899994
 11
-340.399994
 21
156.500000
  0
LINE
  8
0
 10
-340.399994
 20
165.300003
 11
-339.799988
 21
165.899994
  0
LINE
  8
0
 10
-340.000000
 20
165.699997
 11
-340.000000
 21
194.300003
  0
LINE
  8
0
 10
-339.799988
 20
194.100006
 11
-340.399994
 21
194.699997
  0
LINE
  8
0
 10
-340.399994
 20
203.500000
 11
-339.799988
 21
204.100006
  0
LINE
  8
0
 10
-340.399994
 20
214.500000
 11
-339.799988
 21
213.900009
  0
LINE
  8
0
 10
-340.399994
 20
223.300003
 11
-339.799988
 21
223.899994
  0
LINE
  8
0
 10
-340.000000
 20
203.899994
 11
-340.000000
 21
214.100006
  0
LINE
  8
0
 10
-340.000000
 20
223.699997
 11
-340.000000
 21
236.500000
  0
LINE
  8
0
 10
-323.550018
 20
123.047684
 11
-316.150024
 21
123.047684
  0
LINE
  8
0
 10
-324.350006
 20
121.067780
 11
-315.350006
 21
121.067780
  0
LINE
  8
0
 10
-324.350006
 20
115.618042
 11
-315.350006
 21
115.618042
  0
LINE
  8
0
 10
-323.550018
 20
114.769501
 11
-316.150024
 21
114.769501
  0
LINE
  8
0
 10
-323.550018
 20
127.431747
 11
-316.150024
 21
127.431747
  0
LINE
  8
0
 10
-315.650024
 20
126.931747
 11
-315.650024
 21
122.133484
  0
LINE
  8
0
 10
-314.850006
 20
125.517532
 11
-314.850006
 21
116.118042
  0
LINE
  8
0
 10
-324.050018
 20
126.931747
 11
-324.050018
 21
122.133484
  0
LINE
  8
0
 10
-324.850006
 20
125.517532
 11
-324.850006
 21
116.118042
  0
LINE
  8
0
 10
-323.550018
 20
121.633484
 11
-316.150024
 21
121.633484
  0
LINE
  8
0
 10
-325.350006
 20
126.017532
 11
-324.050018
 21
126.017532
  0
LINE
  8
0
 10
-324.050018
 20
115.618042
 11
-324.050018
 21
115.269501
  0
LINE
  8
0
 10
-315.650024
 20
115.618042
 11
-315.650024
 21
115.269501
  0
LINE
  8
0
 10
-315.650024
 20
126.017532
 11
-314.350006
 21
126.017532
  0
LINE
  8
0
 10
-331.350006
 20
125.734688
 11
-325.350006
 21
125.734688
  0
LINE
  8
0
 10
-314.350006
 20
126.017532
 11
-314.350006
 21
120.077835
  0
LINE
  8
0
 10
-325.350006
 20
126.017532
 11
-325.350006
 21
120.077835
  0
LINE
  8
0
 10
-316.350006
 20
133.230026
 11
-316.350006
 21
127.431747
  0
LINE
  8
0
 10
-323.350006
 20
133.230011
 11
-323.350006
 21
127.431747
  0
LINE
  8
0
 10
-314.350006
 20
125.734688
 11
-309.350006
 21
125.734688
  0
LINE
  8
0
 10
-318.349976
 20
130.401596
 11
-318.349976
 21
133.230011
  0
LINE
  8
0
 10
-321.350006
 20
130.401581
 11
-321.350006
 21
133.230011
  0
LINE
  8
0
 10
-323.350006
 20
133.230011
 11
-321.350006
 21
133.230011
  0
LINE
  8
0
 10
-318.350006
 20
133.230011
 11
-316.350006
 21
133.230011
  0
LINE
  8
0
 10
-309.350006
 20
131.179413
 11
-309.350006
 21
120.077835
  0
LINE
  8
0
 10
-331.350006
 20
120.077835
 11
-325.350006
 21
120.077835
  0
LINE
  8
0
 10
-325.350006
 20
120.360672
 11
-324.850006
 21
120.360672
  0
LINE
  8
0
 10
-314.850006
 20
120.360672
 11
-314.350006
 21
120.360672
  0
LINE
  8
0
 10
-314.350006
 20
120.077835
 11
-309.350006
 21
120.077835
  0
LINE
  8
0
 10
-331.350006
 20
131.179413
 11
-323.350006
 21
131.179413
  0
LINE
  8
0
 10
-321.350006
 20
131.603668
 11
-318.350006
 21
131.603668
  0
LINE
  8
0
 10
-321.350006
 20
132.664337
 11
-318.350006
 21
132.664337
  0
LINE
  8
0
 10
-321.350006
 20
131.179413
 11
-318.350006
 21
131.179413
  0
LINE
  8
0
 10
-316.350006
 20
131.179413
 11
-309.350006
 21
131.179413
  0
LINE
  8
0
 10
-316.350006
 20
131.603668
 11
-309.799988
 21
131.603668
  0
LINE
  8
0
 10
-316.350006
 20
132.664337
 11
-309.799988
 21
132.664337
  0
LINE
  8
0
 10
-324.349976
 20
132.310806
 11
-323.349976
 21
131.603714
  0
LINE
  8
0
 10
-324.350006
 20
133.371460
 11
-323.350006
 21
132.664352
  0
LINE
  8
0
 10
-330.799988
 20
133.371460
 11
-324.350006
 21
133.371460
  0
LINE
  8
0
 10
-331.299988
 20
132.310806
 11
-324.350006
 21
132.310806
  0
LINE
  8
0
 10
-324.350006
 20
133.371460
 11
-324.350006
 21
132.310806
  0
LINE
  8
0
 10
-345.800018
 20
143.669937
 11
-344.300018
 21
143.669937
  0
LINE
  8
0
 10
-347.300018
 20
142.598450
 11
-344.300018
 21
142.598450
  0
LINE
  8
0
 10
-347.300018
 20
135.527374
 11
-344.300018
 21
135.527374
  0
LINE
  8
0
 10
-347.300018
 20
145.675140
 11
-347.300018
 21
135.527374
  0
LINE
  8
0
 10
-345.800018
 20
144.527863
 11
-345.800018
 21
143.669937
  0
LINE
  8
0
 10
-344.300018
 20
146.735809
 11
-344.300018
 21
142.598450
  0
LINE
  8
0
 10
-340.300018
 20
146.735809
 11
-340.300018
 21
145.599960
  0
LINE
  8
0
 10
-344.300018
 20
143.830750
 11
-340.399994
 21
143.830750
  0
LINE
  8
0
 10
-344.300018
 20
134.638367
 11
-340.300018
 21
134.638367
  0
LINE
  8
0
 10
-340.300018
 20
135.527374
 11
-333.799988
 21
135.527374
  0
LINE
  8
0
 10
-344.300018
 20
135.527374
 11
-344.300018
 21
134.638367
  0
LINE
  8
0
 10
-340.300018
 20
135.527374
 11
-340.300018
 21
134.638367
  0
LINE
  8
0
 10
-344.300018
 20
146.735809
 11
-340.300018
 21
146.735809
  0
LINE
  8
0
 10
-347.300018
 20
145.675140
 11
-344.300018
 21
145.675140
  0
LINE
  8
0
 10
-347.300018
 20
144.527863
 11
-344.300018
 21
144.527863
  0
LINE
  8
0
 10
-331.350006
 20
131.179413
 11
-331.350006
 21
120.077835
  0
LINE
  8
0
 10
-330.799988
 20
133.371460
 11
-330.799988
 21
134.050003
  0
LINE
  8
0
 10
-332.299988
 20
126.239731
 11
-332.299988
 21
134.050003
  0
LINE
  8
0
 10
-277.350006
 20
123.852585
 11
-275.850006
 21
123.852585
  0
LINE
  8
0
 10
-306.850006
 20
127.527588
 11
-306.850006
 21
122.527588
  0
LINE
  8
0
 10
-309.350006
 20
127.527580
 11
-306.850006
 21
127.527580
  0
LINE
  8
0
 10
-306.850006
 20
127.027580
 11
-280.350006
 21
127.027580
  0
LINE
  8
0
 10
-306.850006
 20
123.027580
 11
-280.350006
 21
123.027580
  0
LINE
  8
0
 10
-309.350006
 20
122.527580
 11
-306.850006
 21
122.527580
  0
LINE
  8
0
 10
-280.350006
 20
127.027580
 11
-280.350006
 21
123.027580
  0
LINE
  8
0
 10
-280.350006
 20
124.727585
 11
-277.350006
 21
124.727585
  0
LINE
  8
0
 10
-280.350006
 20
125.327576
 11
-277.350006
 21
125.327576
  0
LINE
  8
0
 10
-280.350006
 20
123.727585
 11
-277.350006
 21
123.727585
  0
LINE
  8
0
 10
-280.350006
 20
126.327576
 11
-277.350006
 21
126.327576
  0
LINE
  8
0
 10
-277.350006
 20
126.327576
 11
-277.350006
 21
125.327576
  0
LINE
  8
0
 10
-277.350006
 20
124.727585
 11
-277.350006
 21
123.727585
  0
LINE
  8
0
 10
-277.350006
 20
126.202576
 11
-275.850006
 21
126.202576
  0
LINE
  8
0
 10
-277.350006
 20
126.077576
 11
-275.850006
 21
126.077576
  0
LINE
  8
0
 10
-277.350006
 20
125.952576
 11
-275.850006
 21
125.952576
  0
LINE
  8
0
 10
-277.350006
 20
125.827576
 11
-275.850006
 21
125.827576
  0
LINE
  8
0
 10
-277.350006
 20
125.702576
 11
-275.850006
 21
125.702576
  0
LINE
  8
0
 10
-277.350006
 20
125.577576
 11
-275.850006
 21
125.577576
  0
LINE
  8
0
 10
-277.350006
 20
125.452576
 11
-275.850006
 21
125.452576
  0
LINE
  8
0
 10
-277.350006
 20
124.602585
 11
-275.850006
 21
124.602585
  0
LINE
  8
0
 10
-277.350006
 20
124.477585
 11
-275.850006
 21
124.477585
  0
LINE
  8
0
 10
-277.350006
 20
124.352585
 11
-275.850006
 21
124.352585
  0
LINE
  8
0
 10
-277.350006
 20
124.227585
 11
-275.850006
 21
124.227585
  0
LINE
  8
0
 10
-277.350006
 20
124.102585
 11
-275.850006
 21
124.102585
  0
LINE
  8
0
 10
-277.350006
 20
123.977585
 11
-275.850006
 21
123.977585
  0
LINE
  8
0
 10
-313.500000
 20
235.397552
 11
-305.500000
 21
235.397552
  0
LINE
  8
0
 10
-303.500000
 20
233.397552
 11
-303.500000
 21
225.961945
  0
LINE
  8
0
 10
-315.500000
 20
233.397552
 11
-315.500000
 21
225.961945
  0
LINE
  8
0
 10
-352.500000
 20
235.000000
 11
-352.500000
 21
125.000000
  0
LINE
  8
0
 10
-348.000000
 20
225.000000
 11
-348.000000
 21
223.640991
  0
LINE
  8
0
 10
-348.822662
 20
136.359009
 11
-347.300018
 21
136.359009
  0
LINE
  8
0
 10
-348.000000
 20
171.000000
 11
-340.000000
 21
171.000000
  0
LINE
  8
0
 10
-348.000000
 20
189.000000
 11
-340.000000
 21
189.000000
  0
LINE
  8
0
 10
-348.822571
 20
223.640991
 11
-340.000000
 21
223.640991
  0
LINE
  8
0
 10
-352.500122
 20
125.000046
 11
-348.000122
 21
135.000046
  0
LINE
  8
0
 10
-352.500122
 20
234.999954
 11
-348.000122
 21
224.999954
  0
LINE
  8
0
 10
-348.000000
 20
214.411758
 11
-348.000000
 21
189.000000
  0
LINE
  8
0
 10
-348.000000
 20
171.000000
 11
-348.000000
 21
145.588242
  0
LINE
  8
0
 10
-348.000000
 20
136.359009
 11
-348.000000
 21
135.000000
  0
LINE
  8
0
 10
-309.799988
 20
132.664337
 11
-309.799988
 21
131.179413
  0
ARC
  8
0
 10
-285.878540
 20
169.642853
 40
3.578573
 50
330.956451
 51
29.043570
  0
ARC
  8
0
 10
-291.646790
 20
174.245377
 40
9.346816
 50
342.148773
 51
17.851233
  0
ARC
  8
0
 10
-283.938629
 20
178.238556
 40
1.638649
 50
316.501282
 51
43.498322
  0
ARC
  8
0
 10
-289.184143
 20
189.013550
 40
6.884176
 50
339.168823
 51
20.831175
  0
ARC
  8
0
 10
-289.743530
 20
184.016586
 40
7.443554
 50
339.975433
 51
20.024780
  0
ARC
  8
0
 10
-298.050140
 20
155.251251
 40
14.450146
 50
335.510284
 51
24.489676
  0
ARC
  8
0
 10
-298.050140
 20
204.748718
 40
14.450146
 50
335.510284
 51
24.489681
  0
ARC
  8
0
 10
-286.949982
 20
164.950699
 40
4.099995
 50
299.999847
 51
0.000000
  0
ARC
  8
0
 10
-286.949982
 20
165.049286
 40
4.100006
 50
0.000000
 51
44.159069
  0
ARC
  8
0
 10
-286.949982
 20
194.950699
 40
4.099995
 50
301.680756
 51
0.000000
  0
ARC
  8
0
 10
-286.949982
 20
195.049286
 40
4.100006
 50
0.000000
 51
60.000153
  0
CIRCLE
  8
0
 10
-322.299988
 20
180.000000
 40
2.700000
  0
CIRCLE
  8
0
 10
-308.299988
 20
128.380127
 40
0.010000
  0
ARC
  8
0
 10
-323.550018
 20
126.931747
 40
0.500000
 50
90.000000
 51
180.000000
  0
ARC
  8
0
 10
-316.149994
 20
126.931747
 40
0.500000
 50
0.000000
 51
90.000000
  0
ARC
  8
0
 10
-315.350006
 20
125.517532
 40
0.500000
 50
0.000000
 51
90.000000
  0
ARC
  8
0
 10
-324.350006
 20
125.517532
 40
0.500000
 50
90.000000
 51
180.000000
  0
ARC
  8
0
 10
-324.350006
 20
116.118042
 40
0.500000
 50
180.000000
 51
270.000000
  0
ARC
  8
0
 10
-315.350006
 20
116.118042
 40
0.500000
 50
270.000000
 51
0.000000
  0
ARC
  8
0
 10
-316.149994
 20
115.269501
 40
0.500000
 50
270.000000
 51
0.000000
  0
ARC
  8
0
 10
-323.550018
 20
115.269501
 40
0.500000
 50
180.000000
 51
270.000000
  0
ARC
  8
0
 10
-323.550018
 20
122.133484
 40
0.500000
 50
180.000000
 51
270.000000
  0
ARC
  8
0
 10
-331.299988
 20
133.310806
 40
1.000000
 50
180.000000
 51
270.000000
  0
ARC
  8
0
 10
-313.500000
 20
233.397552
 40
2.000000
 50
90.000000
 51
180.000000
  0
ARC
  8
0
 10
-305.500000
 20
233.397552
 40
2.000000
 50
0.000000
 51
90.000000
  0
ARC
  8
0
 10
-348.822571
 20
222.641586
 40
1.000000
 50
90.000000
 51
174.261398
  0
ARC
  8
0
 10
-348.822662
 20
137.359375
 40
0.999991
 50
185.641174
 51
270.000000
  0
ARC
  8
0
 10
-331.299988
 20
126.239731
 40
1.000000
 50
180.000000
 51
267.132965
  0
ARC
  8
0
 10
-316.150024
 20
122.133484
 40
0.500000
 50
270.000000
 51
0.000000
  0
ARC
  8
0
 10
-323.009888
 20
143.230438
 40
1.309888
 50
345.893188
 51
14.106822
  0
ARC
  8
0
 10
-323.352325
 20
143.104904
 40
1.673033
 50
15.418097
 51
51.387524
  0
ARC
  8
0
 10
-324.299988
 20
141.720383
 40
3.348563
 50
53.501526
 51
126.498474
  0
ARC
  8
0
 10
-325.247650
 20
143.104904
 40
1.673052
 50
128.612473
 51
164.581909
  0
ARC
  8
0
 10
-325.590088
 20
143.230438
 40
1.309888
 50
165.893173
 51
194.106827
  0
ARC
  8
0
 10
-325.247650
 20
143.355972
 40
1.673033
 50
195.418091
 51
231.387527
  0
ARC
  8
0
 10
-324.299988
 20
144.740494
 40
3.348563
 50
233.501526
 51
306.498474
  0
ARC
  8
0
 10
-323.352325
 20
143.355972
 40
1.673052
 50
308.612488
 51
344.581909
  0
ARC
  8
0
 10
-323.009918
 20
216.769562
 40
1.309918
 50
345.893494
 51
14.106497
  0
ARC
  8
0
 10
-323.352325
 20
216.644028
 40
1.673033
 50
15.418097
 51
51.388344
  0
ARC
  8
0
 10
-324.299988
 20
215.259521
 40
3.348532
 50
53.501789
 51
126.498207
  0
ARC
  8
0
 10
-325.247650
 20
216.644028
 40
1.673033
 50
128.611664
 51
164.581909
  0
ARC
  8
0
 10
-325.590057
 20
216.769562
 40
1.309918
 50
165.893509
 51
194.106491
  0
ARC
  8
0
 10
-325.247650
 20
216.895096
 40
1.673033
 50
195.418091
 51
231.388336
  0
ARC
  8
0
 10
-324.299988
 20
218.279602
 40
3.348532
 50
233.501785
 51
306.498199
  0
ARC
  8
0
 10
-323.352325
 20
216.895096
 40
1.673033
 50
308.611664
 51
344.581909
  0
ARC
  8
0
 10
-282.749969
 20
182.939301
 40
1.672821
 50
270.000000
 51
281.892426
  0
ARC
  8
0
 10
-282.438293
 20
181.497696
 40
0.198089
 50
279.604523
 51
311.583679
  0
ARC
  8
0
 10
-282.325684
 20
181.366989
 40
0.025698
 50
317.213684
 51
42.786308
  0
ARC
  8
0
 10
-282.438293
 20
181.236282
 40
0.198082
 50
48.416309
 51
80.395462
  0
ARC
  8
0
 10
-282.749969
 20
179.794678
 40
1.672822
 50
78.107574
 51
90.000000
  0
ARC
  8
0
 10
-319.850006
 20
121.640869
 40
4.532874
 50
245.097794
 51
294.888184
  0
ARC
  8
0
 10
-318.386200
 20
118.239357
 40
1.486227
 50
354.668701
 51
14.106438
  0
ARC
  8
0
 10
-318.774719
 20
118.096924
 40
1.898239
 50
15.417928
 51
51.388382
  0
ARC
  8
0
 10
-319.849976
 20
116.525978
 40
3.799348
 50
53.502098
 51
126.497902
  0
ARC
  8
0
 10
-320.925232
 20
118.096924
 40
1.898234
 50
128.611618
 51
164.582291
  0
ARC
  8
0
 10
-321.313751
 20
118.239357
 40
1.486222
 50
165.893845
 51
185.354065
  0
ARC
  8
0
 10
-327.631317
 20
122.906265
 40
0.425080
 50
345.893921
 51
14.107077
  0
ARC
  8
0
 10
-327.742432
 20
122.865532
 40
0.542915
 50
15.418174
 51
51.388477
  0
ARC
  8
0
 10
-328.049988
 20
122.416199
 40
1.086699
 50
53.502033
 51
126.498207
  0
ARC
  8
0
 10
-328.357544
 20
122.865524
 40
0.542927
 50
128.611526
 51
164.581833
  0
ARC
  8
0
 10
-328.468658
 20
122.906265
 40
0.425080
 50
165.893921
 51
194.107071
  0
ARC
  8
0
 10
-328.357544
 20
122.946999
 40
0.542915
 50
195.418167
 51
231.388474
  0
ARC
  8
0
 10
-328.049988
 20
123.396332
 40
1.086699
 50
233.502029
 51
306.498199
  0
ARC
  8
0
 10
-327.742432
 20
122.947006
 40
0.542927
 50
308.611511
 51
344.581818
  0
ARC
  8
0
 10
-343.119720
 20
139.062927
 40
2.130293
 50
176.237656
 51
191.772812
  0
ARC
  8
0
 10
-342.902161
 20
139.129395
 40
2.356927
 50
192.275543
 51
225.305038
  0
ARC
  8
0
 10
-342.300018
 20
139.862473
 40
3.302728
 50
226.824173
 51
305.007294
  0
ARC
  8
0
 10
-320.594299
 20
130.401581
 40
0.755707
 50
180.000000
 51
194.105835
  0
ARC
  8
0
 10
-320.396759
 20
130.473999
 40
0.965183
 50
195.417343
 51
231.388000
  0
ARC
  8
0
 10
-319.850006
 20
131.272812
 40
1.931895
 50
233.502090
 51
306.497894
  0
ARC
  8
0
 10
-319.303253
 20
130.473999
 40
0.965198
 50
308.612000
 51
344.581787
  0
ARC
  8
0
 10
-319.105713
 20
130.401581
 40
0.755700
 50
345.893036
 51
0.000000
  0
ARC
  8
0
 10
-342.300018
 20
137.349533
 40
3.799329
 50
60.139240
 51
126.497765
  0
ARC
  8
0
 10
-343.375275
 20
138.920486
 40
1.898240
 50
128.611465
 51
164.581848
  0
ARC
  8
0
 10
-343.763794
 20
139.062912
 40
1.486228
 50
165.892990
 51
185.353775
  0
ARC
  8
0
 10
-327.305695
 20
122.906265
 40
0.755698
 50
345.893616
 51
14.106391
  0
ARC
  8
0
 10
-327.503235
 20
122.833839
 40
0.965187
 50
15.418217
 51
51.388287
  0
ARC
  8
0
 10
-328.049988
 20
122.035042
 40
1.931889
 50
53.501961
 51
126.498039
  0
ARC
  8
0
 10
-328.596741
 20
122.833839
 40
0.965204
 50
128.611710
 51
164.581787
  0
ARC
  8
0
 10
-328.794281
 20
122.906265
 40
0.755698
 50
165.893616
 51
194.106384
  0
ARC
  8
0
 10
-328.596741
 20
122.978691
 40
0.965187
 50
195.418213
 51
231.388290
  0
ARC
  8
0
 10
-328.049988
 20
123.777489
 40
1.931889
 50
233.501953
 51
306.498047
  0
ARC
  8
0
 10
-327.503235
 20
122.978691
 40
0.965204
 50
308.611725
 51
344.581787
  0
ARC
  8
0
 10
-342.300049
 20
142.464417
 40
4.532881
 50
245.097824
 51
294.888092
  0
ARC
  8
0
 10
-320.669678
 20
118.239349
 40
2.130295
 50
176.237045
 51
191.773209
  0
ARC
  8
0
 10
-320.452118
 20
118.305817
 40
2.356930
 50
192.275894
 51
225.305573
  0
ARC
  8
0
 10
-319.849976
 20
119.038918
 40
3.302724
 50
226.824829
 51
313.174988
  0
ARC
  8
0
 10
-319.247833
 20
118.305817
 40
2.356934
 50
314.694183
 51
347.723724
  0
ARC
  8
0
 10
-319.030273
 20
118.239349
 40
2.130298
 50
348.226379
 51
356.237244
  0
POLYLINE
  8
0
 66
     1
  0
VERTEX
  8
0
 10
-349.817474
 20
222.742355
  0
VERTEX
  8
0
 10
-349.831940
 20
222.490585
  0
VERTEX
  8
0
 10
-349.789215
 20
222.044891
  0
VERTEX
  8
0
 10
-349.704163
 20
221.295914
  0
VERTEX
  8
0
 10
-349.609436
 20
220.560074
  0
VERTEX
  8
0
 10
-349.504364
 20
219.889130
  0
VERTEX
  8
0
 10
-349.351990
 20
219.121017
  0
VERTEX
  8
0
 10
-349.156952
 20
218.292267
  0
VERTEX
  8
0
 10
-348.976471
 20
217.587463
  0
VERTEX
  8
0
 10
-348.784821
 20
216.886642
  0
VERTEX
  8
0
 10
-348.589508
 20
216.216354
  0
VERTEX
  8
0
 10
-348.305176
 20
215.310745
  0
VERTEX
  8
0
 10
-348.000000
 20
214.411758
  0
SEQEND
  0
POLYLINE
  8
0
 66
     1
  0
VERTEX
  8
0
 10
-348.000000
 20
145.588242
  0
VERTEX
  8
0
 10
-348.300598
 20
144.704422
  0
VERTEX
  8
0
 10
-348.589508
 20
143.783646
  0
VERTEX
  8
0
 10
-348.794830
 20
143.076721
  0
VERTEX
  8
0
 10
-348.988403
 20
142.366226
  0
VERTEX
  8
0
 10
-349.156952
 20
141.707733
  0
VERTEX
  8
0
 10
-349.338348
 20
140.943512
  0
VERTEX
  8
0
 10
-349.504364
 20
140.110870
  0
VERTEX
  8
0
 10
-349.622467
 20
139.344925
  0
VERTEX
  8
0
 10
-349.719818
 20
138.572830
  0
VERTEX
  8
0
 10
-349.789215
 20
137.955109
  0
VERTEX
  8
0
 10
-349.821899
 20
137.608337
  0
VERTEX
  8
0
 10
-349.817841
 20
137.261368
  0
SEQEND
  0
POLYLINE
  8
0
 66
     1
  0
VERTEX
  8
0
 10
-348.000000
 20
189.000000
  0
VERTEX
  8
0
 10
-348.117096
 20
188.164841
  0
VERTEX
  8
0
 10
-348.330322
 20
187.392990
  0
VERTEX
  8
0
 10
-348.577087
 20
186.835052
  0
VERTEX
  8
0
 10
-348.872559
 20
186.195343
  0
VERTEX
  8
0
 10
-349.102753
 20
185.557068
  0
VERTEX
  8
0
 10
-349.274872
 20
184.898163
  0
VERTEX
  8
0
 10
-349.414795
 20
184.199265
  0
VERTEX
  8
0
 10
-349.545380
 20
183.412674
  0
VERTEX
  8
0
 10
-349.651581
 20
182.624512
  0
VERTEX
  8
0
 10
-349.726654
 20
181.883820
  0
VERTEX
  8
0
 10
-349.782532
 20
180.943130
  0
VERTEX
  8
0
 10
-349.800018
 20
180.000000
  0
VERTEX
  8
0
 10
-349.784821
 20
179.084946
  0
VERTEX
  8
0
 10
-349.726654
 20
178.116180
  0
VERTEX
  8
0
 10
-349.647064
 20
177.332397
  0
VERTEX
  8
0
 10
-349.540436
 20
176.551086
  0
VERTEX
  8
0
 10
-349.414795
 20
175.800735
  0
VERTEX
  8
0
 10
-349.267609
 20
175.095749
  0
VERTEX
  8
0
 10
-349.082855
 20
174.401352
  0
VERTEX
  8
0
 10
-348.872559
 20
173.804657
  0
VERTEX
  8
0
 10
-348.602539
 20
173.227356
  0
VERTEX
  8
0
 10
-348.330322
 20
172.607010
  0
VERTEX
  8
0
 10
-348.109955
 20
171.816116
  0
VERTEX
  8
0
 10
-348.000000
 20
171.000000
  0
SEQEND
  0
POINT
  8
0
 10
-303.500000
 20
4.000000
  0
POINT
  8
0
 10
-335.000000
 20
4.000000
  0
LINE
  8
0
 10
-327.000000
 20
14.761001
 11
-327.000000
 21
-18.273861
  0
LINE
  8
0
 10
-313.500000
 20
45.296295
 11
-305.500000
 21
45.296295
  0
LINE
  8
0
 10
-313.500000
 20
35.550446
 11
-305.500000
 21
35.550446
  0
LINE
  8
0
 10
-315.500000
 20
5.435828
 11
-303.500000
 21
5.435828
  0
LINE
  8
0
 10
-315.500000
 20
-22.891668
 11
-303.500000
 21
-22.891668
  0
LINE
  8
0
 10
-327.000000
 20
6.474874
 11
-318.500000
 21
6.474874
  0
LINE
  8
0
 10
-327.000000
 20
0.818020
 11
-320.500000
 21
0.818020
  0
LINE
  8
0
 10
-327.000000
 20
-18.273861
 11
-320.499969
 21
-18.273861
  0
LINE
  8
0
 10
-315.500000
 20
30.990267
 11
-316.267883
 21
31.930708
  0
LINE
  8
0
 10
-317.335236
 20
31.930803
 11
-316.267914
 21
31.930803
  0
LINE
  8
0
 10
-316.799988
 20
27.688162
 11
-316.267944
 21
27.688162
  0
LINE
  8
0
 10
-316.267914
 20
27.688065
 11
-315.500000
 21
28.628559
  0
LINE
  8
0
 10
-316.799988
 20
29.102377
 11
-316.267914
 21
29.102377
  0
LINE
  8
0
 10
-315.690552
 20
28.395206
 11
-316.267883
 21
29.102285
  0
LINE
  8
0
 10
-316.267914
 20
31.930716
 11
-316.267914
 21
29.102289
  0
LINE
  8
0
 10
-315.500000
 20
-21.798904
 11
-315.500000
 21
-43.335670
  0
LINE
  8
0
 10
-302.299988
 20
49.396252
 11
-324.700012
 21
49.396252
  0
LINE
  8
0
 10
-302.299988
 20
42.305084
 11
-303.500000
 21
42.305084
  0
LINE
  8
0
 10
-316.000000
 20
44.800060
 11
-324.700012
 21
44.800060
  0
LINE
  8
0
 10
-303.500000
 20
48.396252
 11
-303.500000
 21
-47.355564
  0
LINE
  8
0
 10
-315.500000
 20
48.396252
 11
-315.500000
 21
4.347341
  0
LINE
  8
0
 10
-317.200012
 20
45.648590
 11
-323.500000
 21
45.648590
  0
LINE
  8
0
 10
-301.320984
 20
45.047726
 11
-302.299988
 21
45.047726
  0
LINE
  8
0
 10
-302.299988
 20
56.972420
 11
-302.299988
 21
42.305084
  0
LINE
  8
0
 10
-313.500000
 20
-39.609566
 11
-305.500000
 21
-39.609566
  0
LINE
  8
0
 10
-303.500000
 20
48.396252
 11
-316.000000
 21
48.396252
  0
LINE
  8
0
 10
-333.799988
 20
12.000000
 11
-329.299988
 21
12.000000
  0
LINE
  8
0
 10
-329.299988
 20
38.000065
 11
-315.500000
 21
38.000065
  0
LINE
  8
0
 10
-329.299988
 20
69.762009
 11
-287.299988
 21
69.762009
  0
LINE
  8
0
 10
-329.299988
 20
99.000061
 11
-287.299988
 21
99.000061
  0
LINE
  8
0
 10
-287.299988
 20
90.632889
 11
-282.750000
 21
90.632889
  0
LINE
  8
0
 10
-287.299988
 20
86.021973
 11
-282.750000
 21
86.021973
  0
LINE
  8
0
 10
-287.299988
 20
80.707428
 11
-282.750000
 21
80.707428
  0
LINE
  8
0
 10
-287.299988
 20
80.003815
 11
-282.575073
 21
80.003815
  0
LINE
  8
0
 10
-282.299988
 20
87.818359
 11
-275.600006
 21
87.818359
  0
LINE
  8
0
 10
-282.299988
 20
82.818359
 11
-275.600006
 21
82.818359
  0
LINE
  8
0
 10
-287.299988
 20
38.584335
 11
-285.299988
 21
38.584335
  0
LINE
  8
0
 10
-284.055420
 20
63.334335
 11
-271.500000
 21
63.334335
  0
LINE
  8
0
 10
-285.299988
 20
40.834335
 11
-271.500000
 21
40.834335
  0
LINE
  8
0
 10
-329.299988
 20
99.039062
 11
-329.299988
 21
63.922169
  0
LINE
  8
0
 10
-287.299988
 20
99.000061
 11
-287.299988
 21
60.972420
  0
LINE
  8
0
 10
-282.299988
 20
88.327438
 11
-282.299988
 21
80.355629
  0
LINE
  8
0
 10
-275.299988
 20
87.518372
 11
-275.299988
 21
83.118362
  0
LINE
  8
0
 10
-271.299988
 20
63.134346
 11
-271.299988
 21
41.034344
  0
LINE
  8
0
 10
-275.599976
 20
87.818413
 11
-275.299988
 21
87.518417
  0
LINE
  8
0
 10
-275.600006
 20
82.818390
 11
-275.299988
 21
83.118378
  0
LINE
  8
0
 10
-275.600006
 20
87.818367
 11
-275.600006
 21
82.818367
  0
LINE
  8
0
 10
-275.350037
 20
83.068359
 11
-282.299988
 21
83.068359
  0
LINE
  8
0
 10
-275.349976
 20
87.568359
 11
-282.299988
 21
87.568359
  0
LINE
  8
0
 10
-271.500092
 20
63.334270
 11
-271.300079
 21
63.134270
  0
LINE
  8
0
 10
-271.500000
 20
40.834343
 11
-271.300018
 21
41.034348
  0
LINE
  8
0
 10
-333.800018
 20
99.000000
 11
-329.299988
 21
99.000000
  0
LINE
  8
0
 10
-333.800018
 20
69.800003
 11
-329.299988
 21
69.800003
  0
LINE
  8
0
 10
-301.000488
 20
63.330345
 11
-301.000488
 21
63.040779
  0
LINE
  8
0
 10
-295.800507
 20
63.326984
 11
-295.800507
 21
63.044140
  0
LINE
  8
0
 10
-294.346161
 20
60.972416
 11
-294.399994
 21
64.741203
  0
LINE
  8
0
 10
-308.299652
 20
67.640656
 11
-298.248840
 21
67.567551
  0
LINE
  8
0
 10
-308.299652
 20
66.226425
 11
-298.248840
 21
66.153336
  0
LINE
  8
0
 10
-284.900024
 20
48.484337
 11
-284.900024
 21
55.684338
  0
LINE
  8
0
 10
-282.850006
 20
52.035042
 11
-282.850006
 21
52.133636
  0
LINE
  8
0
 10
-284.900024
 20
55.684338
 11
-285.299988
 21
55.684338
  0
LINE
  8
0
 10
-284.900024
 20
48.484337
 11
-285.299988
 21
48.484337
  0
LINE
  8
0
 10
-284.900024
 20
60.943554
 11
-284.900024
 21
72.923615
  0
LINE
  8
0
 10
-284.899994
 20
72.923645
 11
-287.300018
 21
73.133614
  0
LINE
  8
0
 10
-340.400024
 20
94.413475
 11
-340.400024
 21
84.786522
  0
LINE
  8
0
 10
-340.000000
 20
94.599998
 11
-340.000000
 21
84.599998
  0
LINE
  8
0
 10
-340.000000
 20
94.599998
 11
-334.400024
 21
94.599998
  0
LINE
  8
0
 10
-340.000000
 20
84.599998
 11
-334.400024
 21
84.599998
  0
LINE
  8
0
 10
-340.400024
 20
94.413483
 11
-340.000031
 21
94.600006
  0
LINE
  8
0
 10
-340.399994
 20
84.786537
 11
-340.000000
 21
84.600014
  0
LINE
  8
0
 10
-340.000000
 20
92.599998
 11
-336.954712
 21
92.599998
  0
LINE
  8
0
 10
-340.000000
 20
90.599998
 11
-338.109406
 21
90.599998
  0
LINE
  8
0
 10
-340.000000
 20
88.599998
 11
-339.264099
 21
88.599998
  0
LINE
  8
0
 10
-340.400024
 20
74.613480
 11
-340.400024
 21
64.986526
  0
LINE
  8
0
 10
-340.000000
 20
74.800003
 11
-340.000000
 21
64.800003
  0
LINE
  8
0
 10
-340.000000
 20
74.800003
 11
-334.400024
 21
74.800003
  0
LINE
  8
0
 10
-340.000000
 20
64.800003
 11
-334.400024
 21
64.800003
  0
LINE
  8
0
 10
-340.400024
 20
74.613495
 11
-340.000031
 21
74.800018
  0
LINE
  8
0
 10
-340.399994
 20
64.986572
 11
-340.000000
 21
64.800049
  0
LINE
  8
0
 10
-340.000000
 20
72.800003
 11
-336.954712
 21
72.800003
  0
LINE
  8
0
 10
-340.000000
 20
70.800003
 11
-338.109406
 21
70.800003
  0
LINE
  8
0
 10
-340.000000
 20
68.800003
 11
-339.264099
 21
68.800003
  0
LINE
  8
0
 10
-316.799988
 20
16.240784
 11
-316.799988
 21
31.681213
  0
LINE
  8
0
 10
-317.400024
 20
15.960999
 11
-317.400024
 21
31.960999
  0
LINE
  8
0
 10
-317.400024
 20
15.961000
 11
-326.799988
 21
15.961000
  0
LINE
  8
0
 10
-317.399994
 20
31.961000
 11
-326.799988
 21
31.961000
  0
LINE
  8
0
 10
-316.800018
 20
16.240776
 11
-317.400024
 21
15.960990
  0
LINE
  8
0
 10
-316.799988
 20
31.681225
 11
-317.399994
 21
31.961008
  0
LINE
  8
0
 10
-317.400024
 20
17.961000
 11
-323.295288
 21
17.961000
  0
LINE
  8
0
 10
-317.400024
 20
19.961000
 11
-322.140625
 21
19.961000
  0
LINE
  8
0
 10
-317.400024
 20
21.961000
 11
-320.985901
 21
21.961000
  0
LINE
  8
0
 10
-317.400024
 20
23.961000
 11
-319.831177
 21
23.961000
  0
LINE
  8
0
 10
-317.400024
 20
25.961000
 11
-318.676514
 21
25.961000
  0
LINE
  8
0
 10
-317.400024
 20
27.961000
 11
-317.521790
 21
27.961000
  0
LINE
  8
0
 10
-334.399994
 20
94.849998
 11
-334.399994
 21
84.349998
  0
LINE
  8
0
 10
-326.799988
 20
33.160999
 11
-326.799988
 21
14.761001
  0
LINE
  8
0
 10
-326.799988
 20
33.160999
 11
-329.299988
 21
33.160999
  0
LINE
  8
0
 10
-326.799988
 20
14.761001
 11
-329.299988
 21
14.761001
  0
LINE
  8
0
 10
-334.400024
 20
75.050003
 11
-333.799988
 21
75.050003
  0
LINE
  8
0
 10
-334.400024
 20
64.550003
 11
-333.799988
 21
64.550003
  0
LINE
  8
0
 10
-334.400024
 20
94.849998
 11
-333.799988
 21
94.849998
  0
LINE
  8
0
 10
-334.400024
 20
84.349998
 11
-333.799988
 21
84.349998
  0
LINE
  8
0
 10
-334.399994
 20
75.050003
 11
-334.399994
 21
64.550003
  0
LINE
  8
0
 10
-329.299988
 20
22.517626
 11
-326.800018
 21
23.960999
  0
LINE
  8
0
 10
-329.300018
 20
23.672321
 11
-326.800018
 21
25.115696
  0
LINE
  8
0
 10
-333.799988
 20
99.000000
 11
-333.799988
 21
48.472630
  0
LINE
  8
0
 10
-340.000000
 20
60.499996
 11
-340.000000
 21
48.472630
  0
LINE
  8
0
 10
-340.000000
 20
-52.500004
 11
-333.799988
 21
-52.500004
  0
LINE
  8
0
 10
-340.000000
 20
60.499996
 11
-333.799988
 21
60.499996
  0
LINE
  8
0
 10
-323.550018
 20
60.952312
 11
-316.150024
 21
60.952312
  0
LINE
  8
0
 10
-324.350006
 20
62.932217
 11
-315.350006
 21
62.932217
  0
LINE
  8
0
 10
-324.350006
 20
68.381958
 11
-315.350006
 21
68.381958
  0
LINE
  8
0
 10
-323.550018
 20
69.230499
 11
-316.150024
 21
69.230499
  0
LINE
  8
0
 10
-323.550018
 20
56.568256
 11
-316.150024
 21
56.568256
  0
LINE
  8
0
 10
-315.650024
 20
57.068256
 11
-315.650024
 21
61.866520
  0
LINE
  8
0
 10
-314.850006
 20
58.482464
 11
-314.850006
 21
67.881958
  0
LINE
  8
0
 10
-324.050018
 20
57.068256
 11
-324.050018
 21
61.866520
  0
LINE
  8
0
 10
-324.850006
 20
58.482468
 11
-324.850006
 21
67.881958
  0
LINE
  8
0
 10
-323.550018
 20
62.366520
 11
-316.150024
 21
62.366520
  0
LINE
  8
0
 10
-325.350006
 20
57.982468
 11
-324.050018
 21
57.982468
  0
LINE
  8
0
 10
-324.050018
 20
68.381958
 11
-324.050018
 21
68.730499
  0
LINE
  8
0
 10
-315.650024
 20
68.381958
 11
-315.650024
 21
68.730499
  0
LINE
  8
0
 10
-315.650024
 20
57.982468
 11
-314.350006
 21
57.982468
  0
LINE
  8
0
 10
-331.350006
 20
58.265312
 11
-325.350006
 21
58.265312
  0
LINE
  8
0
 10
-314.350006
 20
57.982468
 11
-314.350006
 21
63.922165
  0
LINE
  8
0
 10
-316.350006
 20
50.769978
 11
-316.350006
 21
56.568256
  0
LINE
  8
0
 10
-323.350006
 20
50.769981
 11
-323.350006
 21
56.568256
  0
LINE
  8
0
 10
-314.350006
 20
58.265312
 11
-309.350006
 21
58.265312
  0
LINE
  8
0
 10
-318.349976
 20
53.598404
 11
-318.349976
 21
50.769981
  0
LINE
  8
0
 10
-321.350006
 20
53.598412
 11
-321.350006
 21
50.769981
  0
LINE
  8
0
 10
-323.350006
 20
50.769981
 11
-321.350006
 21
50.769981
  0
LINE
  8
0
 10
-318.350006
 20
50.769981
 11
-316.350006
 21
50.769981
  0
LINE
  8
0
 10
-309.350006
 20
52.820587
 11
-309.350006
 21
63.922165
  0
LINE
  8
0
 10
-331.350006
 20
63.922169
 11
-325.350006
 21
63.922169
  0
LINE
  8
0
 10
-325.350006
 20
63.639324
 11
-324.850006
 21
63.639324
  0
LINE
  8
0
 10
-314.850006
 20
63.639324
 11
-314.350006
 21
63.639324
  0
LINE
  8
0
 10
-314.350006
 20
63.922169
 11
-309.350006
 21
63.922169
  0
LINE
  8
0
 10
-331.350006
 20
52.820587
 11
-323.350006
 21
52.820587
  0
LINE
  8
0
 10
-321.350006
 20
52.396324
 11
-318.350006
 21
52.396324
  0
LINE
  8
0
 10
-321.350006
 20
51.335670
 11
-318.350006
 21
51.335670
  0
LINE
  8
0
 10
-321.350006
 20
52.820587
 11
-318.350006
 21
52.820587
  0
LINE
  8
0
 10
-316.350006
 20
52.820587
 11
-309.350006
 21
52.820587
  0
LINE
  8
0
 10
-316.350006
 20
52.396324
 11
-309.799988
 21
52.396324
  0
LINE
  8
0
 10
-316.350006
 20
51.335670
 11
-309.799988
 21
51.335670
  0
LINE
  8
0
 10
-324.349976
 20
51.689190
 11
-323.349976
 21
52.396290
  0
LINE
  8
0
 10
-324.350006
 20
50.628540
 11
-323.350006
 21
51.335640
  0
LINE
  8
0
 10
-330.799988
 20
50.628540
 11
-324.350006
 21
50.628540
  0
LINE
  8
0
 10
-331.299988
 20
51.689194
 11
-324.350006
 21
51.689194
  0
LINE
  8
0
 10
-324.350006
 20
50.628540
 11
-324.350006
 21
51.689194
  0
LINE
  8
0
 10
-345.800018
 20
40.330059
 11
-344.300018
 21
40.330059
  0
LINE
  8
0
 10
-347.300018
 20
41.401554
 11
-344.300018
 21
41.401554
  0
LINE
  8
0
 10
-347.300018
 20
48.472630
 11
-344.300018
 21
48.472630
  0
LINE
  8
0
 10
-347.300018
 20
38.324860
 11
-347.300018
 21
48.472630
  0
LINE
  8
0
 10
-345.800018
 20
39.472145
 11
-345.800018
 21
40.330059
  0
LINE
  8
0
 10
-344.300018
 20
37.264198
 11
-344.300018
 21
41.401554
  0
LINE
  8
0
 10
-340.300018
 20
37.264198
 11
-340.300018
 21
41.401554
  0
LINE
  8
0
 10
-340.300018
 20
40.330059
 11
-333.800049
 21
40.330059
  0
LINE
  8
0
 10
-344.300018
 20
40.169243
 11
-340.300018
 21
40.169243
  0
LINE
  8
0
 10
-344.300018
 20
49.361633
 11
-340.300018
 21
49.361633
  0
LINE
  8
0
 10
-340.300018
 20
48.472630
 11
-332.300049
 21
48.472630
  0
LINE
  8
0
 10
-340.300018
 20
41.401554
 11
-332.300049
 21
41.401554
  0
LINE
  8
0
 10
-344.300018
 20
48.472630
 11
-344.300018
 21
49.361633
  0
LINE
  8
0
 10
-340.300018
 20
48.472630
 11
-340.300018
 21
49.361633
  0
LINE
  8
0
 10
-344.300018
 20
37.264198
 11
-340.300018
 21
37.264198
  0
LINE
  8
0
 10
-347.300018
 20
38.324856
 11
-344.300018
 21
38.324856
  0
LINE
  8
0
 10
-347.300018
 20
39.472145
 11
-344.300018
 21
39.472145
  0
LINE
  8
0
 10
-340.300018
 20
38.324856
 11
-340.000031
 21
38.324856
  0
LINE
  8
0
 10
-340.300018
 20
39.472145
 11
-340.000031
 21
39.472145
  0
LINE
  8
0
 10
-331.350006
 20
52.820587
 11
-331.350006
 21
63.922169
  0
LINE
  8
0
 10
-331.350006
 20
58.760273
 11
-331.299988
 21
58.760273
  0
LINE
  8
0
 10
-330.799988
 20
50.628540
 11
-330.799988
 21
39.087582
  0
LINE
  8
0
 10
-332.299988
 20
57.760273
 11
-332.299988
 21
39.087582
  0
LINE
  8
0
 10
-333.799988
 20
40.330059
 11
-333.799988
 21
-32.330059
  0
LINE
  8
0
 10
-340.000000
 20
40.330059
 11
-340.000000
 21
-32.330059
  0
LINE
  8
0
 10
-329.299988
 20
50.628540
 11
-329.299988
 21
12.000000
  0
LINE
  8
0
 10
-302.299988
 20
52.047722
 11
-301.320984
 21
52.047722
  0
LINE
  8
0
 10
-287.299988
 20
56.972420
 11
-287.299988
 21
38.000065
  0
LINE
  8
0
 10
-285.299988
 20
56.972420
 11
-285.299988
 21
38.584335
  0
LINE
  8
0
 10
-323.550018
 20
-52.952312
 11
-316.150024
 21
-52.952312
  0
LINE
  8
0
 10
-324.350006
 20
-54.932217
 11
-315.350006
 21
-54.932217
  0
LINE
  8
0
 10
-324.350006
 20
-60.381958
 11
-315.350006
 21
-60.381958
  0
LINE
  8
0
 10
-323.550018
 20
-61.230499
 11
-316.150024
 21
-61.230499
  0
LINE
  8
0
 10
-323.550018
 20
-48.568256
 11
-316.150024
 21
-48.568256
  0
LINE
  8
0
 10
-315.650024
 20
-49.068256
 11
-315.650024
 21
-53.866520
  0
LINE
  8
0
 10
-314.850006
 20
-50.482464
 11
-314.850006
 21
-59.881962
  0
LINE
  8
0
 10
-324.050018
 20
-49.068256
 11
-324.050018
 21
-53.866520
  0
LINE
  8
0
 10
-324.850006
 20
-50.482468
 11
-324.850006
 21
-59.881962
  0
LINE
  8
0
 10
-323.550018
 20
-54.366520
 11
-316.150024
 21
-54.366520
  0
LINE
  8
0
 10
-325.350006
 20
-49.982468
 11
-324.050018
 21
-49.982468
  0
LINE
  8
0
 10
-324.050018
 20
-60.381958
 11
-324.050018
 21
-60.730499
  0
LINE
  8
0
 10
-315.650024
 20
-60.381958
 11
-315.650024
 21
-60.730499
  0
LINE
  8
0
 10
-315.650024
 20
-49.982468
 11
-314.349976
 21
-49.982468
  0
LINE
  8
0
 10
-331.350006
 20
-50.265312
 11
-325.350006
 21
-50.265312
  0
LINE
  8
0
 10
-314.349976
 20
-49.982468
 11
-314.349976
 21
-55.922165
  0
LINE
  8
0
 10
-325.350006
 20
-49.982468
 11
-325.350006
 21
-55.922169
  0
LINE
  8
0
 10
-316.349976
 20
-42.769978
 11
-316.349976
 21
-48.568256
  0
LINE
  8
0
 10
-323.350006
 20
-42.769981
 11
-323.350006
 21
-48.568256
  0
LINE
  8
0
 10
-314.349976
 20
-50.265312
 11
-309.349976
 21
-50.265312
  0
LINE
  8
0
 10
-318.349976
 20
-45.598404
 11
-318.349976
 21
-42.769981
  0
LINE
  8
0
 10
-321.350006
 20
-45.598412
 11
-321.350006
 21
-42.769981
  0
LINE
  8
0
 10
-323.350006
 20
-42.769981
 11
-321.350006
 21
-42.769981
  0
LINE
  8
0
 10
-318.349976
 20
-42.769981
 11
-316.349976
 21
-42.769981
  0
LINE
  8
0
 10
-309.349976
 20
-44.820587
 11
-309.349976
 21
-55.922165
  0
LINE
  8
0
 10
-331.350006
 20
-55.922169
 11
-325.350006
 21
-55.922169
  0
LINE
  8
0
 10
-325.350006
 20
-55.639324
 11
-324.850006
 21
-55.639324
  0
LINE
  8
0
 10
-314.850006
 20
-55.639324
 11
-314.349976
 21
-55.639324
  0
LINE
  8
0
 10
-314.349976
 20
-55.922169
 11
-309.349976
 21
-55.922169
  0
LINE
  8
0
 10
-331.350006
 20
-44.820587
 11
-323.350006
 21
-44.820587
  0
LINE
  8
0
 10
-321.350006
 20
-44.396324
 11
-318.350006
 21
-44.396324
  0
LINE
  8
0
 10
-321.350006
 20
-43.335670
 11
-318.349976
 21
-43.335670
  0
LINE
  8
0
 10
-321.350006
 20
-44.820587
 11
-318.350006
 21
-44.820587
  0
LINE
  8
0
 10
-316.349976
 20
-44.820587
 11
-309.349976
 21
-44.820587
  0
LINE
  8
0
 10
-316.349976
 20
-44.396324
 11
-309.799988
 21
-44.396324
  0
LINE
  8
0
 10
-316.349976
 20
-43.335670
 11
-309.799988
 21
-43.335670
  0
LINE
  8
0
 10
-309.799988
 20
-43.335670
 11
-309.799988
 21
-44.820587
  0
LINE
  8
0
 10
-324.349976
 20
-43.689190
 11
-323.349976
 21
-44.396290
  0
LINE
  8
0
 10
-324.350006
 20
-42.628544
 11
-323.350006
 21
-43.335640
  0
LINE
  8
0
 10
-330.799988
 20
-42.628540
 11
-324.350006
 21
-42.628540
  0
LINE
  8
0
 10
-331.299988
 20
-43.689194
 11
-324.350006
 21
-43.689194
  0
LINE
  8
0
 10
-324.350006
 20
-42.628540
 11
-324.350006
 21
-43.689194
  0
LINE
  8
0
 10
-345.800018
 20
-32.330059
 11
-344.300018
 21
-32.330059
  0
LINE
  8
0
 10
-347.300018
 20
-33.401554
 11
-344.300018
 21
-33.401554
  0
LINE
  8
0
 10
-347.300018
 20
-40.472630
 11
-344.300018
 21
-40.472630
  0
LINE
  8
0
 10
-347.300018
 20
-30.324860
 11
-347.300018
 21
-40.472630
  0
LINE
  8
0
 10
-345.800018
 20
-31.472145
 11
-345.800018
 21
-32.330059
  0
LINE
  8
0
 10
-344.300018
 20
-29.264198
 11
-344.300018
 21
-33.401554
  0
LINE
  8
0
 10
-340.300018
 20
-29.264198
 11
-340.300018
 21
-33.401554
  0
LINE
  8
0
 10
-340.300018
 20
-32.330059
 11
-333.800049
 21
-32.330059
  0
LINE
  8
0
 10
-344.300018
 20
-32.169243
 11
-340.300018
 21
-32.169243
  0
LINE
  8
0
 10
-344.300018
 20
-41.361633
 11
-340.300018
 21
-41.361633
  0
LINE
  8
0
 10
-340.300018
 20
-40.472630
 11
-332.300049
 21
-40.472630
  0
LINE
  8
0
 10
-340.300018
 20
-33.401554
 11
-332.300049
 21
-33.401554
  0
LINE
  8
0
 10
-344.300018
 20
-40.472630
 11
-344.300018
 21
-41.361633
  0
LINE
  8
0
 10
-340.300018
 20
-40.472630
 11
-340.300018
 21
-41.361633
  0
LINE
  8
0
 10
-344.300018
 20
-29.264198
 11
-340.300018
 21
-29.264198
  0
LINE
  8
0
 10
-347.300018
 20
-30.324856
 11
-344.300018
 21
-30.324856
  0
LINE
  8
0
 10
-347.300018
 20
-31.472145
 11
-344.300018
 21
-31.472145
  0
LINE
  8
0
 10
-340.300018
 20
-30.324856
 11
-340.000031
 21
-30.324856
  0
LINE
  8
0
 10
-340.300018
 20
-31.472145
 11
-340.000031
 21
-31.472145
  0
LINE
  8
0
 10
-331.350006
 20
-44.820587
 11
-331.350006
 21
-55.922169
  0
LINE
  8
0
 10
-331.350006
 20
-50.760273
 11
-331.299988
 21
-50.760273
  0
LINE
  8
0
 10
-330.799988
 20
-42.628540
 11
-330.799988
 21
-31.087582
  0
LINE
  8
0
 10
-332.299988
 20
-49.760273
 11
-332.299988
 21
-31.087582
  0
LINE
  8
0
 10
-340.000000
 20
-40.472630
 11
-340.000000
 21
-52.500004
  0
LINE
  8
0
 10
-333.799988
 20
-40.472630
 11
-333.799988
 21
-52.500004
  0
LINE
  8
0
 10
-277.350006
 20
57.797421
 11
-275.850006
 21
57.797421
  0
LINE
  8
0
 10
-306.850006
 20
61.472424
 11
-306.850006
 21
56.472424
  0
LINE
  8
0
 10
-309.350006
 20
61.472420
 11
-306.850006
 21
61.472420
  0
LINE
  8
0
 10
-306.850006
 20
60.972420
 11
-280.350006
 21
60.972420
  0
LINE
  8
0
 10
-306.850006
 20
56.972420
 11
-280.350006
 21
56.972420
  0
LINE
  8
0
 10
-309.350006
 20
56.472420
 11
-306.850006
 21
56.472420
  0
LINE
  8
0
 10
-280.350006
 20
60.972420
 11
-280.350006
 21
56.972420
  0
LINE
  8
0
 10
-280.350006
 20
58.672421
 11
-277.350006
 21
58.672421
  0
LINE
  8
0
 10
-280.350006
 20
59.272419
 11
-277.350006
 21
59.272419
  0
LINE
  8
0
 10
-280.350006
 20
57.672421
 11
-277.350006
 21
57.672421
  0
LINE
  8
0
 10
-280.350006
 20
60.272419
 11
-277.350006
 21
60.272419
  0
LINE
  8
0
 10
-277.350006
 20
60.272419
 11
-277.350006
 21
59.272419
  0
LINE
  8
0
 10
-277.350006
 20
58.672421
 11
-277.350006
 21
57.672421
  0
LINE
  8
0
 10
-277.350006
 20
60.147419
 11
-275.850006
 21
60.147419
  0
LINE
  8
0
 10
-277.350006
 20
60.022419
 11
-275.850006
 21
60.022419
  0
LINE
  8
0
 10
-277.350006
 20
59.897419
 11
-275.850006
 21
59.897419
  0
LINE
  8
0
 10
-277.350006
 20
59.772419
 11
-275.850006
 21
59.772419
  0
LINE
  8
0
 10
-277.350006
 20
59.647419
 11
-275.850006
 21
59.647419
  0
LINE
  8
0
 10
-277.350006
 20
59.522419
 11
-275.850006
 21
59.522419
  0
LINE
  8
0
 10
-277.350006
 20
59.397419
 11
-275.850006
 21
59.397419
  0
LINE
  8
0
 10
-277.350006
 20
58.547421
 11
-275.850006
 21
58.547421
  0
LINE
  8
0
 10
-277.350006
 20
58.422421
 11
-275.850006
 21
58.422421
  0
LINE
  8
0
 10
-277.350006
 20
58.297421
 11
-275.850006
 21
58.297421
  0
LINE
  8
0
 10
-277.350006
 20
58.172421
 11
-275.850006
 21
58.172421
  0
LINE
  8
0
 10
-277.350006
 20
58.047421
 11
-275.850006
 21
58.047421
  0
LINE
  8
0
 10
-277.350006
 20
57.922421
 11
-275.850006
 21
57.922421
  0
LINE
  8
0
 10
-277.350006
 20
-52.022419
 11
-275.850006
 21
-52.022419
  0
LINE
  8
0
 10
-277.350006
 20
-52.147419
 11
-275.850006
 21
-52.147419
  0
LINE
  8
0
 10
-306.850006
 20
-48.472416
 11
-306.850006
 21
-53.472416
  0
LINE
  8
0
 10
-309.349976
 20
-48.472420
 11
-306.850006
 21
-48.472420
  0
LINE
  8
0
 10
-306.850006
 20
-48.972420
 11
-280.350006
 21
-48.972420
  0
LINE
  8
0
 10
-306.850006
 20
-52.972420
 11
-280.350006
 21
-52.972420
  0
LINE
  8
0
 10
-309.349976
 20
-53.472420
 11
-306.850006
 21
-53.472420
  0
LINE
  8
0
 10
-280.350006
 20
-48.972420
 11
-280.350006
 21
-52.972420
  0
LINE
  8
0
 10
-280.350006
 20
-51.272419
 11
-277.350006
 21
-51.272419
  0
LINE
  8
0
 10
-280.350006
 20
-50.672421
 11
-277.350006
 21
-50.672421
  0
LINE
  8
0
 10
-280.350006
 20
-52.272419
 11
-277.350006
 21
-52.272419
  0
LINE
  8
0
 10
-280.350006
 20
-49.672421
 11
-277.350006
 21
-49.672421
  0
LINE
  8
0
 10
-277.350006
 20
-49.672421
 11
-277.350006
 21
-50.672421
  0
LINE
  8
0
 10
-277.350006
 20
-51.272419
 11
-277.350006
 21
-52.272419
  0
LINE
  8
0
 10
-277.350006
 20
-49.797421
 11
-275.850006
 21
-49.797421
  0
LINE
  8
0
 10
-277.350006
 20
-49.922421
 11
-275.850006
 21
-49.922421
  0
LINE
  8
0
 10
-277.350006
 20
-50.047421
 11
-275.850006
 21
-50.047421
  0
LINE
  8
0
 10
-277.350006
 20
-50.172421
 11
-275.850006
 21
-50.172421
  0
LINE
  8
0
 10
-277.350006
 20
-50.297421
 11
-275.850006
 21
-50.297421
  0
LINE
  8
0
 10
-277.350006
 20
-50.422421
 11
-275.850006
 21
-50.422421
  0
LINE
  8
0
 10
-277.350006
 20
-50.547421
 11
-275.850006
 21
-50.547421
  0
LINE
  8
0
 10
-277.350006
 20
-51.397419
 11
-275.850006
 21
-51.397419
  0
LINE
  8
0
 10
-277.350006
 20
-51.522419
 11
-275.850006
 21
-51.522419
  0
LINE
  8
0
 10
-277.350006
 20
-51.647419
 11
-275.850006
 21
-51.647419
  0
LINE
  8
0
 10
-277.350006
 20
-51.772419
 11
-275.850006
 21
-51.772419
  0
LINE
  8
0
 10
-277.350006
 20
-51.897419
 11
-275.850006
 21
-51.897419
  0
LINE
  8
0
 10
-303.500000
 20
38.000065
 11
-287.299988
 21
38.000065
  0
LINE
  8
0
 10
-331.500000
 20
12.000000
 11
-331.500000
 21
-18.199997
  0
LINE
  8
0
 10
-352.500000
 20
59.000000
 11
-352.500000
 21
-51.000000
  0
LINE
  8
0
 10
-349.799988
 20
-45.000000
 11
-340.000000
 21
-45.000000
  0
LINE
  8
0
 10
-348.000000
 20
-25.000000
 11
-340.000000
 21
-25.000000
  0
LINE
  8
0
 10
-333.799988
 20
-18.500000
 11
-331.799988
 21
-18.500000
  0
LINE
  8
0
 10
-331.500000
 20
-8.500000
 11
-328.049988
 21
-8.500000
  0
LINE
  8
0
 10
-348.000000
 20
33.000000
 11
-340.000000
 21
33.000000
  0
LINE
  8
0
 10
-349.799988
 20
53.000000
 11
-340.000000
 21
53.000000
  0
LINE
  8
0
 10
-331.800018
 20
-18.499977
 11
-331.500000
 21
-18.199978
  0
LINE
  8
0
 10
-328.000000
 20
14.761001
 11
-328.000000
 21
-8.449995
  0
LINE
  8
0
 10
-328.049988
 20
-8.499981
 11
-328.000000
 21
-8.449981
  0
LINE
  8
0
 10
-352.500092
 20
-50.999950
 11
-349.800110
 21
-44.999950
  0
LINE
  8
0
 10
-352.500092
 20
58.999950
 11
-349.800110
 21
52.999950
  0
LINE
  8
0
 10
-348.000000
 20
48.299999
 11
-348.000000
 21
33.000000
  0
LINE
  8
0
 10
-348.000000
 20
-25.000000
 11
-348.000000
 21
-40.299999
  0
LINE
  8
0
 10
-348.000000
 20
19.302853
 11
-348.000000
 21
-11.302854
  0
LINE
  8
0
 10
-328.000000
 20
-8.449995
 11
-327.000000
 21
-8.449995
  0
LINE
  8
0
 10
-325.350006
 20
57.982468
 11
-325.350006
 21
63.922169
  0
LINE
  8
0
 10
-324.700012
 20
50.628525
 11
-324.700012
 21
44.800060
  0
LINE
  8
0
 10
-323.500000
 20
51.229584
 11
-323.500000
 21
45.648590
  0
LINE
  8
0
 10
-317.200012
 20
50.769981
 11
-317.200012
 21
45.648590
  0
LINE
  8
0
 10
-316.000000
 20
48.396252
 11
-316.000000
 21
44.800060
  0
LINE
  8
0
 10
-309.799988
 20
51.335670
 11
-309.799988
 21
52.820587
  0
CIRCLE
  8
0
 10
-311.399506
 20
48.301670
 40
0.010000
  0
CIRCLE
  8
0
 10
-317.199493
 20
48.301670
 40
0.010000
  0
ARC
  8
0
 10
-305.500000
 20
43.296295
 40
2.000000
 50
0.000000
 51
90.000000
  0
ARC
  8
0
 10
-313.500000
 20
43.296295
 40
2.000000
 50
90.000000
 51
180.000000
  0
ARC
  8
0
 10
-305.500000
 20
-47.355564
 40
1.999997
 50
306.057251
 51
0.000000
  0
ARC
  8
0
 10
-308.699982
 20
48.547714
 40
8.999982
 50
343.398468
 51
16.601637
  0
ARC
  8
0
 10
-301.320984
 20
46.347729
 40
1.299999
 50
270.000000
 51
343.398529
  0
ARC
  8
0
 10
-301.320984
 20
50.747723
 40
1.300010
 50
16.601463
 51
90.000000
  0
ARC
  8
0
 10
-282.662537
 20
80.355629
 40
0.362516
 50
256.038635
 51
103.961372
  0
ARC
  8
0
 10
-290.370728
 20
83.364700
 40
8.070724
 50
340.776855
 51
19.223158
  0
ARC
  8
0
 10
-288.430756
 20
88.327431
 40
6.130752
 50
337.910889
 51
22.089111
  0
CIRCLE
  8
0
 10
-310.850006
 20
55.619877
 40
0.010000
  0
CIRCLE
  8
0
 10
-298.400513
 20
62.301678
 40
0.010000
  0
CIRCLE
  8
0
 10
-318.199524
 20
48.301670
 40
0.010000
  0
ARC
  8
0
 10
-286.950012
 20
52.035046
 40
4.099995
 50
299.999847
 51
0.000000
  0
ARC
  8
0
 10
-286.950012
 20
52.133636
 40
4.100006
 50
0.000000
 51
60.000153
  0
ARC
  8
0
 10
-298.050171
 20
66.933578
 40
14.450170
 50
335.510345
 51
24.489708
  0
ARC
  8
0
 10
-323.550018
 20
57.068256
 40
0.500000
 50
180.000000
 51
270.000000
  0
ARC
  8
0
 10
-316.149994
 20
57.068256
 40
0.500000
 50
270.000000
 51
0.000000
  0
ARC
  8
0
 10
-315.350006
 20
58.482464
 40
0.500000
 50
270.000000
 51
0.000000
  0
ARC
  8
0
 10
-324.350006
 20
58.482468
 40
0.500000
 50
180.000000
 51
270.000000
  0
ARC
  8
0
 10
-324.350006
 20
67.881958
 40
0.500000
 50
90.000000
 51
180.000000
  0
ARC
  8
0
 10
-315.350006
 20
67.881958
 40
0.500000
 50
0.000000
 51
90.000000
  0
ARC
  8
0
 10
-316.149994
 20
68.730499
 40
0.500000
 50
0.000000
 51
90.000000
  0
ARC
  8
0
 10
-323.550018
 20
68.730499
 40
0.500000
 50
90.000000
 51
180.000000
  0
ARC
  8
0
 10
-323.550018
 20
61.866520
 40
0.500000
 50
90.000000
 51
180.000000
  0
ARC
  8
0
 10
-332.299988
 20
39.087582
 40
1.500000
 50
180.000000
 51
0.000000
  0
ARC
  8
0
 10
-331.299988
 20
50.689194
 40
1.000000
 50
90.000000
 51
180.000000
  0
ARC
  8
0
 10
-331.299988
 20
57.760273
 40
1.000000
 50
90.000000
 51
180.000000
  0
ARC
  8
0
 10
-313.500000
 20
46.396252
 40
2.000000
 50
90.000000
 51
180.000000
  0
ARC
  8
0
 10
-305.500000
 20
46.396252
 40
2.000000
 50
0.000000
 51
90.000000
  0
CIRCLE
  8
0
 10
-310.850006
 20
-47.619877
 40
0.010000
  0
ARC
  8
0
 10
-323.550018
 20
-49.068256
 40
0.500000
 50
90.000000
 51
180.000000
  0
ARC
  8
0
 10
-316.149994
 20
-49.068256
 40
0.500000
 50
0.000000
 51
90.000000
  0
ARC
  8
0
 10
-315.350006
 20
-50.482464
 40
0.500000
 50
0.000000
 51
90.000000
  0
ARC
  8
0
 10
-324.350006
 20
-50.482468
 40
0.500000
 50
90.000000
 51
180.000000
  0
ARC
  8
0
 10
-324.350006
 20
-59.881962
 40
0.500000
 50
180.000000
 51
270.000000
  0
ARC
  8
0
 10
-315.350006
 20
-59.881962
 40
0.499996
 50
270.000000
 51
0.000000
  0
ARC
  8
0
 10
-316.149994
 20
-60.730499
 40
0.500000
 50
270.000000
 51
0.000000
  0
ARC
  8
0
 10
-323.550018
 20
-60.730499
 40
0.500000
 50
180.000000
 51
270.000000
  0
ARC
  8
0
 10
-323.550018
 20
-53.866520
 40
0.500000
 50
180.000000
 51
270.000000
  0
ARC
  8
0
 10
-332.299988
 20
-31.087582
 40
1.500000
 50
0.000000
 51
180.000000
  0
ARC
  8
0
 10
-331.299988
 20
-42.689194
 40
1.000000
 50
180.000000
 51
270.000000
  0
ARC
  8
0
 10
-331.299988
 20
-49.760273
 40
1.000000
 50
180.000000
 51
270.000000
  0
ARC
  8
0
 10
-297.103210
 20
56.333332
 40
7.053196
 50
345.945892
 51
14.158751
  0
ARC
  8
0
 10
-298.946442
 20
55.655685
 40
9.008548
 50
15.470261
 51
51.440815
  0
ARC
  8
0
 10
-304.042603
 20
48.195610
 40
18.030888
 50
53.554482
 51
126.550133
  0
ARC
  8
0
 10
-309.152344
 20
55.646362
 40
9.008563
 50
128.663940
 51
164.634445
  0
ARC
  8
0
 10
-310.996826
 20
56.320637
 40
7.053196
 50
165.945892
 51
194.158752
  0
ARC
  8
0
 10
-309.153595
 20
56.998283
 40
9.008548
 50
195.470261
 51
231.440811
  0
ARC
  8
0
 10
-304.057434
 20
64.458359
 40
18.030888
 50
233.554489
 51
306.550140
  0
ARC
  8
0
 10
-298.947693
 20
57.007607
 40
9.008563
 50
308.663940
 51
344.634430
  0
ARC
  8
0
 10
-297.103210
 20
56.333332
 40
7.053196
 50
345.945892
 51
14.158751
  0
ARC
  8
0
 10
-298.946442
 20
55.655685
 40
9.008548
 50
15.470261
 51
51.440815
  0
ARC
  8
0
 10
-304.042603
 20
48.195610
 40
18.030888
 50
53.554482
 51
126.550133
  0
ARC
  8
0
 10
-309.152344
 20
55.646362
 40
9.008563
 50
128.663940
 51
164.634445
  0
ARC
  8
0
 10
-310.996826
 20
56.320637
 40
7.053196
 50
165.945892
 51
194.158752
  0
ARC
  8
0
 10
-309.153595
 20
56.998283
 40
9.008548
 50
195.470261
 51
231.440811
  0
ARC
  8
0
 10
-304.057434
 20
64.458359
 40
18.030888
 50
233.554489
 51
306.550140
  0
ARC
  8
0
 10
-298.947693
 20
57.007607
 40
9.008563
 50
308.663940
 51
344.634430
  0
ARC
  8
0
 10
-302.903137
 20
56.326984
 40
7.053176
 50
345.893555
 51
14.106441
  0
ARC
  8
0
 10
-304.747009
 20
55.651024
 40
9.008553
 50
15.417896
 51
51.388603
  0
ARC
  8
0
 10
-309.849976
 20
48.195610
 40
18.030867
 50
53.502220
 51
126.497780
  0
ARC
  8
0
 10
-314.952942
 20
55.651024
 40
9.008537
 50
128.611404
 51
164.582108
  0
ARC
  8
0
 10
-316.796814
 20
56.326984
 40
7.053176
 50
165.893555
 51
194.106445
  0
ARC
  8
0
 10
-314.952942
 20
57.002945
 40
9.008553
 50
195.417892
 51
231.388596
  0
ARC
  8
0
 10
-309.849976
 20
64.458359
 40
18.030867
 50
233.502213
 51
306.497772
  0
ARC
  8
0
 10
-304.747009
 20
57.002945
 40
9.008537
 50
308.611389
 51
344.582092
  0
ARC
  8
0
 10
-302.903137
 20
56.326984
 40
7.053176
 50
345.893555
 51
14.106441
  0
ARC
  8
0
 10
-304.747009
 20
55.651024
 40
9.008553
 50
15.417896
 51
51.388603
  0
ARC
  8
0
 10
-309.849976
 20
48.195610
 40
18.030867
 50
53.502220
 51
126.497780
  0
ARC
  8
0
 10
-314.952942
 20
55.651024
 40
9.008537
 50
128.611404
 51
164.582108
  0
ARC
  8
0
 10
-316.796814
 20
56.326984
 40
7.053176
 50
165.893555
 51
194.106445
  0
ARC
  8
0
 10
-314.952942
 20
57.002945
 40
9.008553
 50
195.417892
 51
231.388596
  0
ARC
  8
0
 10
-309.849976
 20
64.458359
 40
18.030867
 50
233.502213
 51
306.497772
  0
ARC
  8
0
 10
-304.747009
 20
57.002945
 40
9.008537
 50
308.611389
 51
344.582092
  0
ARC
  8
0
 10
-318.000000
 20
25.680561
 40
8.371467
 50
72.683754
 51
126.497772
  0
ARC
  8
0
 10
-320.369232
 20
29.142002
 40
4.182532
 50
128.611389
 51
136.804550
  0
ARC
  8
0
 10
-318.000000
 20
26.537100
 40
7.256124
 50
69.928864
 51
126.497833
  0
ARC
  8
0
 10
-320.053589
 20
29.537371
 40
3.625275
 50
128.611389
 51
137.149689
  0
ARC
  8
0
 10
-318.500000
 20
25.906782
 40
3.863751
 50
295.955688
 51
306.497803
  0
ARC
  8
0
 10
-317.406525
 20
24.309198
 40
1.930406
 50
308.611786
 51
344.582245
  0
ARC
  8
0
 10
-317.011383
 20
24.164352
 40
1.511367
 50
345.893402
 51
359.999939
  0
ARC
  8
0
 10
-320.500000
 20
7.257630
 40
6.439610
 50
270.000000
 51
306.497864
  0
ARC
  8
0
 10
-318.677521
 20
4.594977
 40
3.217344
 50
308.611755
 51
344.582214
  0
ARC
  8
0
 10
-318.018982
 20
4.353565
 40
2.518985
 50
345.893585
 51
0.147450
  0
ARC
  8
0
 10
-318.018951
 20
-21.809406
 40
2.518976
 50
359.747101
 51
14.106405
  0
ARC
  8
0
 10
-318.677490
 20
-22.050819
 40
3.217345
 50
15.417786
 51
51.388233
  0
ARC
  8
0
 10
-320.499969
 20
-24.713467
 40
6.439598
 50
53.502090
 51
90.000000
  0
ARC
  8
0
 10
-318.500000
 20
10.338640
 40
3.863756
 50
270.000000
 51
306.497803
  0
ARC
  8
0
 10
-317.406525
 20
8.741055
 40
1.930405
 50
308.611786
 51
344.582245
  0
ARC
  8
0
 10
-317.011383
 20
8.596210
 40
1.511367
 50
345.893402
 51
359.999878
  0
ARC
  8
0
 10
-323.009918
 20
78.957550
 40
1.309905
 50
346.033356
 51
14.246034
  0
ARC
  8
0
 10
-323.352051
 20
78.831184
 40
1.673051
 50
15.557285
 51
51.527569
  0
ARC
  8
0
 10
-324.296326
 20
77.444336
 40
3.348565
 50
53.641735
 51
126.638107
  0
ARC
  8
0
 10
-325.247375
 20
78.826553
 40
1.673046
 50
128.751862
 51
164.722122
  0
ARC
  8
0
 10
-325.590118
 20
78.951248
 40
1.309905
 50
166.033356
 51
194.246033
  0
ARC
  8
0
 10
-325.247986
 20
79.077614
 40
1.673051
 50
195.557281
 51
231.527573
  0
ARC
  8
0
 10
-324.303711
 20
80.464462
 40
3.348565
 50
233.641739
 51
306.638092
  0
ARC
  8
0
 10
-323.352661
 20
79.082245
 40
1.673046
 50
308.751862
 51
344.722137
  0
ARC
  8
0
 10
-297.321350
 20
62.769711
 40
1.120825
 50
345.972656
 51
14.027352
  0
ARC
  8
0
 10
-297.607788
 20
62.665298
 40
1.424386
 50
15.309436
 51
51.197750
  0
ARC
  8
0
 10
-298.400513
 20
61.513687
 40
2.820528
 50
53.307991
 51
126.692009
  0
ARC
  8
0
 10
-299.193237
 20
62.665298
 40
1.424400
 50
128.802246
 51
164.690567
  0
ARC
  8
0
 10
-299.479675
 20
62.769711
 40
1.120825
 50
165.972641
 51
194.027359
  0
ARC
  8
0
 10
-299.193237
 20
62.874123
 40
1.424386
 50
195.309433
 51
231.197754
  0
ARC
  8
0
 10
-298.400513
 20
64.025734
 40
2.820528
 50
233.307999
 51
306.692017
  0
ARC
  8
0
 10
-297.607788
 20
62.874123
 40
1.424400
 50
308.802246
 51
344.690552
  0
ARC
  8
0
 10
-297.527100
 20
62.562397
 40
0.887593
 50
345.896881
 51
14.103133
  0
ARC
  8
0
 10
-297.758911
 20
62.477428
 40
1.133418
 50
15.413661
 51
51.381634
  0
ARC
  8
0
 10
-298.400513
 20
61.540279
 40
2.267612
 50
53.494598
 51
126.505402
  0
ARC
  8
0
 10
-299.042114
 20
62.477428
 40
1.133413
 50
128.618362
 51
164.586334
  0
ARC
  8
0
 10
-299.273926
 20
62.562397
 40
0.887593
 50
165.896866
 51
194.103134
  0
ARC
  8
0
 10
-299.042114
 20
62.647366
 40
1.133418
 50
195.413666
 51
231.381638
  0
ARC
  8
0
 10
-298.400513
 20
63.584515
 40
2.267612
 50
233.494598
 51
306.505402
  0
ARC
  8
0
 10
-297.758911
 20
62.647366
 40
1.133413
 50
308.618378
 51
344.586334
  0
ARC
  8
0
 10
-297.967712
 20
62.427246
 40
0.438697
 50
346.129059
 51
14.353788
  0
ARC
  8
0
 10
-298.082428
 20
62.384632
 40
0.560560
 50
15.666787
 51
51.643940
  0
ARC
  8
0
 10
-298.398376
 20
61.918629
 40
1.122788
 50
53.758060
 51
126.725693
  0
ARC
  8
0
 10
-298.718262
 20
62.381954
 40
0.560536
 50
128.839081
 51
164.815567
  0
ARC
  8
0
 10
-298.833313
 20
62.423599
 40
0.438697
 50
166.129059
 51
194.353790
  0
ARC
  8
0
 10
-298.718597
 20
62.466213
 40
0.560560
 50
195.666794
 51
231.643936
  0
ARC
  8
0
 10
-298.402649
 20
62.932217
 40
1.122788
 50
233.758057
 51
306.725677
  0
ARC
  8
0
 10
-298.082764
 20
62.468891
 40
0.560536
 50
308.839081
 51
344.815582
  0
ARC
  8
0
 10
-297.110413
 20
63.326984
 40
1.309875
 50
0.000000
 51
14.106498
  0
ARC
  8
0
 10
-297.452850
 20
63.201454
 40
1.673030
 50
15.417719
 51
51.387524
  0
ARC
  8
0
 10
-298.400513
 20
61.816933
 40
3.348563
 50
53.501526
 51
126.498474
  0
ARC
  8
0
 10
-299.348175
 20
63.201454
 40
1.673052
 50
128.612473
 51
164.582275
  0
ARC
  8
0
 10
-299.690613
 20
63.326984
 40
1.309886
 50
165.893509
 51
179.892548
  0
ARC
  8
0
 10
-298.400513
 20
64.554192
 40
3.348565
 50
280.597778
 51
306.498474
  0
ARC
  8
0
 10
-297.452850
 20
63.169670
 40
1.673052
 50
308.612488
 51
344.582275
  0
ARC
  8
0
 10
-297.110413
 20
63.044140
 40
1.309886
 50
345.893494
 51
14.106498
  0
ARC
  8
0
 10
-297.452850
 20
62.918610
 40
1.673030
 50
15.417719
 51
51.387524
  0
ARC
  8
0
 10
-298.400513
 20
61.534088
 40
3.348563
 50
53.501526
 51
126.498474
  0
ARC
  8
0
 10
-299.348175
 20
62.918610
 40
1.673052
 50
128.612473
 51
164.582275
  0
ARC
  8
0
 10
-299.690613
 20
63.044140
 40
1.309886
 50
165.893509
 51
194.106491
  0
ARC
  8
0
 10
-299.348175
 20
63.169670
 40
1.673030
 50
195.417725
 51
231.387527
  0
ARC
  8
0
 10
-298.400513
 20
64.554192
 40
3.348563
 50
233.501526
 51
259.391052
  0
ARC
  8
0
 10
-303.903198
 20
56.326984
 40
7.053205
 50
345.893616
 51
14.106380
  0
ARC
  8
0
 10
-305.747040
 20
55.651024
 40
9.008553
 50
15.417896
 51
51.388603
  0
ARC
  8
0
 10
-310.850006
 20
48.195610
 40
18.030867
 50
53.502220
 51
126.497780
  0
ARC
  8
0
 10
-315.952972
 20
55.651024
 40
9.008537
 50
128.611404
 51
164.582108
  0
ARC
  8
0
 10
-317.796814
 20
56.326984
 40
7.053205
 50
165.893616
 51
194.106384
  0
ARC
  8
0
 10
-315.952972
 20
57.002945
 40
9.008553
 50
195.417892
 51
231.388596
  0
ARC
  8
0
 10
-310.850006
 20
64.458359
 40
18.030867
 50
233.502213
 51
306.497772
  0
ARC
  8
0
 10
-305.747040
 20
57.002945
 40
9.008537
 50
308.611389
 51
344.582092
  0
ARC
  8
0
 10
-303.903198
 20
56.326984
 40
7.053205
 50
345.893616
 51
14.106380
  0
ARC
  8
0
 10
-305.747040
 20
55.651024
 40
9.008553
 50
15.417896
 51
51.388603
  0
ARC
  8
0
 10
-310.850006
 20
48.195610
 40
18.030867
 50
53.502220
 51
126.497780
  0
ARC
  8
0
 10
-315.952972
 20
55.651024
 40
9.008537
 50
128.611404
 51
164.582108
  0
ARC
  8
0
 10
-317.796814
 20
56.326984
 40
7.053205
 50
165.893616
 51
194.106384
  0
ARC
  8
0
 10
-315.952972
 20
57.002945
 40
9.008553
 50
195.417892
 51
231.388596
  0
ARC
  8
0
 10
-310.850006
 20
64.458359
 40
18.030867
 50
233.502213
 51
306.497772
  0
ARC
  8
0
 10
-305.747040
 20
57.002945
 40
9.008537
 50
308.611389
 51
344.582092
  0
ARC
  8
0
 10
-308.299988
 20
49.609818
 40
18.030865
 50
89.959854
 51
111.203888
  0
ARC
  8
0
 10
-296.415710
 20
64.741196
 40
2.015198
 50
0.000000
 51
14.106320
  0
ARC
  8
0
 10
-296.942535
 20
64.548065
 40
2.573889
 50
15.417747
 51
51.388252
  0
ARC
  8
0
 10
-298.400513
 20
62.417950
 40
5.151674
 50
53.502140
 51
90.767090
  0
ARC
  8
0
 10
-308.299988
 20
62.968513
 40
11.591282
 50
301.043243
 51
306.497833
  0
ARC
  8
0
 10
-305.019531
 20
58.175743
 40
5.791226
 50
308.611725
 51
344.582153
  0
ARC
  8
0
 10
-303.834167
 20
57.741196
 40
4.534191
 50
345.893555
 51
350.228088
  0
ARC
  8
0
 10
-308.299988
 20
48.195610
 40
18.030872
 50
89.959854
 51
111.203888
  0
ARC
  8
0
 10
-296.415710
 20
63.326988
 40
2.015198
 50
0.000000
 51
14.106425
  0
ARC
  8
0
 10
-296.942535
 20
63.133858
 40
2.573889
 50
15.417829
 51
51.388252
  0
ARC
  8
0
 10
-298.400513
 20
61.003742
 40
5.151674
 50
53.502140
 51
90.767090
  0
ARC
  8
0
 10
-308.299988
 20
64.458366
 40
18.030876
 50
298.339294
 51
306.497772
  0
ARC
  8
0
 10
-303.197021
 20
57.002949
 40
9.008537
 50
308.611389
 51
344.582092
  0
ARC
  8
0
 10
-301.353149
 20
56.326988
 40
7.053176
 50
345.893555
 51
5.246250
  0
ARC
  8
0
 10
-308.299988
 20
61.554306
 40
11.591293
 50
305.019379
 51
306.497833
  0
ARC
  8
0
 10
-305.019531
 20
56.761536
 40
5.791226
 50
308.611725
 51
344.582153
  0
ARC
  8
0
 10
-303.834167
 20
56.326988
 40
4.534191
 50
345.893555
 51
8.190767
  0
ARC
  8
0
 10
-319.105713
 20
53.598412
 40
0.755707
 50
0.000289
 51
14.106671
  0
ARC
  8
0
 10
-319.303253
 20
53.525990
 40
0.965187
 50
15.418217
 51
51.388145
  0
ARC
  8
0
 10
-319.850006
 20
52.727184
 40
1.931892
 50
53.502026
 51
126.497971
  0
ARC
  8
0
 10
-320.396759
 20
53.525986
 40
0.965204
 50
128.611710
 51
164.581787
  0
ARC
  8
0
 10
-320.594299
 20
53.598412
 40
0.755698
 50
165.893616
 51
180.000000
  0
ARC
  8
0
 10
-341.480316
 20
44.937103
 40
2.130293
 50
3.762445
 51
11.774115
  0
ARC
  8
0
 10
-341.697876
 20
44.870632
 40
2.356939
 50
12.276806
 51
45.306618
  0
ARC
  8
0
 10
-342.300018
 20
44.137524
 40
3.302731
 50
46.825668
 51
133.175827
  0
ARC
  8
0
 10
-342.902161
 20
44.870617
 40
2.356934
 50
134.695221
 51
167.724640
  0
ARC
  8
0
 10
-343.119720
 20
44.937080
 40
2.130291
 50
168.227295
 51
183.762650
  0
ARC
  8
0
 10
-327.631317
 20
61.093735
 40
0.425081
 50
345.893433
 51
14.106079
  0
ARC
  8
0
 10
-327.742432
 20
61.052998
 40
0.542914
 50
15.417786
 51
51.388226
  0
ARC
  8
0
 10
-328.049988
 20
60.603676
 40
1.086687
 50
53.501553
 51
126.498085
  0
ARC
  8
0
 10
-328.357544
 20
61.053001
 40
0.542930
 50
128.611267
 51
164.581436
  0
ARC
  8
0
 10
-328.468658
 20
61.093742
 40
0.425081
 50
165.893417
 51
194.106079
  0
ARC
  8
0
 10
-328.357544
 20
61.134480
 40
0.542914
 50
195.417786
 51
231.388229
  0
ARC
  8
0
 10
-328.049988
 20
61.583801
 40
1.086687
 50
233.501556
 51
306.498077
  0
ARC
  8
0
 10
-327.742432
 20
61.134476
 40
0.542930
 50
308.611267
 51
344.581451
  0
ARC
  8
0
 10
-343.763794
 20
44.937080
 40
1.486221
 50
174.645645
 51
194.106583
  0
ARC
  8
0
 10
-343.375275
 20
45.079514
 40
1.898240
 50
195.418045
 51
231.388458
  0
ARC
  8
0
 10
-342.300018
 20
46.650467
 40
3.799357
 50
233.502197
 51
306.498016
  0
ARC
  8
0
 10
-341.224762
 20
45.079525
 40
1.898228
 50
308.611755
 51
344.582520
  0
ARC
  8
0
 10
-340.836243
 20
44.937096
 40
1.486221
 50
345.893982
 51
5.331007
  0
ARC
  8
0
 10
-342.300049
 20
41.535580
 40
4.532869
 50
65.111794
 51
114.902214
  0
ARC
  8
0
 10
-327.305695
 20
61.093739
 40
0.755698
 50
345.893616
 51
14.106391
  0
ARC
  8
0
 10
-327.503235
 20
61.021313
 40
0.965187
 50
15.418217
 51
51.388287
  0
ARC
  8
0
 10
-328.049988
 20
60.222515
 40
1.931889
 50
53.501961
 51
126.498039
  0
ARC
  8
0
 10
-328.596741
 20
61.021317
 40
0.965201
 50
128.611847
 51
164.582001
  0
ARC
  8
0
 10
-328.794281
 20
61.093739
 40
0.755698
 50
165.893616
 51
194.106384
  0
ARC
  8
0
 10
-328.596741
 20
61.166164
 40
0.965187
 50
195.418213
 51
231.388290
  0
ARC
  8
0
 10
-328.049988
 20
61.964962
 40
1.931889
 50
233.501953
 51
306.498047
  0
ARC
  8
0
 10
-327.503235
 20
61.166161
 40
0.965201
 50
308.611847
 51
344.582001
  0
ARC
  8
0
 10
-319.030273
 20
65.760651
 40
2.130294
 50
3.762753
 51
11.773612
  0
ARC
  8
0
 10
-319.247833
 20
65.694183
 40
2.356934
 50
12.276262
 51
45.305832
  0
ARC
  8
0
 10
-319.849976
 20
64.961082
 40
3.302735
 50
46.825008
 51
133.175171
  0
ARC
  8
0
 10
-320.452118
 20
65.694183
 40
2.356923
 50
134.694427
 51
167.724106
  0
ARC
  8
0
 10
-320.669678
 20
65.760651
 40
2.130295
 50
168.226791
 51
183.762955
  0
ARC
  8
0
 10
-321.313751
 20
65.760643
 40
1.486221
 50
174.645935
 51
194.106155
  0
ARC
  8
0
 10
-320.925232
 20
65.903076
 40
1.898237
 50
195.417709
 51
231.388382
  0
ARC
  8
0
 10
-319.849976
 20
67.474022
 40
3.799348
 50
233.502106
 51
306.497894
  0
ARC
  8
0
 10
-318.774719
 20
65.903076
 40
1.898234
 50
308.611603
 51
344.582062
  0
ARC
  8
0
 10
-318.386200
 20
65.760643
 40
1.486224
 50
345.893555
 51
5.331300
  0
ARC
  8
0
 10
-319.850006
 20
62.359135
 40
4.532876
 50
65.111832
 51
114.902153
  0
ARC
  8
0
 10
-318.000000
 20
33.081688
 40
7.256119
 50
279.522217
 51
290.068848
  0
ARC
  8
0
 10
-318.000000
 20
33.231121
 40
8.371468
 50
278.229462
 51
287.317780
  0
ARC
  8
0
 10
-297.103210
 20
56.333332
 40
7.053196
 50
345.945892
 51
14.158751
  0
ARC
  8
0
 10
-298.946442
 20
55.655685
 40
9.008548
 50
15.470261
 51
51.440815
  0
ARC
  8
0
 10
-304.042603
 20
48.195610
 40
18.030888
 50
53.554482
 51
126.550133
  0
ARC
  8
0
 10
-309.152344
 20
55.646362
 40
9.008563
 50
128.663940
 51
164.634445
  0
ARC
  8
0
 10
-310.996826
 20
56.320637
 40
7.053196
 50
165.945892
 51
194.158752
  0
ARC
  8
0
 10
-309.153595
 20
56.998283
 40
9.008548
 50
195.470261
 51
231.440811
  0
ARC
  8
0
 10
-304.057434
 20
64.458359
 40
18.030888
 50
233.554489
 51
306.550140
  0
ARC
  8
0
 10
-298.947693
 20
57.007607
 40
9.008563
 50
308.663940
 51
344.634430
  0
ARC
  8
0
 10
-297.103210
 20
56.333332
 40
7.053196
 50
345.945892
 51
14.158751
  0
ARC
  8
0
 10
-298.946442
 20
55.655685
 40
9.008548
 50
15.470261
 51
51.440815
  0
ARC
  8
0
 10
-304.042603
 20
48.195610
 40
18.030888
 50
53.554482
 51
126.550133
  0
ARC
  8
0
 10
-309.152344
 20
55.646362
 40
9.008563
 50
128.663940
 51
164.634445
  0
ARC
  8
0
 10
-310.996826
 20
56.320637
 40
7.053196
 50
165.945892
 51
194.158752
  0
ARC
  8
0
 10
-309.153595
 20
56.998283
 40
9.008548
 50
195.470261
 51
231.440811
  0
ARC
  8
0
 10
-304.057434
 20
64.458359
 40
18.030888
 50
233.554489
 51
306.550140
  0
ARC
  8
0
 10
-298.947693
 20
57.007607
 40
9.008563
 50
308.663940
 51
344.634430
  0
ARC
  8
0
 10
-302.903137
 20
56.326984
 40
7.053176
 50
345.893555
 51
14.106441
  0
ARC
  8
0
 10
-304.747009
 20
55.651024
 40
9.008553
 50
15.417896
 51
51.388603
  0
ARC
  8
0
 10
-309.849976
 20
48.195610
 40
18.030867
 50
53.502220
 51
126.497780
  0
ARC
  8
0
 10
-314.952942
 20
55.651024
 40
9.008537
 50
128.611404
 51
164.582108
  0
ARC
  8
0
 10
-316.796814
 20
56.326984
 40
7.053176
 50
165.893555
 51
194.106445
  0
ARC
  8
0
 10
-314.952942
 20
57.002945
 40
9.008553
 50
195.417892
 51
231.388596
  0
ARC
  8
0
 10
-309.849976
 20
64.458359
 40
18.030867
 50
233.502213
 51
306.497772
  0
ARC
  8
0
 10
-304.747009
 20
57.002945
 40
9.008537
 50
308.611389
 51
344.582092
  0
ARC
  8
0
 10
-302.903137
 20
56.326984
 40
7.053176
 50
345.893555
 51
14.106441
  0
ARC
  8
0
 10
-304.747009
 20
55.651024
 40
9.008553
 50
15.417896
 51
51.388603
  0
ARC
  8
0
 10
-309.849976
 20
48.195610
 40
18.030867
 50
53.502220
 51
126.497780
  0
ARC
  8
0
 10
-314.952942
 20
55.651024
 40
9.008537
 50
128.611404
 51
164.582108
  0
ARC
  8
0
 10
-316.796814
 20
56.326984
 40
7.053176
 50
165.893555
 51
194.106445
  0
ARC
  8
0
 10
-314.952942
 20
57.002945
 40
9.008553
 50
195.417892
 51
231.388596
  0
ARC
  8
0
 10
-309.849976
 20
64.458359
 40
18.030867
 50
233.502213
 51
306.497772
  0
ARC
  8
0
 10
-304.747009
 20
57.002945
 40
9.008537
 50
308.611389
 51
344.582092
  0
ARC
  8
0
 10
-302.903137
 20
56.326984
 40
7.053176
 50
345.893555
 51
14.106441
  0
ARC
  8
0
 10
-304.747009
 20
55.651024
 40
9.008553
 50
15.417896
 51
51.388603
  0
ARC
  8
0
 10
-309.849976
 20
48.195610
 40
18.030867
 50
53.502220
 51
126.497780
  0
ARC
  8
0
 10
-314.952942
 20
55.651024
 40
9.008537
 50
128.611404
 51
164.582108
  0
ARC
  8
0
 10
-316.796814
 20
56.326984
 40
7.053176
 50
165.893555
 51
194.106445
  0
ARC
  8
0
 10
-314.952942
 20
57.002945
 40
9.008553
 50
195.417892
 51
231.388596
  0
ARC
  8
0
 10
-309.849976
 20
64.458359
 40
18.030867
 50
233.502213
 51
306.497772
  0
ARC
  8
0
 10
-304.747009
 20
57.002945
 40
9.008537
 50
308.611389
 51
344.582092
  0
ARC
  8
0
 10
-302.903137
 20
56.326984
 40
7.053176
 50
345.893555
 51
14.106441
  0
ARC
  8
0
 10
-304.747009
 20
55.651024
 40
9.008553
 50
15.417896
 51
51.388603
  0
ARC
  8
0
 10
-309.849976
 20
48.195610
 40
18.030867
 50
53.502220
 51
126.497780
  0
ARC
  8
0
 10
-314.952942
 20
55.651024
 40
9.008537
 50
128.611404
 51
164.582108
  0
ARC
  8
0
 10
-316.796814
 20
56.326984
 40
7.053176
 50
165.893555
 51
194.106445
  0
ARC
  8
0
 10
-314.952942
 20
57.002945
 40
9.008553
 50
195.417892
 51
231.388596
  0
ARC
  8
0
 10
-309.849976
 20
64.458359
 40
18.030867
 50
233.502213
 51
306.497772
  0
ARC
  8
0
 10
-304.747009
 20
57.002945
 40
9.008537
 50
308.611389
 51
344.582092
  0
ARC
  8
0
 10
-302.903137
 20
56.326984
 40
7.053176
 50
345.893555
 51
14.106441
  0
ARC
  8
0
 10
-304.747009
 20
55.651024
 40
9.008553
 50
15.417896
 51
51.388603
  0
ARC
  8
0
 10
-309.849976
 20
48.195610
 40
18.030867
 50
53.502220
 51
126.497780
  0
ARC
  8
0
 10
-314.952942
 20
55.651024
 40
9.008537
 50
128.611404
 51
164.582108
  0
ARC
  8
0
 10
-316.796814
 20
56.326984
 40
7.053176
 50
165.893555
 51
194.106445
  0
ARC
  8
0
 10
-314.952942
 20
57.002945
 40
9.008553
 50
195.417892
 51
231.388596
  0
ARC
  8
0
 10
-309.849976
 20
64.458359
 40
18.030867
 50
233.502213
 51
306.497772
  0
ARC
  8
0
 10
-304.747009
 20
57.002945
 40
9.008537
 50
308.611389
 51
344.582092
  0
ARC
  8
0
 10
-308.299988
 20
51.099670
 40
11.591287
 50
58.075863
 51
95.199036
  0
ARC
  8
0
 10
-319.850006
 20
-54.359135
 40
4.532877
 50
245.097809
 51
294.888184
  0
ARC
  8
0
 10
-318.386200
 20
-57.760643
 40
1.486226
 50
354.668854
 51
14.106295
  0
ARC
  8
0
 10
-318.774719
 20
-57.903076
 40
1.898238
 50
15.417817
 51
51.388382
  0
ARC
  8
0
 10
-319.849976
 20
-59.474022
 40
3.799348
 50
53.502098
 51
126.497902
  0
ARC
  8
0
 10
-320.925232
 20
-57.903076
 40
1.898234
 50
128.611618
 51
164.582184
  0
ARC
  8
0
 10
-321.313751
 20
-57.760643
 40
1.486223
 50
165.893707
 51
185.354065
  0
ARC
  8
0
 10
-327.631317
 20
-53.093735
 40
0.425080
 50
345.893921
 51
14.106578
  0
ARC
  8
0
 10
-327.742432
 20
-53.134476
 40
0.542916
 50
15.418562
 51
51.388729
  0
ARC
  8
0
 10
-328.049988
 20
-53.583801
 40
1.086696
 50
53.501911
 51
126.498444
  0
ARC
  8
0
 10
-328.357544
 20
-53.134480
 40
0.542924
 50
128.611771
 51
164.582214
  0
ARC
  8
0
 10
-328.468658
 20
-53.093742
 40
0.425080
 50
165.893921
 51
194.106583
  0
ARC
  8
0
 10
-328.357544
 20
-53.053001
 40
0.542916
 50
195.418564
 51
231.388733
  0
ARC
  8
0
 10
-328.049988
 20
-52.603676
 40
1.086696
 50
233.501907
 51
306.498444
  0
ARC
  8
0
 10
-327.742432
 20
-53.052998
 40
0.542924
 50
308.611786
 51
344.582214
  0
ARC
  8
0
 10
-343.119720
 20
-36.937080
 40
2.130294
 50
176.237350
 51
191.772705
  0
ARC
  8
0
 10
-342.902161
 20
-36.870617
 40
2.356926
 50
192.275360
 51
225.304779
  0
ARC
  8
0
 10
-342.300018
 20
-36.137524
 40
3.302728
 50
226.824173
 51
313.174347
  0
ARC
  8
0
 10
-341.697876
 20
-36.870632
 40
2.356923
 50
314.693390
 51
347.723206
  0
ARC
  8
0
 10
-341.480316
 20
-36.937103
 40
2.130302
 50
348.225891
 51
356.237549
  0
ARC
  8
0
 10
-320.594299
 20
-45.598412
 40
0.755707
 50
180.000000
 51
194.106384
  0
ARC
  8
0
 10
-320.396759
 20
-45.525986
 40
0.965187
 50
195.418213
 51
231.388290
  0
ARC
  8
0
 10
-319.850006
 20
-44.727184
 40
1.931892
 50
233.502029
 51
306.497986
  0
ARC
  8
0
 10
-319.303253
 20
-45.525990
 40
0.965201
 50
308.611847
 51
344.581787
  0
ARC
  8
0
 10
-319.105713
 20
-45.598412
 40
0.755699
 50
345.893341
 51
359.999725
  0
ARC
  8
0
 10
-340.836243
 20
-36.937096
 40
1.486226
 50
354.668854
 51
14.106009
  0
ARC
  8
0
 10
-341.224762
 20
-37.079525
 40
1.898235
 50
15.417484
 51
51.388241
  0
ARC
  8
0
 10
-342.300018
 20
-38.650467
 40
3.799338
 50
53.501995
 51
126.497795
  0
ARC
  8
0
 10
-343.375275
 20
-37.079514
 40
1.898237
 50
128.611542
 51
164.581955
  0
ARC
  8
0
 10
-343.763794
 20
-36.937080
 40
1.486225
 50
165.893417
 51
185.354355
  0
ARC
  8
0
 10
-327.305695
 20
-53.093739
 40
0.755698
 50
345.893616
 51
14.106391
  0
ARC
  8
0
 10
-327.503235
 20
-53.166161
 40
0.965186
 50
15.417998
 51
51.388145
  0
ARC
  8
0
 10
-328.049988
 20
-53.964962
 40
1.931889
 50
53.501961
 51
126.498039
  0
ARC
  8
0
 10
-328.596741
 20
-53.166164
 40
0.965204
 50
128.611710
 51
164.581787
  0
ARC
  8
0
 10
-328.794281
 20
-53.093739
 40
0.755698
 50
165.893616
 51
194.106384
  0
ARC
  8
0
 10
-328.596741
 20
-53.021317
 40
0.965186
 50
195.417999
 51
231.388153
  0
ARC
  8
0
 10
-328.049988
 20
-52.222515
 40
1.931889
 50
233.501953
 51
306.498047
  0
ARC
  8
0
 10
-327.503235
 20
-53.021313
 40
0.965204
 50
308.611725
 51
344.581787
  0
ARC
  8
0
 10
-342.300049
 20
-33.535580
 40
4.532881
 50
245.097824
 51
294.888153
  0
ARC
  8
0
 10
-320.669678
 20
-57.760647
 40
2.130294
 50
176.237152
 51
191.773315
  0
ARC
  8
0
 10
-320.452118
 20
-57.694180
 40
2.356931
 50
192.275986
 51
225.305634
  0
ARC
  8
0
 10
-319.849976
 20
-56.961079
 40
3.302727
 50
226.824875
 51
313.175049
  0
ARC
  8
0
 10
-319.247833
 20
-57.694180
 40
2.356931
 50
314.694244
 51
347.723816
  0
ARC
  8
0
 10
-319.030273
 20
-57.760647
 40
2.130297
 50
348.226501
 51
356.237030
  0
POLYLINE
  8
0
 66
     1
  0
VERTEX
  8
0
 10
-349.799988
 20
53.000000
  0
VERTEX
  8
0
 10
-349.698212
 20
52.720554
  0
VERTEX
  8
0
 10
-349.570496
 20
52.374657
  0
VERTEX
  8
0
 10
-349.357239
 20
51.806187
  0
VERTEX
  8
0
 10
-349.134003
 20
51.217632
  0
VERTEX
  8
0
 10
-348.889709
 20
50.573605
  0
VERTEX
  8
0
 10
-348.630005
 20
49.895317
  0
VERTEX
  8
0
 10
-348.317841
 20
49.096542
  0
VERTEX
  8
0
 10
-348.000000
 20
48.299999
  0
SEQEND
  0
POLYLINE
  8
0
 66
     1
  0
VERTEX
  8
0
 10
-349.799988
 20
-45.000000
  0
VERTEX
  8
0
 10
-349.698212
 20
-44.720554
  0
VERTEX
  8
0
 10
-349.570496
 20
-44.374657
  0
VERTEX
  8
0
 10
-349.357239
 20
-43.806187
  0
VERTEX
  8
0
 10
-349.134003
 20
-43.217632
  0
VERTEX
  8
0
 10
-348.889709
 20
-42.573605
  0
VERTEX
  8
0
 10
-348.630005
 20
-41.895317
  0
VERTEX
  8
0
 10
-348.317841
 20
-41.096542
  0
VERTEX
  8
0
 10
-348.000000
 20
-40.299999
  0
SEQEND
  0
POLYLINE
  8
0
 66
     1
  0
VERTEX
  8
0
 10
-348.000000
 20
-11.302854
  0
VERTEX
  8
0
 10
-348.251709
 20
-11.971635
  0
VERTEX
  8
0
 10
-348.486664
 20
-12.646605
  0
VERTEX
  8
0
 10
-348.724487
 20
-13.382919
  0
VERTEX
  8
0
 10
-348.984039
 20
-14.249454
  0
VERTEX
  8
0
 10
-349.214142
 20
-15.123968
  0
VERTEX
  8
0
 10
-349.408508
 20
-16.027548
  0
VERTEX
  8
0
 10
-349.562408
 20
-16.997131
  0
VERTEX
  8
0
 10
-349.669342
 20
-17.973124
  0
VERTEX
  8
0
 10
-349.737000
 20
-18.920111
  0
VERTEX
  8
0
 10
-349.772186
 20
-19.816029
  0
VERTEX
  8
0
 10
-349.781281
 20
-20.715286
  0
VERTEX
  8
0
 10
-349.764008
 20
-21.564739
  0
VERTEX
  8
0
 10
-349.715332
 20
-22.286821
  0
VERTEX
  8
0
 10
-349.594727
 20
-22.991222
  0
VERTEX
  8
0
 10
-349.359009
 20
-23.630854
  0
VERTEX
  8
0
 10
-348.774963
 20
-24.401867
  0
VERTEX
  8
0
 10
-348.000000
 20
-25.000000
  0
SEQEND
  0
POLYLINE
  8
0
 66
     1
  0
VERTEX
  8
0
 10
-348.000000
 20
33.000000
  0
VERTEX
  8
0
 10
-348.769928
 20
32.411564
  0
VERTEX
  8
0
 10
-349.359009
 20
31.630854
  0
VERTEX
  8
0
 10
-349.599915
 20
31.000088
  0
VERTEX
  8
0
 10
-349.716766
 20
30.321791
  0
VERTEX
  8
0
 10
-349.764008
 20
29.564739
  0
VERTEX
  8
0
 10
-349.783356
 20
28.684381
  0
VERTEX
  8
0
 10
-349.774017
 20
27.815292
  0
VERTEX
  8
0
 10
-349.737000
 20
26.920111
  0
VERTEX
  8
0
 10
-349.667053
 20
25.946964
  0
VERTEX
  8
0
 10
-349.559387
 20
24.974241
  0
VERTEX
  8
0
 10
-349.408508
 20
24.027548
  0
VERTEX
  8
0
 10
-349.210754
 20
23.118336
  0
VERTEX
  8
0
 10
-348.973572
 20
22.218571
  0
VERTEX
  8
0
 10
-348.724487
 20
21.382919
  0
VERTEX
  8
0
 10
-348.498383
 20
20.684029
  0
VERTEX
  8
0
 10
-348.257568
 20
19.990347
  0
VERTEX
  8
0
 10
-348.000000
 20
19.302853
  0
SEQEND
  0
POINT
  8
0
 10
-149.000000
 20
180.000000
  0
POINT
  8
0
 10
-78.250000
 20
180.000000
  0
LINE
  8
0
 10
-90.421371
 20
115.764465
 11
-101.664368
 21
127.007462
  0
LINE
  8
0
 10
-84.764503
 20
121.421318
 11
-96.007500
 21
132.664307
  0
LINE
  8
0
 10
-89.077820
 20
125.734680
 11
-94.734680
 21
120.077820
  0
LINE
  8
0
 10
-96.007492
 20
133.230011
 11
-102.230026
 21
127.007477
  0
LINE
  8
0
 10
-95.300400
 20
120.077820
 11
-102.230049
 21
127.007469
  0
LINE
  8
0
 10
-89.077827
 20
126.300362
 11
-96.007477
 21
133.230011
  0
LINE
  8
0
 10
-94.522568
 20
131.179413
 11
-100.179428
 21
125.522552
  0
LINE
  8
0
 10
-87.946434
 20
127.431732
 11
-89.360649
 21
126.017517
  0
LINE
  8
0
 10
-83.915970
 20
122.694138
 11
-84.976631
 21
121.633469
  0
LINE
  8
0
 10
-95.017502
 20
120.360664
 11
-96.431717
 21
118.946457
  0
LINE
  8
0
 10
-92.401260
 20
114.915924
 11
-96.431770
 21
118.946426
  0
LINE
  8
0
 10
-83.915962
 20
123.401215
 11
-87.946472
 21
127.431717
  0
LINE
  8
0
 10
-90.633484
 20
115.976616
 11
-91.694138
 21
114.915962
  0
LINE
  8
0
 10
-95.300385
 20
131.250168
 11
-94.593277
 21
131.250168
  0
LINE
  8
0
 10
-100.250168
 20
126.300400
 11
-100.250168
 21
125.593285
  0
LINE
  8
0
 10
-96.007500
 20
132.664307
 11
-101.664352
 21
127.007462
  0
LINE
  8
0
 10
-94.946831
 20
131.603638
 11
-100.603676
 21
125.946808
  0
LINE
  8
0
 10
-112.830765
 20
134.638336
 11
-113.909943
 21
135.717514
  0
LINE
  8
0
 10
-101.310791
 20
125.239685
 11
-115.412460
 21
139.341354
  0
LINE
  8
0
 10
-100.886520
 20
125.663956
 11
-101.310783
 21
125.239700
  0
LINE
  8
0
 10
-101.947197
 20
126.724609
 11
-102.371460
 21
126.300354
  0
LINE
  8
0
 10
-95.300392
 20
133.371414
 11
-95.724655
 21
132.947159
  0
LINE
  8
0
 10
-94.239716
 20
132.310760
 11
-94.663986
 21
131.886505
  0
LINE
  8
0
 10
-103.638351
 20
143.830734
 11
-104.717529
 21
144.909912
  0
LINE
  8
0
 10
-89.714195
 20
115.764465
 11
-84.764450
 21
120.714218
  0
LINE
  8
0
 10
-98.835937
 20
124.179092
 11
-93.179092
 21
129.835937
  0
LINE
  8
0
 10
-108.341393
 20
146.412415
 11
-115.412460
 21
139.341339
  0
LINE
  8
0
 10
-213.235535
 20
121.421356
 11
-201.992523
 21
132.664352
  0
LINE
  8
0
 10
-207.578674
 20
115.764503
 11
-196.335693
 21
127.007492
  0
LINE
  8
0
 10
-203.265320
 20
120.077820
 11
-208.922180
 21
125.734680
  0
LINE
  8
0
 10
-195.769989
 20
127.007492
 11
-201.992523
 21
133.230026
  0
LINE
  8
0
 10
-208.922180
 20
126.300400
 11
-201.992523
 21
133.230057
  0
LINE
  8
0
 10
-202.699631
 20
120.077820
 11
-195.769989
 21
127.007469
  0
LINE
  8
0
 10
-197.820602
 20
125.522568
 11
-203.477448
 21
131.179428
  0
LINE
  8
0
 10
-201.568268
 20
118.946442
 11
-202.982483
 21
120.360657
  0
LINE
  8
0
 10
-206.305862
 20
114.915962
 11
-207.366516
 21
115.976624
  0
LINE
  8
0
 10
-208.639343
 20
126.017509
 11
-210.053558
 21
127.431725
  0
LINE
  8
0
 10
-214.084076
 20
123.401260
 11
-210.053558
 21
127.431763
  0
LINE
  8
0
 10
-205.598785
 20
114.915962
 11
-201.568283
 21
118.946472
  0
LINE
  8
0
 10
-213.023376
 20
121.633484
 11
-214.084045
 21
122.694138
  0
LINE
  8
0
 10
-197.749832
 20
126.300385
 11
-197.749832
 21
125.593277
  0
LINE
  8
0
 10
-202.699600
 20
131.250183
 11
-203.406708
 21
131.250183
  0
LINE
  8
0
 10
-196.335693
 20
127.007500
 11
-201.992538
 21
132.664352
  0
LINE
  8
0
 10
-197.396362
 20
125.946838
 11
-203.053192
 21
131.603683
  0
LINE
  8
0
 10
-203.336044
 20
131.886536
 11
-203.760315
 21
132.310791
  0
LINE
  8
0
 10
-202.275391
 20
132.947205
 11
-202.699646
 21
133.371460
  0
LINE
  8
0
 10
-195.628586
 20
126.300392
 11
-196.052841
 21
126.724655
  0
LINE
  8
0
 10
-196.689240
 20
125.239716
 11
-197.113510
 21
125.663986
  0
LINE
  8
0
 10
-213.235535
 20
120.714203
 11
-208.285797
 21
115.764458
  0
LINE
  8
0
 10
-204.820908
 20
129.835937
 11
-199.164062
 21
124.179085
  0
LINE
  8
0
 10
-203.760315
 20
132.310791
 11
-201.467346
 21
134.603760
  0
LINE
  8
0
 10
-196.689240
 20
125.239731
 11
-194.396271
 21
127.532700
  0
LINE
  8
0
 10
-183.000061
 20
194.199997
 11
-214.762024
 21
225.961975
  0
LINE
  8
0
 10
-214.762024
 20
134.038055
 11
-183.000061
 21
165.800003
  0
LINE
  8
0
 10
-214.762054
 20
134.038040
 11
-244.000076
 21
163.276077
  0
LINE
  8
0
 10
-244.000076
 20
196.723938
 11
-214.762024
 21
225.961975
  0
LINE
  8
0
 10
-183.000061
 20
165.800003
 11
-183.000061
 21
194.199997
  0
LINE
  8
0
 10
-244.000061
 20
163.250061
 11
-244.000061
 21
196.749969
  0
LINE
  8
0
 10
-205.569626
 20
219.597992
 11
-196.165100
 21
229.002502
  0
LINE
  8
0
 10
-197.084351
 20
211.112732
 11
-187.679825
 21
220.517242
  0
LINE
  8
0
 10
-204.809952
 20
140.985840
 11
-204.897888
 21
141.073761
  0
LINE
  8
0
 10
-197.668182
 20
148.127609
 11
-197.756119
 21
148.215546
  0
LINE
  8
0
 10
-194.998383
 20
228.825745
 11
-194.203339
 21
229.620773
  0
LINE
  8
0
 10
-187.856598
 20
221.683975
 11
-187.061554
 21
222.479019
  0
LINE
  8
0
 10
-187.470612
 20
221.297974
 11
-195.384338
 21
229.211700
  0
LINE
  8
0
 10
-204.809937
 20
140.985840
 11
-197.668167
 21
148.127625
  0
LINE
  8
0
 10
-194.203323
 20
229.620773
 11
-187.061554
 21
222.478989
  0
LINE
  8
0
 10
-187.679779
 20
220.517212
 11
-187.470581
 21
221.297958
  0
LINE
  8
0
 10
-196.165100
 20
229.002518
 11
-195.384354
 21
229.211731
  0
LINE
  8
0
 10
-187.679810
 20
220.517227
 11
-196.165085
 21
229.002502
  0
LINE
  8
0
 10
-225.707428
 20
170.161469
 11
-225.003815
 21
175.891953
  0
LINE
  8
0
 10
-235.632965
 20
171.380173
 11
-234.929352
 21
177.110626
  0
LINE
  8
0
 10
-225.707443
 20
170.161484
 11
-231.021973
 21
167.905594
  0
LINE
  8
0
 10
-229.614761
 20
179.366547
 11
-234.929291
 21
177.110657
  0
LINE
  8
0
 10
-231.022064
 20
167.905457
 11
-235.632996
 21
171.380035
  0
LINE
  8
0
 10
-225.003906
 20
175.891815
 11
-229.614838
 21
179.366394
  0
LINE
  8
0
 10
-227.948059
 20
172.841263
 11
-232.810516
 21
173.438293
  0
LINE
  8
0
 10
-227.826187
 20
173.833786
 11
-232.688660
 21
174.430832
  0
LINE
  8
0
 10
-224.548431
 20
186.162430
 11
-227.258942
 21
191.260132
  0
LINE
  8
0
 10
-233.377930
 20
181.467712
 11
-236.088425
 21
186.565399
  0
LINE
  8
0
 10
-224.548431
 20
186.162521
 11
-227.607925
 21
181.266312
  0
LINE
  8
0
 10
-233.028900
 20
191.461716
 11
-236.088379
 21
186.565506
  0
LINE
  8
0
 10
-227.607849
 20
181.266266
 11
-233.377838
 21
181.467758
  0
LINE
  8
0
 10
-227.258881
 20
191.260208
 11
-233.028854
 21
191.461700
  0
LINE
  8
0
 10
-227.920868
 20
187.072525
 11
-232.246429
 21
184.772583
  0
LINE
  8
0
 10
-228.390350
 20
187.955475
 11
-232.715912
 21
185.655533
  0
LINE
  8
0
 10
-183.584335
 20
173.461655
 11
-183.584335
 21
186.538345
  0
LINE
  8
0
 10
-210.584335
 20
173.461655
 11
-210.584335
 21
186.538345
  0
LINE
  8
0
 10
-199.803970
 20
162.066498
 11
-207.282532
 21
168.999847
  0
LINE
  8
0
 10
-194.364914
 20
162.066711
 11
-186.886353
 21
169.000046
  0
LINE
  8
0
 10
-186.886353
 20
190.999954
 11
-194.364899
 21
197.933289
  0
LINE
  8
0
 10
-199.803955
 20
197.933502
 11
-207.282532
 21
191.000183
  0
LINE
  8
0
 10
-211.226486
 20
134.745178
 11
-191.427490
 21
154.544159
  0
LINE
  8
0
 10
-191.427490
 20
205.455841
 11
-211.226486
 21
225.254837
  0
LINE
  8
0
 10
-157.000000
 20
141.594269
 11
-157.000000
 21
149.318497
  0
LINE
  8
0
 10
-157.000000
 20
203.112701
 11
-157.000000
 21
218.405731
  0
LINE
  8
0
 10
-214.800003
 20
134.049957
 11
-244.000076
 21
163.250046
  0
LINE
  8
0
 10
-214.800003
 20
134.050003
 11
-214.786987
 21
134.063019
  0
LINE
  8
0
 10
-214.786987
 20
225.936996
 11
-214.800018
 21
225.950012
  0
LINE
  8
0
 10
-244.000076
 20
196.749969
 11
-214.800018
 21
225.950012
  0
LINE
  8
0
 10
-211.226501
 20
134.745132
 11
-212.640717
 21
136.159348
  0
LINE
  8
0
 10
-191.427521
 20
154.544128
 11
-192.841736
 21
155.958344
  0
LINE
  8
0
 10
-212.640701
 20
223.840637
 11
-211.226501
 21
225.254852
  0
LINE
  8
0
 10
-192.841705
 20
204.041656
 11
-191.427490
 21
205.455872
  0
LINE
  8
0
 10
-210.589722
 20
134.816238
 11
-205.498566
 21
139.907410
  0
LINE
  8
0
 10
-206.629440
 20
135.877396
 11
-206.559723
 21
135.947113
  0
LINE
  8
0
 10
-205.498550
 20
139.907394
 11
-205.781403
 21
140.190247
  0
LINE
  8
0
 10
-210.589737
 20
134.816208
 11
-210.872574
 21
135.099060
  0
LINE
  8
0
 10
-196.589722
 20
148.816238
 11
-191.498550
 21
153.907410
  0
LINE
  8
0
 10
-192.629425
 20
149.877396
 11
-192.559708
 21
149.947113
  0
LINE
  8
0
 10
-191.498550
 20
153.907379
 11
-191.781403
 21
154.190231
  0
LINE
  8
0
 10
-196.589752
 20
148.816223
 11
-196.872589
 21
149.099060
  0
LINE
  8
0
 10
-191.498535
 20
206.092606
 11
-196.589706
 21
211.183777
  0
LINE
  8
0
 10
-192.559708
 20
210.052902
 11
-192.629425
 21
210.122620
  0
LINE
  8
0
 10
-196.589691
 20
211.183777
 11
-196.872543
 21
210.900940
  0
LINE
  8
0
 10
-191.498535
 20
206.092606
 11
-191.781372
 21
205.809753
  0
LINE
  8
0
 10
-205.498535
 20
220.092606
 11
-210.589706
 21
225.183777
  0
LINE
  8
0
 10
-206.559708
 20
224.052902
 11
-206.629410
 21
224.122604
  0
LINE
  8
0
 10
-210.589722
 20
225.183777
 11
-210.872559
 21
224.900925
  0
LINE
  8
0
 10
-205.498520
 20
220.092621
 11
-205.781372
 21
219.809784
  0
LINE
  8
0
 10
-150.435822
 20
153.108337
 11
-122.108330
 21
181.435822
  0
LINE
  8
0
 10
-179.052032
 20
181.060654
 11
-164.980606
 21
195.132080
  0
LINE
  8
0
 10
-179.980377
 20
136.050766
 11
-150.435822
 21
153.108337
  0
LINE
  8
0
 10
-189.041855
 20
127.230225
 11
-181.015915
 21
135.256165
  0
LINE
  8
0
 10
-204.397552
 20
140.565109
 11
-194.605194
 21
148.781860
  0
LINE
  8
0
 10
-187.323578
 20
150.161697
 11
-176.009308
 21
161.475967
  0
LINE
  8
0
 10
-174.102295
 20
180.353546
 11
-174.102295
 21
186.010406
  0
LINE
  8
0
 10
-149.353546
 20
205.102295
 11
-155.010406
 21
205.102295
  0
LINE
  8
0
 10
-119.161697
 20
218.323578
 11
-130.475967
 21
207.009308
  0
LINE
  8
0
 10
-105.050766
 20
210.980377
 11
-122.108337
 21
181.435822
  0
LINE
  8
0
 10
-96.230225
 20
220.041855
 11
-104.256165
 21
212.015915
  0
LINE
  8
0
 10
-109.565109
 20
235.397552
 11
-118.564140
 21
224.672928
  0
LINE
  8
0
 10
-149.707108
 20
167.272079
 11
-161.727921
 21
179.292892
  0
LINE
  8
0
 10
-148.292892
 20
167.272079
 11
-136.272079
 21
179.292892
  0
LINE
  8
0
 10
-136.272079
 20
180.707108
 11
-148.292892
 21
192.727921
  0
LINE
  8
0
 10
-161.727921
 20
180.707108
 11
-149.707108
 21
192.727921
  0
LINE
  8
0
 10
-149.707108
 20
166.564972
 11
-162.435028
 21
179.292892
  0
LINE
  8
0
 10
-148.292892
 20
166.564972
 11
-135.564972
 21
179.292892
  0
LINE
  8
0
 10
-135.564972
 20
180.707108
 11
-148.292892
 21
193.435028
  0
LINE
  8
0
 10
-162.435028
 20
180.707108
 11
-156.495331
 21
186.646805
  0
LINE
  8
0
 10
-155.293243
 20
187.141785
 11
-164.132080
 21
195.980606
  0
LINE
  8
0
 10
-156.141785
 20
186.293243
 11
-164.980606
 21
195.132080
  0
LINE
  8
0
 10
-155.646805
 20
187.495331
 11
-149.707108
 21
193.435028
  0
LINE
  8
0
 10
-164.132080
 20
195.980606
 11
-155.010406
 21
205.102295
  0
LINE
  8
0
 10
-157.556000
 20
187.707458
 11
-156.707458
 21
188.556000
  0
LINE
  8
0
 10
-163.212845
 20
193.364319
 11
-162.364319
 21
194.212845
  0
LINE
  8
0
 10
-179.052002
 20
181.060669
 11
-178.793182
 21
180.094742
  0
LINE
  8
0
 10
-171.640564
 20
172.942078
 11
-178.793213
 21
180.094727
  0
LINE
  8
0
 10
-171.704834
 20
173.713455
 11
-179.052032
 21
181.060669
  0
LINE
  8
0
 10
-201.467316
 20
134.603745
 11
-194.396255
 21
127.532677
  0
LINE
  8
0
 10
-192.133514
 20
141.109116
 11
-187.890884
 21
136.866486
  0
LINE
  8
0
 10
-201.467316
 20
134.603745
 11
-194.961945
 21
141.109131
  0
LINE
  8
0
 10
-194.396255
 20
127.532684
 11
-187.890869
 21
134.038055
  0
LINE
  8
0
 10
-195.647720
 20
135.452271
 11
-191.447723
 21
135.452271
  0
LINE
  8
0
 10
-193.547729
 20
137.552277
 11
-193.547729
 21
133.352264
  0
LINE
  8
0
 10
-94.239723
 20
132.310760
 11
-108.341385
 21
146.412415
  0
LINE
  8
0
 10
-211.933578
 20
158.401276
 11
-211.933578
 21
152.101273
  0
LINE
  8
0
 10
-215.083588
 20
155.251266
 11
-208.783569
 21
155.251266
  0
LINE
  8
0
 10
-197.084335
 20
166.154709
 11
-198.084335
 21
165.577362
  0
LINE
  8
0
 10
-198.084335
 20
165.577362
 11
-198.084335
 21
164.422653
  0
LINE
  8
0
 10
-197.084335
 20
163.845306
 11
-198.084335
 21
164.422653
  0
LINE
  8
0
 10
-196.084335
 20
164.422653
 11
-197.084335
 21
163.845306
  0
LINE
  8
0
 10
-196.084335
 20
165.577362
 11
-196.084335
 21
164.422653
  0
LINE
  8
0
 10
-197.084335
 20
166.154709
 11
-196.084335
 21
165.577362
  0
LINE
  8
0
 10
-166.690598
 20
141.399994
 11
-170.715240
 21
141.399994
  0
LINE
  8
0
 10
-164.678284
 20
144.885437
 11
-166.690598
 21
141.399994
  0
LINE
  8
0
 10
-164.381195
 20
214.600006
 11
-166.690598
 21
218.599991
  0
LINE
  8
0
 10
-166.690598
 20
218.600006
 11
-171.309402
 21
218.600006
  0
LINE
  8
0
 10
-173.618805
 20
214.600006
 11
-171.309402
 21
218.600006
  0
LINE
  8
0
 10
-171.309402
 20
210.599991
 11
-173.618805
 21
214.599991
  0
LINE
  8
0
 10
-166.690598
 20
210.600006
 11
-171.309402
 21
210.600006
  0
LINE
  8
0
 10
-164.381195
 20
214.600006
 11
-166.690598
 21
210.599991
  0
LINE
  8
0
 10
-197.084335
 20
196.154694
 11
-198.084335
 21
195.577347
  0
LINE
  8
0
 10
-198.084335
 20
195.577362
 11
-198.084335
 21
194.422653
  0
LINE
  8
0
 10
-197.084335
 20
193.845306
 11
-198.084335
 21
194.422653
  0
LINE
  8
0
 10
-196.084335
 20
194.422653
 11
-197.084335
 21
193.845306
  0
LINE
  8
0
 10
-196.084335
 20
195.577362
 11
-196.084335
 21
194.422653
  0
LINE
  8
0
 10
-197.084335
 20
196.154709
 11
-196.084335
 21
195.577362
  0
LINE
  8
0
 10
-208.783569
 20
204.748749
 11
-215.083588
 21
204.748749
  0
LINE
  8
0
 10
-211.933578
 20
207.898743
 11
-211.933578
 21
201.598740
  0
LINE
  8
0
 10
-173.160187
 20
137.194336
 11
-172.559174
 21
138.235352
  0
LINE
  8
0
 10
-174.026215
 20
137.694336
 11
-173.425201
 21
138.735352
  0
LINE
  8
0
 10
-173.160187
 20
222.805664
 11
-172.559174
 21
221.764648
  0
LINE
  8
0
 10
-174.026215
 20
222.305664
 11
-173.425186
 21
221.264648
  0
LINE
  8
0
 10
-156.244446
 20
244.441132
 11
-156.963837
 21
241.756317
  0
LINE
  8
0
 10
-141.755554
 20
244.441162
 11
-141.036163
 21
241.756332
  0
LINE
  8
0
 10
-156.244431
 20
115.558868
 11
-156.963837
 21
118.243683
  0
LINE
  8
0
 10
-141.755569
 20
115.558868
 11
-141.036179
 21
118.243683
  0
LINE
  8
0
 10
-99.499397
 20
142.224945
 11
-96.814560
 21
141.505554
  0
LINE
  8
0
 10
-91.535530
 20
156.018707
 11
-89.570122
 21
154.053299
  0
LINE
  8
0
 10
-91.535522
 20
203.981232
 11
-89.570084
 21
205.946671
  0
LINE
  8
0
 10
-98.130157
 20
218.141907
 11
-96.814545
 21
218.494431
  0
LINE
  8
0
 10
-93.000000
 20
159.554230
 11
-93.000000
 21
172.500000
  0
LINE
  8
0
 10
-159.293488
 20
121.279648
 11
-170.505234
 21
127.752747
  0
LINE
  8
0
 10
-138.706543
 20
121.279709
 11
-127.495285
 21
127.752541
  0
LINE
  8
0
 10
-187.194275
 20
222.611725
 11
-183.495316
 21
224.747330
  0
LINE
  8
0
 10
-149.673111
 20
168.369461
 11
-160.630539
 21
179.326874
  0
LINE
  8
0
 10
-148.326874
 20
168.369461
 11
-137.369461
 21
179.326874
  0
LINE
  8
0
 10
-160.630539
 20
180.673111
 11
-149.673126
 21
191.630539
  0
LINE
  8
0
 10
-137.369461
 20
180.673126
 11
-148.326889
 21
191.630539
  0
LINE
  8
0
 10
-148.326889
 20
191.630539
 11
-147.972504
 21
192.407532
  0
LINE
  8
0
 10
-149.673126
 20
191.630539
 11
-150.027496
 21
192.407532
  0
LINE
  8
0
 10
-161.407532
 20
181.027496
 11
-160.630539
 21
180.673111
  0
LINE
  8
0
 10
-161.407532
 20
178.972488
 11
-160.630539
 21
179.326874
  0
LINE
  8
0
 10
-150.027496
 20
167.592468
 11
-149.673111
 21
168.369461
  0
LINE
  8
0
 10
-147.972488
 20
167.592468
 11
-148.326874
 21
168.369461
  0
LINE
  8
0
 10
-136.592468
 20
178.972504
 11
-137.369461
 21
179.326874
  0
LINE
  8
0
 10
-137.369461
 20
180.673126
 11
-136.592468
 21
181.027512
  0
LINE
  8
0
 10
-189.041855
 20
127.230225
 11
-181.015915
 21
135.256165
  0
LINE
  8
0
 10
-170.504684
 20
232.247467
 11
-159.293472
 21
238.720276
  0
LINE
  8
0
 10
-127.494766
 20
232.247253
 11
-138.706512
 21
238.720367
  0
LINE
  8
0
 10
-93.000000
 20
187.500000
 11
-93.000000
 21
200.445709
  0
LINE
  8
0
 10
-103.522308
 20
141.593353
 11
-103.293503
 21
141.725464
  0
CIRCLE
  8
0
 10
-94.027588
 20
125.027580
 40
2.500000
  0
CIRCLE
  8
0
 10
-94.027588
 20
125.027580
 40
2.000000
  0
ARC
  8
0
 10
-85.118042
 20
121.067780
 40
0.499995
 50
315.000610
 51
45.000618
  0
ARC
  8
0
 10
-90.067810
 20
116.118027
 40
0.499995
 50
225.000626
 51
315.000610
  0
ARC
  8
0
 10
-92.047707
 20
115.269508
 40
0.500001
 50
225.000000
 51
315.000000
  0
ARC
  8
0
 10
-84.269531
 20
123.047676
 40
0.500001
 50
315.000000
 51
45.000000
  0
ARC
  8
0
 10
-89.122055
 20
120.122047
 40
3.519535
 50
274.156708
 51
355.843170
  0
ARC
  8
0
 10
-133.272034
 20
164.272018
 40
36.000000
 50
304.597839
 51
307.016449
  0
ARC
  8
0
 10
-133.272034
 20
164.272018
 40
35.999996
 50
322.983551
 51
325.402130
  0
CIRCLE
  8
0
 10
-203.972427
 20
125.027596
 40
2.500000
  0
CIRCLE
  8
0
 10
-203.972427
 20
125.027596
 40
2.000000
  0
ARC
  8
0
 10
-207.932220
 20
116.118042
 40
0.499990
 50
225.000000
 51
315.000000
  0
ARC
  8
0
 10
-212.881973
 20
121.067810
 40
0.500006
 50
135.000626
 51
224.999374
  0
ARC
  8
0
 10
-213.730499
 20
123.047714
 40
0.499990
 50
135.000000
 51
225.001236
  0
ARC
  8
0
 10
-205.952332
 20
115.269539
 40
0.499995
 50
225.000626
 51
315.000610
  0
ARC
  8
0
 10
-208.877960
 20
120.122055
 40
3.519527
 50
184.156708
 51
265.843292
  0
CIRCLE
  8
0
 10
-211.933578
 20
155.251266
 40
6.500000
  0
CIRCLE
  8
0
 10
-211.933578
 20
204.748749
 40
6.500000
  0
CIRCLE
  8
0
 10
-197.084335
 20
180.000000
 40
0.500000
  0
CIRCLE
  8
0
 10
-197.084335
 20
180.000000
 40
11.250000
  0
ARC
  8
0
 10
-211.226471
 20
154.544159
 40
14.999998
 50
295.326050
 51
334.673859
  0
ARC
  8
0
 10
-200.619873
 20
216.062454
 40
14.999998
 50
25.326059
 51
64.673859
  0
CIRCLE
  8
0
 10
-230.318359
 20
173.636047
 40
2.500000
  0
CIRCLE
  8
0
 10
-230.318359
 20
173.636047
 40
2.250000
  0
CIRCLE
  8
0
 10
-230.318359
 20
173.636047
 40
5.000000
  0
CIRCLE
  8
0
 10
-230.318359
 20
186.363968
 40
2.500000
  0
CIRCLE
  8
0
 10
-230.318359
 20
186.363968
 40
2.250000
  0
CIRCLE
  8
0
 10
-230.318359
 20
186.363968
 40
5.000000
  0
ARC
  8
0
 10
-197.084335
 20
165.000000
 40
3.999994
 50
227.166687
 51
312.833313
  0
ARC
  8
0
 10
-197.084335
 20
195.000000
 40
4.000004
 50
47.166527
 51
132.833481
  0
ARC
  8
0
 10
-197.084335
 20
180.000000
 40
15.000003
 50
132.833435
 51
154.158020
  0
ARC
  8
0
 10
-197.084335
 20
180.000000
 40
15.000003
 50
312.833435
 51
334.158081
  0
ARC
  8
0
 10
-197.084335
 20
195.000000
 40
4.000004
 50
47.166527
 51
90.000000
  0
ARC
  8
0
 10
-197.084335
 20
180.000000
 40
14.999999
 50
205.841919
 51
227.166595
  0
ARC
  8
0
 10
-197.084335
 20
180.000000
 40
14.999999
 50
25.841923
 51
47.166557
  0
ARC
  8
0
 10
-149.000000
 20
180.000000
 40
51.000000
 50
113.876205
 51
140.871994
  0
ARC
  8
0
 10
-166.000000
 20
141.594269
 40
8.999997
 50
246.123810
 51
0.000000
  0
ARC
  8
0
 10
-166.000000
 20
218.405731
 40
9.000000
 50
0.000000
 51
113.876190
  0
ARC
  8
0
 10
-194.768539
 20
217.232254
 40
8.000009
 50
288.428314
 51
320.871948
  0
CIRCLE
  8
0
 10
-211.933578
 20
155.251266
 40
6.200000
  0
CIRCLE
  8
0
 10
-211.933578
 20
204.748749
 40
6.200000
  0
ARC
  8
0
 10
-209.528564
 20
138.776535
 40
4.100000
 50
255.000015
 51
315.000000
  0
ARC
  8
0
 10
-209.458862
 20
138.846252
 40
4.100002
 50
315.000000
 51
14.999986
  0
ARC
  8
0
 10
-195.528564
 20
152.776535
 40
4.100000
 50
255.000015
 51
315.000000
  0
ARC
  8
0
 10
-195.458847
 20
152.846252
 40
4.100002
 50
315.000000
 51
14.999986
  0
ARC
  8
0
 10
-195.458832
 20
207.153763
 40
4.100000
 50
345.000000
 51
44.999847
  0
ARC
  8
0
 10
-195.528549
 20
207.223480
 40
4.099991
 50
44.999847
 51
104.999985
  0
ARC
  8
0
 10
-209.458847
 20
221.153763
 40
4.100000
 50
345.000000
 51
45.000000
  0
ARC
  8
0
 10
-209.528564
 20
221.223480
 40
4.100002
 50
45.000000
 51
104.999985
  0
CIRCLE
  8
0
 10
-197.084335
 20
180.000000
 40
11.800000
  0
ARC
  8
0
 10
-149.000000
 20
180.000000
 40
68.000000
 50
215.445312
 51
220.783234
  0
ARC
  8
0
 10
-177.480377
 20
131.720642
 40
4.999984
 50
120.000107
 51
135.000122
  0
ARC
  8
0
 10
-190.456070
 20
128.644440
 40
1.999997
 50
231.088348
 51
315.000000
  0
ARC
  8
0
 10
-190.859116
 20
153.697235
 40
5.000003
 50
240.761932
 51
315.000000
  0
ARC
  8
0
 10
-186.615906
 20
172.082565
 40
14.999994
 50
315.000000
 51
33.463108
  0
ARC
  8
0
 10
-100.720634
 20
208.480377
 40
5.000000
 50
134.999939
 51
149.999985
  0
ARC
  8
0
 10
-122.697235
 20
221.859116
 40
5.000005
 50
315.000000
 51
34.246998
  0
ARC
  8
0
 10
-97.644440
 20
221.456070
 40
2.000002
 50
315.000000
 51
38.911514
  0
ARC
  8
0
 10
-141.082565
 20
217.615906
 40
14.999994
 50
236.536896
 51
315.000000
  0
ARC
  8
0
 10
-149.000000
 20
167.979187
 40
1.000001
 50
225.000000
 51
315.000000
  0
ARC
  8
0
 10
-136.979187
 20
180.000000
 40
1.000001
 50
315.000000
 51
45.000000
  0
ARC
  8
0
 10
-149.000000
 20
192.020813
 40
1.000001
 50
45.000000
 51
135.000000
  0
ARC
  8
0
 10
-161.020813
 20
180.000000
 40
1.000001
 50
135.000000
 51
225.000000
  0
ARC
  8
0
 10
-149.000000
 20
167.272079
 40
1.000001
 50
225.000000
 51
315.000000
  0
ARC
  8
0
 10
-136.272079
 20
180.000000
 40
1.000001
 50
315.000000
 51
45.000000
  0
ARC
  8
0
 10
-149.000000
 20
192.727921
 40
1.000001
 50
45.000000
 51
135.000000
  0
ARC
  8
0
 10
-161.727921
 20
180.000000
 40
1.000001
 50
135.000000
 51
225.000000
  0
ARC
  8
0
 10
-193.547729
 20
139.694916
 40
2.000002
 50
45.000000
 51
135.000000
  0
ARC
  8
0
 10
-189.305084
 20
135.452271
 40
2.000002
 50
315.000000
 51
45.000000
  0
CIRCLE
  8
0
 10
-193.547729
 20
135.452271
 40
3.500000
  0
ARC
  8
0
 10
-149.000000
 20
180.000000
 40
68.000000
 50
229.216690
 51
231.088318
  0
ARC
  8
0
 10
-149.000000
 20
180.000000
 40
67.999992
 50
38.911724
 51
54.554691
  0
ARC
  8
0
 10
-149.000000
 20
180.000000
 40
56.500000
 50
234.165787
 51
309.922913
  0
ARC
  8
0
 10
-149.000000
 20
180.000000
 40
56.500000
 50
142.622147
 51
146.370392
  0
ARC
  8
0
 10
-194.768555
 20
142.767761
 40
7.999999
 50
49.621872
 51
71.337204
  0
ARC
  8
0
 10
-149.000000
 20
180.000000
 40
50.999996
 50
236.267822
 51
246.123795
  0
ARC
  8
0
 10
-149.000000
 20
180.000000
 40
56.499992
 50
55.484409
 51
132.972168
  0
ARC
  8
0
 10
-129.000000
 20
214.641022
 40
5.500000
 50
0.000000
 51
277.317596
  0
ARC
  8
0
 10
-149.000000
 20
180.000000
 40
56.500008
 50
320.077026
 51
35.834194
  0
ARC
  8
0
 10
-169.000000
 20
145.399994
 40
7.999992
 50
229.014694
 51
10.985427
  0
ARC
  8
0
 10
-169.000000
 20
145.399994
 40
6.999993
 50
231.860809
 51
8.139146
  0
ARC
  8
0
 10
-169.000000
 20
145.399994
 40
9.199985
 50
226.458038
 51
236.884567
  0
CIRCLE
  8
0
 10
-197.084335
 20
165.000000
 40
2.850000
  0
CIRCLE
  8
0
 10
-169.000000
 20
214.600006
 40
8.000000
  0
CIRCLE
  8
0
 10
-169.000000
 20
214.600006
 40
7.000000
  0
ARC
  8
0
 10
-169.000000
 20
214.600006
 40
9.200000
 50
123.115440
 51
116.884552
  0
CIRCLE
  8
0
 10
-197.084335
 20
195.000000
 40
2.850000
  0
ARC
  8
0
 10
-169.000000
 20
145.399994
 40
9.199999
 50
243.115448
 51
13.541976
  0
ARC
  8
0
 10
-128.999969
 20
214.640991
 40
5.000004
 50
344.477997
 51
285.522064
  0
CIRCLE
  8
0
 10
-128.999969
 20
214.640991
 40
4.250000
  0
ARC
  8
0
 10
-149.000015
 20
242.500000
 40
7.500003
 50
15.000026
 51
164.999969
  0
ARC
  8
0
 10
-149.000000
 20
117.500000
 40
7.500003
 50
195.000031
 51
344.999969
  0
ARC
  8
0
 10
-94.873413
 20
148.750000
 40
7.500001
 50
255.000031
 51
44.999916
  0
ARC
  8
0
 10
-94.873405
 20
211.249985
 40
7.499997
 50
315.000000
 51
104.999969
  0
ARC
  8
0
 10
-161.793488
 20
243.050415
 40
4.999997
 50
300.000031
 51
345.000000
  0
ARC
  8
0
 10
-161.793457
 20
116.949585
 40
4.999990
 50
14.999971
 51
59.999981
  0
ARC
  8
0
 10
-136.206528
 20
116.949570
 40
5.000004
 50
119.999977
 51
164.999985
  0
ARC
  8
0
 10
-100.793488
 20
137.395325
 40
4.999992
 50
74.999947
 51
120.000015
  0
ARC
  8
0
 10
-88.000000
 20
159.554230
 40
5.000000
 50
180.000000
 51
224.999878
  0
ARC
  8
0
 10
-88.000000
 20
200.445709
 40
4.999995
 50
135.000122
 51
180.000000
  0
ARC
  8
0
 10
-136.206543
 20
243.050415
 40
5.000007
 50
195.000015
 51
239.999985
  0
ARC
  8
0
 10
-149.000000
 20
180.000000
 40
70.750008
 50
216.898590
 51
220.947433
  0
ARC
  8
0
 10
-149.000000
 20
180.000000
 40
12.450004
 50
175.266006
 51
184.733994
  0
ARC
  8
0
 10
-149.000000
 20
180.000000
 40
11.650002
 50
176.687653
 51
183.312347
  0
ARC
  8
0
 10
-149.000000
 20
180.000000
 40
11.650001
 50
266.687744
 51
273.312347
  0
ARC
  8
0
 10
-149.000000
 20
180.000000
 40
11.650002
 50
356.687653
 51
3.312267
  0
ARC
  8
0
 10
-149.000000
 20
180.000000
 40
11.650002
 50
86.687660
 51
93.312340
  0
ARC
  8
0
 10
-149.000000
 20
180.000000
 40
12.450005
 50
265.265930
 51
274.734070
  0
ARC
  8
0
 10
-149.000000
 20
180.000000
 40
12.450004
 50
355.265991
 51
4.734064
  0
ARC
  8
0
 10
-149.000000
 20
180.000000
 40
12.450004
 50
85.266006
 51
94.734062
  0
ARC
  8
0
 10
-149.000000
 20
180.000000
 40
70.750000
 50
229.052521
 51
310.947418
  0
ARC
  8
0
 10
-149.000000
 20
180.000000
 40
70.750000
 50
319.052521
 51
143.008896
  0
POINT
  8
0
 10
-190.000000
 20
-24.000000
  0
POINT
  8
0
 10
-126.299988
 20
-24.000000
  0
LINE
  8
0
 10
-195.000000
 20
-80.500000
 11
-195.000000
 21
-68.472626
  0
LINE
  8
0
 10
-195.000000
 20
32.500000
 11
-188.799988
 21
32.500000
  0
LINE
  8
0
 10
-195.000000
 20
-80.500000
 11
-188.799988
 21
-80.500000
  0
LINE
  8
0
 10
-195.000000
 20
-58.100006
 11
-195.000000
 21
-47.899994
  0
LINE
  8
0
 10
-188.799988
 20
-80.500000
 11
-188.799988
 21
32.500000
  0
LINE
  8
0
 10
-184.300003
 20
-69.961945
 11
-142.300003
 21
-69.961945
  0
LINE
  8
0
 10
-184.299973
 20
21.961937
 11
-142.299973
 21
21.961937
  0
LINE
  8
0
 10
-184.299988
 20
21.950001
 11
-184.299988
 21
-69.949997
  0
LINE
  8
0
 10
-142.299988
 20
21.961926
 11
-142.299988
 21
-69.961960
  0
LINE
  8
0
 10
-137.299988
 20
-14.986453
 11
-137.299988
 21
-22.633045
  0
LINE
  8
0
 10
-130.299988
 20
-15.436064
 11
-130.299988
 21
-19.836058
  0
LINE
  8
0
 10
-140.299988
 20
-5.276302
 11
-140.299988
 21
-12.538357
  0
LINE
  8
0
 10
-126.299988
 20
-12.950019
 11
-126.299988
 21
-35.050018
  0
LINE
  8
0
 10
-142.299988
 20
-36.094437
 11
-137.749985
 21
-36.094437
  0
LINE
  8
0
 10
-142.299988
 20
-32.619850
 11
-137.749985
 21
-32.619850
  0
LINE
  8
0
 10
-142.299988
 20
-26.889381
 11
-137.749985
 21
-26.889381
  0
LINE
  8
0
 10
-142.299988
 20
-24.633499
 11
-137.749985
 21
-24.633499
  0
LINE
  8
0
 10
-142.299988
 20
-22.532249
 11
-137.749985
 21
-22.532249
  0
LINE
  8
0
 10
-142.299988
 20
-22.733742
 11
-137.749985
 21
-22.733742
  0
LINE
  8
0
 10
-142.299988
 20
-17.434547
 11
-137.749985
 21
-17.434547
  0
LINE
  8
0
 10
-142.299988
 20
-12.538345
 11
-137.749985
 21
-12.538345
  0
LINE
  8
0
 10
-137.299988
 20
-15.136047
 11
-130.599991
 21
-15.136047
  0
LINE
  8
0
 10
-137.299988
 20
-20.136047
 11
-130.599991
 21
-20.136047
  0
LINE
  8
0
 10
-137.299988
 20
-27.863968
 11
-130.599991
 21
-27.863968
  0
LINE
  8
0
 10
-137.299988
 20
-32.863968
 11
-130.599991
 21
-32.863968
  0
LINE
  8
0
 10
-130.299988
 20
-28.163984
 11
-130.299988
 21
-32.563980
  0
LINE
  8
0
 10
-137.299988
 20
-25.761448
 11
-137.299988
 21
-34.357155
  0
LINE
  8
0
 10
-130.599960
 20
-32.863998
 11
-130.299957
 21
-32.563995
  0
LINE
  8
0
 10
-130.599976
 20
-27.863976
 11
-130.299988
 21
-28.163979
  0
LINE
  8
0
 10
-130.299957
 20
-19.836075
 11
-130.599960
 21
-20.136074
  0
LINE
  8
0
 10
-130.599960
 20
-15.136030
 11
-130.299957
 21
-15.436036
  0
LINE
  8
0
 10
-130.599991
 20
-32.863983
 11
-130.599991
 21
-27.863981
  0
LINE
  8
0
 10
-130.599991
 20
-20.136053
 11
-130.599991
 21
-15.136053
  0
LINE
  8
0
 10
-130.349960
 20
-32.613960
 11
-137.299988
 21
-32.613960
  0
LINE
  8
0
 10
-130.350006
 20
-28.113960
 11
-137.299988
 21
-28.113960
  0
LINE
  8
0
 10
-130.349976
 20
-19.886040
 11
-137.299988
 21
-19.886040
  0
LINE
  8
0
 10
-130.349991
 20
-15.386040
 11
-137.299988
 21
-15.386040
  0
LINE
  8
0
 10
-137.749985
 20
-35.250008
 11
-126.499985
 21
-35.250008
  0
LINE
  8
0
 10
-138.123383
 20
-12.750008
 11
-126.499985
 21
-12.750008
  0
LINE
  8
0
 10
-126.499969
 20
-35.250034
 11
-126.299973
 21
-35.050030
  0
LINE
  8
0
 10
-126.299995
 20
-12.950029
 11
-126.499992
 21
-12.750033
  0
LINE
  8
0
 10
-140.299988
 20
-36.094448
 11
-140.299988
 21
-42.723724
  0
LINE
  8
0
 10
-140.299988
 20
-22.733753
 11
-140.299988
 21
-24.633511
  0
LINE
  8
0
 10
-184.299988
 20
-40.723892
 11
-142.299988
 21
-40.723892
  0
LINE
  8
0
 10
-184.299988
 20
-7.276382
 11
-142.299988
 21
-7.276382
  0
LINE
  8
0
 10
-184.299988
 20
-7.000000
 11
-188.799988
 21
-7.000000
  0
LINE
  8
0
 10
-184.299988
 20
-41.000000
 11
-188.799988
 21
-41.000000
  0
LINE
  8
0
 10
-139.899994
 20
-54.738781
 11
-139.899994
 21
-42.758724
  0
LINE
  8
0
 10
-139.899994
 20
-54.738785
 11
-142.300003
 21
-54.948753
  0
LINE
  8
0
 10
-139.899994
 20
-42.758736
 11
-142.299988
 21
-42.548767
  0
LINE
  8
0
 10
-139.899979
 20
-5.241306
 11
-139.899979
 21
6.738750
  0
LINE
  8
0
 10
-139.899994
 20
-5.241299
 11
-142.299988
 21
-5.451271
  0
LINE
  8
0
 10
-139.899979
 20
6.738762
 11
-142.299988
 21
6.948736
  0
LINE
  8
0
 10
-139.899994
 20
-42.600006
 11
-139.899994
 21
-36.094440
  0
LINE
  8
0
 10
-137.849991
 20
-39.049301
 11
-137.849991
 21
-38.950706
  0
LINE
  8
0
 10
-139.899994
 20
-42.599998
 11
-140.299988
 21
-42.599998
  0
LINE
  8
0
 10
-139.899994
 20
-12.538349
 11
-139.899994
 21
-5.400003
  0
LINE
  8
0
 10
-137.849991
 20
-9.049299
 11
-137.849991
 21
-8.950708
  0
LINE
  8
0
 10
-139.899994
 20
-5.400000
 11
-140.299988
 21
-5.400000
  0
LINE
  8
0
 10
-188.799988
 20
-69.949997
 11
-184.299988
 21
-69.949997
  0
LINE
  8
0
 10
-188.799988
 20
21.950001
 11
-184.299988
 21
21.950001
  0
LINE
  8
0
 10
-189.399994
 20
-68.150002
 11
-189.399994
 21
-57.650002
  0
LINE
  8
0
 10
-195.399994
 20
-67.300003
 11
-195.399994
 21
-58.500000
  0
LINE
  8
0
 10
-194.799988
 20
-67.900002
 11
-189.399994
 21
-67.900002
  0
LINE
  8
0
 10
-194.799988
 20
-57.900002
 11
-189.399994
 21
-57.900002
  0
LINE
  8
0
 10
-194.799988
 20
-38.099998
 11
-189.399994
 21
-38.099998
  0
LINE
  8
0
 10
-194.799988
 20
-48.099998
 11
-189.399994
 21
-48.099998
  0
LINE
  8
0
 10
-194.799988
 20
0.100000
 11
-189.399994
 21
0.100000
  0
LINE
  8
0
 10
-194.799988
 20
-9.900000
 11
-189.399994
 21
-9.900000
  0
LINE
  8
0
 10
-194.799988
 20
9.900002
 11
-189.399994
 21
9.900002
  0
LINE
  8
0
 10
-194.799988
 20
19.900002
 11
-189.399994
 21
19.900002
  0
LINE
  8
0
 10
-189.399994
 20
20.150002
 11
-188.799988
 21
20.150002
  0
LINE
  8
0
 10
-189.399994
 20
9.650002
 11
-188.799988
 21
9.650002
  0
LINE
  8
0
 10
-189.399994
 20
0.350000
 11
-188.799988
 21
0.350000
  0
LINE
  8
0
 10
-189.399994
 20
-10.150000
 11
-188.799988
 21
-10.150000
  0
LINE
  8
0
 10
-189.399994
 20
-37.849998
 11
-188.799988
 21
-37.849998
  0
LINE
  8
0
 10
-189.399994
 20
-48.349998
 11
-188.799988
 21
-48.349998
  0
LINE
  8
0
 10
-189.399994
 20
-68.150002
 11
-188.799988
 21
-68.150002
  0
LINE
  8
0
 10
-189.399994
 20
-57.650002
 11
-188.799988
 21
-57.650002
  0
LINE
  8
0
 10
-195.399994
 20
-9.300000
 11
-195.399994
 21
-0.500000
  0
LINE
  8
0
 10
-189.399994
 20
-10.150000
 11
-189.399994
 21
0.350000
  0
LINE
  8
0
 10
-195.399994
 20
-47.500000
 11
-195.399994
 21
-38.700001
  0
LINE
  8
0
 10
-189.399994
 20
-48.349998
 11
-189.399994
 21
-37.849998
  0
LINE
  8
0
 10
-195.399994
 20
10.500000
 11
-195.399994
 21
19.300003
  0
LINE
  8
0
 10
-189.399994
 20
9.650002
 11
-189.399994
 21
20.150002
  0
LINE
  8
0
 10
-194.799988
 20
-67.900002
 11
-194.799988
 21
-57.900002
  0
LINE
  8
0
 10
-194.799988
 20
-48.099998
 11
-194.799988
 21
-38.099998
  0
LINE
  8
0
 10
-194.799988
 20
-9.900000
 11
-194.799988
 21
0.100000
  0
LINE
  8
0
 10
-194.799988
 20
9.900002
 11
-194.799988
 21
19.900002
  0
LINE
  8
0
 10
-194.799988
 20
-67.899994
 11
-195.399994
 21
-67.300003
  0
LINE
  8
0
 10
-194.799988
 20
-57.899998
 11
-195.399994
 21
-58.499996
  0
LINE
  8
0
 10
-194.799988
 20
-48.100002
 11
-195.399994
 21
-47.500000
  0
LINE
  8
0
 10
-195.399994
 20
-38.700001
 11
-194.799988
 21
-38.099998
  0
LINE
  8
0
 10
-195.000000
 20
-38.300007
 11
-195.000000
 21
-9.699995
  0
LINE
  8
0
 10
-194.799988
 20
-9.900001
 11
-195.399994
 21
-9.300001
  0
LINE
  8
0
 10
-195.399994
 20
-0.499996
 11
-194.799988
 21
0.100004
  0
LINE
  8
0
 10
-195.399994
 20
10.500004
 11
-194.799988
 21
9.900005
  0
LINE
  8
0
 10
-195.399994
 20
19.300003
 11
-194.799988
 21
19.900002
  0
LINE
  8
0
 10
-195.000000
 20
-0.100004
 11
-195.000000
 21
10.100006
  0
LINE
  8
0
 10
-195.000000
 20
19.700001
 11
-195.000000
 21
32.500000
  0
LINE
  8
0
 10
-178.550003
 20
-80.952316
 11
-171.150024
 21
-80.952316
  0
LINE
  8
0
 10
-179.349991
 20
-82.932220
 11
-170.350006
 21
-82.932220
  0
LINE
  8
0
 10
-179.349991
 20
-88.381958
 11
-170.350006
 21
-88.381958
  0
LINE
  8
0
 10
-178.550003
 20
-89.230499
 11
-171.150024
 21
-89.230499
  0
LINE
  8
0
 10
-178.550003
 20
-76.568253
 11
-171.150024
 21
-76.568253
  0
LINE
  8
0
 10
-170.650024
 20
-77.068253
 11
-170.650024
 21
-81.866516
  0
LINE
  8
0
 10
-169.850006
 20
-78.482468
 11
-169.850006
 21
-87.881958
  0
LINE
  8
0
 10
-179.050003
 20
-77.068253
 11
-179.050003
 21
-81.866516
  0
LINE
  8
0
 10
-179.849991
 20
-78.482468
 11
-179.849991
 21
-87.881958
  0
LINE
  8
0
 10
-178.550003
 20
-82.366516
 11
-171.150024
 21
-82.366516
  0
LINE
  8
0
 10
-180.350006
 20
-77.982468
 11
-179.050003
 21
-77.982468
  0
LINE
  8
0
 10
-179.050003
 20
-88.381958
 11
-179.050003
 21
-88.730499
  0
LINE
  8
0
 10
-170.650024
 20
-88.381958
 11
-170.650024
 21
-88.730499
  0
LINE
  8
0
 10
-170.650024
 20
-77.982468
 11
-169.350006
 21
-77.982468
  0
LINE
  8
0
 10
-186.350006
 20
-78.265312
 11
-180.350006
 21
-78.265312
  0
LINE
  8
0
 10
-169.350006
 20
-77.982468
 11
-169.350006
 21
-83.922165
  0
LINE
  8
0
 10
-180.350006
 20
-77.982468
 11
-180.350006
 21
-83.922165
  0
LINE
  8
0
 10
-171.350006
 20
-70.769974
 11
-171.350006
 21
-76.568253
  0
LINE
  8
0
 10
-178.349991
 20
-70.769981
 11
-178.349991
 21
-76.568253
  0
LINE
  8
0
 10
-169.350006
 20
-78.265312
 11
-164.350006
 21
-78.265312
  0
LINE
  8
0
 10
-173.349976
 20
-73.598404
 11
-173.349976
 21
-70.769981
  0
LINE
  8
0
 10
-176.350006
 20
-73.598412
 11
-176.350006
 21
-70.769981
  0
LINE
  8
0
 10
-178.349991
 20
-70.769981
 11
-176.350006
 21
-70.769981
  0
LINE
  8
0
 10
-173.350006
 20
-70.769981
 11
-171.350006
 21
-70.769981
  0
LINE
  8
0
 10
-164.350006
 20
-72.820587
 11
-164.350006
 21
-83.922165
  0
LINE
  8
0
 10
-186.350006
 20
-83.922165
 11
-180.350006
 21
-83.922165
  0
LINE
  8
0
 10
-180.350006
 20
-83.639328
 11
-179.849991
 21
-83.639328
  0
LINE
  8
0
 10
-169.850006
 20
-83.639328
 11
-169.350006
 21
-83.639328
  0
LINE
  8
0
 10
-169.350006
 20
-83.922165
 11
-164.350006
 21
-83.922165
  0
LINE
  8
0
 10
-186.350006
 20
-72.820587
 11
-178.349991
 21
-72.820587
  0
LINE
  8
0
 10
-176.350006
 20
-72.396324
 11
-173.350006
 21
-72.396324
  0
LINE
  8
0
 10
-176.350006
 20
-71.335670
 11
-173.350006
 21
-71.335670
  0
LINE
  8
0
 10
-176.350006
 20
-72.820587
 11
-173.350006
 21
-72.820587
  0
LINE
  8
0
 10
-171.350006
 20
-72.820587
 11
-164.350006
 21
-72.820587
  0
LINE
  8
0
 10
-171.350006
 20
-72.396324
 11
-164.800003
 21
-72.396324
  0
LINE
  8
0
 10
-171.350006
 20
-71.335670
 11
-164.800003
 21
-71.335670
  0
LINE
  8
0
 10
-164.800003
 20
-71.335670
 11
-164.800003
 21
-72.820587
  0
LINE
  8
0
 10
-179.349991
 20
-71.689194
 11
-178.349991
 21
-72.396286
  0
LINE
  8
0
 10
-179.350006
 20
-70.628540
 11
-178.350006
 21
-71.335648
  0
LINE
  8
0
 10
-185.800003
 20
-70.628540
 11
-179.349991
 21
-70.628540
  0
LINE
  8
0
 10
-186.300003
 20
-71.689194
 11
-179.349991
 21
-71.689194
  0
LINE
  8
0
 10
-179.349991
 20
-70.628540
 11
-179.349991
 21
-71.689194
  0
LINE
  8
0
 10
-200.800018
 20
-60.330059
 11
-199.300018
 21
-60.330059
  0
LINE
  8
0
 10
-202.300018
 20
-61.401554
 11
-199.300018
 21
-61.401554
  0
LINE
  8
0
 10
-202.300018
 20
-68.472626
 11
-199.300018
 21
-68.472626
  0
LINE
  8
0
 10
-202.300018
 20
-58.324860
 11
-202.300018
 21
-68.472626
  0
LINE
  8
0
 10
-200.800018
 20
-59.472145
 11
-200.800018
 21
-60.330059
  0
LINE
  8
0
 10
-199.300018
 20
-57.264198
 11
-199.300018
 21
-61.401554
  0
LINE
  8
0
 10
-195.300018
 20
-57.264198
 11
-195.300018
 21
-58.400040
  0
LINE
  8
0
 10
-199.300018
 20
-60.169243
 11
-195.399994
 21
-60.169243
  0
LINE
  8
0
 10
-199.300018
 20
-69.361633
 11
-195.300018
 21
-69.361633
  0
LINE
  8
0
 10
-195.300018
 20
-68.472626
 11
-188.799988
 21
-68.472626
  0
LINE
  8
0
 10
-199.300018
 20
-68.472626
 11
-199.300018
 21
-69.361633
  0
LINE
  8
0
 10
-195.300018
 20
-68.472626
 11
-195.300018
 21
-69.361633
  0
LINE
  8
0
 10
-199.300018
 20
-57.264198
 11
-195.300018
 21
-57.264198
  0
LINE
  8
0
 10
-202.300018
 20
-58.324856
 11
-199.300018
 21
-58.324856
  0
LINE
  8
0
 10
-202.300018
 20
-59.472145
 11
-199.300018
 21
-59.472145
  0
LINE
  8
0
 10
-186.350006
 20
-72.820587
 11
-186.350006
 21
-83.922165
  0
LINE
  8
0
 10
-185.800003
 20
-70.628540
 11
-185.800003
 21
-69.949997
  0
LINE
  8
0
 10
-187.300003
 20
-77.760269
 11
-187.300003
 21
-69.949997
  0
LINE
  8
0
 10
-132.350006
 20
29.797432
 11
-130.850006
 21
29.797432
  0
LINE
  8
0
 10
-161.850006
 20
33.472435
 11
-161.850006
 21
28.472435
  0
LINE
  8
0
 10
-164.350006
 20
33.472431
 11
-161.850006
 21
33.472431
  0
LINE
  8
0
 10
-161.850006
 20
28.972431
 11
-135.350006
 21
28.972431
  0
LINE
  8
0
 10
-164.350006
 20
28.472431
 11
-161.850006
 21
28.472431
  0
LINE
  8
0
 10
-135.350006
 20
32.972431
 11
-135.350006
 21
28.972431
  0
LINE
  8
0
 10
-135.350006
 20
30.672432
 11
-132.350006
 21
30.672432
  0
LINE
  8
0
 10
-135.350006
 20
31.272430
 11
-132.350006
 21
31.272430
  0
LINE
  8
0
 10
-135.350006
 20
29.672432
 11
-132.350006
 21
29.672432
  0
LINE
  8
0
 10
-135.350006
 20
32.272430
 11
-132.350006
 21
32.272430
  0
LINE
  8
0
 10
-132.350006
 20
32.272430
 11
-132.350006
 21
31.272430
  0
LINE
  8
0
 10
-132.350006
 20
30.672432
 11
-132.350006
 21
29.672432
  0
LINE
  8
0
 10
-132.350006
 20
32.147430
 11
-130.850006
 21
32.147430
  0
LINE
  8
0
 10
-132.350006
 20
32.022430
 11
-130.850006
 21
32.022430
  0
LINE
  8
0
 10
-132.350006
 20
31.897430
 11
-130.850006
 21
31.897430
  0
LINE
  8
0
 10
-132.350006
 20
31.772430
 11
-130.850006
 21
31.772430
  0
LINE
  8
0
 10
-132.350006
 20
31.647430
 11
-130.850006
 21
31.647430
  0
LINE
  8
0
 10
-132.350006
 20
31.522430
 11
-130.850006
 21
31.522430
  0
LINE
  8
0
 10
-132.350006
 20
31.397430
 11
-130.850006
 21
31.397430
  0
LINE
  8
0
 10
-132.350006
 20
30.547432
 11
-130.850006
 21
30.547432
  0
LINE
  8
0
 10
-132.350006
 20
30.422432
 11
-130.850006
 21
30.422432
  0
LINE
  8
0
 10
-132.350006
 20
30.297432
 11
-130.850006
 21
30.297432
  0
LINE
  8
0
 10
-132.350006
 20
30.172432
 11
-130.850006
 21
30.172432
  0
LINE
  8
0
 10
-132.350006
 20
30.047432
 11
-130.850006
 21
30.047432
  0
LINE
  8
0
 10
-132.350006
 20
29.922432
 11
-130.850006
 21
29.922432
  0
LINE
  8
0
 10
-173.349976
 20
31.820946
 11
-173.349976
 21
22.769985
  0
LINE
  8
0
 10
-176.350006
 20
31.820957
 11
-176.350006
 21
22.769985
  0
LINE
  8
0
 10
-178.550003
 20
41.230499
 11
-171.150024
 21
41.230499
  0
LINE
  8
0
 10
-179.350006
 20
40.381973
 11
-179.050003
 21
40.381973
  0
LINE
  8
0
 10
-178.550003
 20
37.053547
 11
-171.150024
 21
37.053547
  0
LINE
  8
0
 10
-180.350006
 20
35.639324
 11
-178.350006
 21
35.639324
  0
LINE
  8
0
 10
-179.050003
 20
40.730499
 11
-179.050003
 21
35.639324
  0
LINE
  8
0
 10
-170.650024
 20
40.730499
 11
-170.650024
 21
35.639328
  0
LINE
  8
0
 10
-169.850006
 20
39.881973
 11
-169.850006
 21
35.639328
  0
LINE
  8
0
 10
-179.849991
 20
39.881973
 11
-179.849991
 21
35.639324
  0
LINE
  8
0
 10
-180.350006
 20
35.922173
 11
-180.350006
 21
35.639324
  0
LINE
  8
0
 10
-169.350006
 20
35.922173
 11
-169.350006
 21
35.639324
  0
LINE
  8
0
 10
-186.350006
 20
35.922173
 11
-180.350006
 21
35.922173
  0
LINE
  8
0
 10
-169.350006
 20
35.922173
 11
-164.350006
 21
35.922173
  0
LINE
  8
0
 10
-170.650024
 20
40.381973
 11
-170.350006
 21
40.381973
  0
LINE
  8
0
 10
-171.150024
 20
36.629284
 11
-171.150024
 21
35.639328
  0
LINE
  8
0
 10
-178.550003
 20
36.629280
 11
-178.550003
 21
35.639324
  0
LINE
  8
0
 10
-178.550003
 20
36.629280
 11
-171.150024
 21
36.629280
  0
LINE
  8
0
 10
-176.350006
 20
28.992523
 11
-173.349976
 21
28.992523
  0
LINE
  8
0
 10
-178.350006
 20
22.769981
 11
-176.350006
 21
22.769981
  0
LINE
  8
0
 10
-178.349991
 20
36.629280
 11
-178.349991
 21
22.769981
  0
LINE
  8
0
 10
-171.350006
 20
36.629280
 11
-171.350006
 21
22.769985
  0
LINE
  8
0
 10
-173.349976
 20
22.769981
 11
-171.350006
 21
22.769981
  0
LINE
  8
0
 10
-171.350006
 20
35.639324
 11
-169.350006
 21
35.639324
  0
LINE
  8
0
 10
-186.350006
 20
35.922173
 11
-186.350006
 21
30.760315
  0
LINE
  8
0
 10
-164.350006
 20
35.922173
 11
-164.350006
 21
24.820591
  0
LINE
  8
0
 10
-176.350006
 20
30.477448
 11
-173.349976
 21
30.477448
  0
LINE
  8
0
 10
-176.350006
 20
30.053185
 11
-173.349976
 21
30.053185
  0
LINE
  8
0
 10
-176.350006
 20
23.335667
 11
-173.349976
 21
23.335667
  0
LINE
  8
0
 10
-171.350006
 20
30.053185
 11
-164.800003
 21
30.053185
  0
LINE
  8
0
 10
-171.350006
 20
23.335667
 11
-164.800003
 21
23.335667
  0
LINE
  8
0
 10
-164.800003
 20
24.820591
 11
-164.350006
 21
24.820591
  0
LINE
  8
0
 10
-171.350006
 20
30.477448
 11
-164.350006
 21
30.477448
  0
LINE
  8
0
 10
-179.350006
 20
29.699650
 11
-178.350006
 21
28.992546
  0
LINE
  8
0
 10
-179.350006
 20
30.760292
 11
-178.350021
 21
30.053188
  0
LINE
  8
0
 10
-186.299988
 20
30.760338
 11
-179.349991
 21
30.760338
  0
LINE
  8
0
 10
-185.299988
 20
29.699669
 11
-179.350006
 21
29.699669
  0
LINE
  8
0
 10
-185.799988
 20
22.628590
 11
-179.350113
 21
22.628590
  0
LINE
  8
0
 10
-179.350006
 20
29.699661
 11
-179.349991
 21
30.760319
  0
LINE
  8
0
 10
-179.350052
 20
22.628624
 11
-178.350052
 21
23.335724
  0
LINE
  8
0
 10
-202.299988
 20
20.561169
 11
-199.299988
 21
20.561169
  0
LINE
  8
0
 10
-200.799957
 20
19.489670
 11
-199.299988
 21
19.489670
  0
LINE
  8
0
 10
-202.299988
 20
18.631760
 11
-199.299988
 21
18.631760
  0
LINE
  8
0
 10
-202.299988
 20
17.484467
 11
-195.399994
 21
17.484467
  0
LINE
  8
0
 10
-202.299957
 20
20.561169
 11
-202.299957
 21
10.413399
  0
LINE
  8
0
 10
-200.799957
 20
19.489670
 11
-200.799957
 21
18.631760
  0
LINE
  8
0
 10
-199.299988
 20
21.450172
 11
-199.299988
 21
17.484467
  0
LINE
  8
0
 10
-195.299957
 20
21.450172
 11
-195.299957
 21
19.400024
  0
LINE
  8
0
 10
-195.299988
 20
20.561169
 11
-195.000000
 21
20.561169
  0
LINE
  8
0
 10
-199.299988
 20
18.545128
 11
-195.399994
 21
18.545128
  0
LINE
  8
0
 10
-199.299988
 20
21.450172
 11
-195.299988
 21
21.450172
  0
LINE
  8
0
 10
-199.299988
 20
10.413399
 11
-199.299988
 21
9.352741
  0
LINE
  8
0
 10
-195.299957
 20
10.413399
 11
-195.299957
 21
9.352741
  0
LINE
  8
0
 10
-199.299988
 20
9.352741
 11
-195.299988
 21
9.352741
  0
LINE
  8
0
 10
-202.299988
 20
10.413399
 11
-198.352478
 21
10.413399
  0
LINE
  8
0
 10
-199.299957
 20
13.948929
 11
-199.299957
 21
11.615475
  0
LINE
  8
0
 10
-196.246216
 20
10.413399
 11
-195.313385
 21
10.413399
  0
LINE
  8
0
 10
-132.350006
 20
-80.022415
 11
-130.850006
 21
-80.022415
  0
LINE
  8
0
 10
-132.350006
 20
-80.147415
 11
-130.850006
 21
-80.147415
  0
LINE
  8
0
 10
-161.850006
 20
-76.472412
 11
-161.850006
 21
-81.472412
  0
LINE
  8
0
 10
-164.350006
 20
-76.472420
 11
-161.850006
 21
-76.472420
  0
LINE
  8
0
 10
-161.850006
 20
-76.972420
 11
-135.350006
 21
-76.972420
  0
LINE
  8
0
 10
-161.850006
 20
-80.972420
 11
-135.350006
 21
-80.972420
  0
LINE
  8
0
 10
-164.350006
 20
-81.472420
 11
-161.850006
 21
-81.472420
  0
LINE
  8
0
 10
-135.350006
 20
-76.972420
 11
-135.350006
 21
-80.972420
  0
LINE
  8
0
 10
-135.350006
 20
-79.272415
 11
-132.350006
 21
-79.272415
  0
LINE
  8
0
 10
-135.350006
 20
-78.672424
 11
-132.350006
 21
-78.672424
  0
LINE
  8
0
 10
-135.350006
 20
-80.272415
 11
-132.350006
 21
-80.272415
  0
LINE
  8
0
 10
-135.350006
 20
-77.672424
 11
-132.350006
 21
-77.672424
  0
LINE
  8
0
 10
-132.350006
 20
-77.672424
 11
-132.350006
 21
-78.672424
  0
LINE
  8
0
 10
-132.350006
 20
-79.272415
 11
-132.350006
 21
-80.272415
  0
LINE
  8
0
 10
-132.350006
 20
-77.797424
 11
-130.850006
 21
-77.797424
  0
LINE
  8
0
 10
-132.350006
 20
-77.922424
 11
-130.850006
 21
-77.922424
  0
LINE
  8
0
 10
-132.350006
 20
-78.047424
 11
-130.850006
 21
-78.047424
  0
LINE
  8
0
 10
-132.350006
 20
-78.172424
 11
-130.850006
 21
-78.172424
  0
LINE
  8
0
 10
-132.350006
 20
-78.297424
 11
-130.850006
 21
-78.297424
  0
LINE
  8
0
 10
-132.350006
 20
-78.422424
 11
-130.850006
 21
-78.422424
  0
LINE
  8
0
 10
-132.350006
 20
-78.547424
 11
-130.850006
 21
-78.547424
  0
LINE
  8
0
 10
-132.350006
 20
-79.397415
 11
-130.850006
 21
-79.397415
  0
LINE
  8
0
 10
-132.350006
 20
-79.522415
 11
-130.850006
 21
-79.522415
  0
LINE
  8
0
 10
-132.350006
 20
-79.647415
 11
-130.850006
 21
-79.647415
  0
LINE
  8
0
 10
-132.350006
 20
-79.772415
 11
-130.850006
 21
-79.772415
  0
LINE
  8
0
 10
-132.350006
 20
-79.897415
 11
-130.850006
 21
-79.897415
  0
LINE
  8
0
 10
-185.799988
 20
21.950001
 11
-185.799988
 21
29.199669
  0
LINE
  8
0
 10
-187.299988
 20
21.950001
 11
-187.299988
 21
29.760338
  0
LINE
  8
0
 10
-207.500000
 20
31.000000
 11
-207.500000
 21
-79.000000
  0
LINE
  8
0
 10
-203.000000
 20
20.999996
 11
-203.000000
 21
19.640999
  0
LINE
  8
0
 10
-203.822662
 20
-67.640999
 11
-202.300018
 21
-67.640999
  0
LINE
  8
0
 10
-203.000000
 20
-33.000000
 11
-195.000000
 21
-33.000000
  0
LINE
  8
0
 10
-203.000000
 20
-15.000000
 11
-195.000000
 21
-15.000000
  0
LINE
  8
0
 10
-203.822571
 20
19.640999
 11
-202.299957
 21
19.640999
  0
LINE
  8
0
 10
-207.500122
 20
-78.999954
 11
-203.000122
 21
-68.999954
  0
LINE
  8
0
 10
-207.500122
 20
30.999950
 11
-203.000122
 21
20.999954
  0
LINE
  8
0
 10
-203.000000
 20
10.411758
 11
-203.000000
 21
-15.000000
  0
LINE
  8
0
 10
-203.000000
 20
-33.000000
 11
-203.000000
 21
-58.411758
  0
LINE
  8
0
 10
-203.000000
 20
-67.640999
 11
-203.000000
 21
-69.000000
  0
LINE
  8
0
 10
-161.850006
 20
32.972431
 11
-135.350006
 21
32.972431
  0
LINE
  8
0
 10
-164.800003
 20
30.053185
 11
-164.800003
 21
23.335667
  0
LINE
  8
0
 10
-171.350006
 20
28.992523
 11
-164.800003
 21
28.992523
  0
ARC
  8
0
 10
-140.878540
 20
-34.357155
 40
3.578557
 50
330.956390
 51
29.043665
  0
ARC
  8
0
 10
-146.646790
 20
-29.754625
 40
9.346801
 50
342.148743
 51
17.851284
  0
ARC
  8
0
 10
-138.938614
 20
-25.761448
 40
1.638634
 50
316.501068
 51
43.499298
  0
ARC
  8
0
 10
-144.184158
 20
-14.986453
 40
6.884173
 50
339.168884
 51
20.831160
  0
ARC
  8
0
 10
-144.743515
 20
-19.983408
 40
7.443530
 50
339.975250
 51
20.024778
  0
ARC
  8
0
 10
-153.050156
 20
-48.748749
 40
14.450163
 50
335.510254
 51
24.489653
  0
ARC
  8
0
 10
-153.050140
 20
0.748724
 40
14.450162
 50
335.510284
 51
24.489677
  0
ARC
  8
0
 10
-141.949982
 20
-39.049301
 40
4.099991
 50
299.999878
 51
0.000000
  0
ARC
  8
0
 10
-141.949982
 20
-38.950706
 40
4.099991
 50
359.999939
 51
44.158955
  0
ARC
  8
0
 10
-141.949982
 20
-9.049299
 40
4.100000
 50
301.680695
 51
359.999969
  0
ARC
  8
0
 10
-141.949982
 20
-8.950708
 40
4.099991
 50
359.999969
 51
60.000141
  0
CIRCLE
  8
0
 10
-177.299988
 20
-24.000002
 40
2.700000
  0
CIRCLE
  8
0
 10
-165.850006
 20
-75.619873
 40
0.010000
  0
ARC
  8
0
 10
-178.550003
 20
-77.068253
 40
0.500000
 50
90.000000
 51
180.000000
  0
ARC
  8
0
 10
-171.149994
 20
-77.068253
 40
0.500000
 50
0.000000
 51
90.000000
  0
ARC
  8
0
 10
-170.350006
 20
-78.482468
 40
0.500000
 50
0.000000
 51
90.000000
  0
ARC
  8
0
 10
-179.349991
 20
-78.482468
 40
0.500000
 50
90.000000
 51
180.000000
  0
ARC
  8
0
 10
-179.349991
 20
-87.881958
 40
0.500000
 50
180.000000
 51
270.000000
  0
ARC
  8
0
 10
-170.350006
 20
-87.881958
 40
0.500000
 50
270.000000
 51
0.000000
  0
ARC
  8
0
 10
-171.149994
 20
-88.730499
 40
0.500000
 50
270.000000
 51
0.000000
  0
ARC
  8
0
 10
-178.550003
 20
-88.730499
 40
0.500000
 50
180.000000
 51
270.000000
  0
ARC
  8
0
 10
-178.550003
 20
-81.866516
 40
0.500000
 50
180.000000
 51
270.000000
  0
ARC
  8
0
 10
-186.300003
 20
-70.689194
 40
1.000000
 50
180.000000
 51
270.000000
  0
ARC
  8
0
 10
-186.300003
 20
-77.760269
 40
1.000000
 50
180.000000
 51
267.133850
  0
ARC
  8
0
 10
-178.550003
 20
40.730499
 40
0.500000
 50
90.000000
 51
180.000000
  0
ARC
  8
0
 10
-171.150024
 20
40.730499
 40
0.500000
 50
0.000000
 51
90.000000
  0
ARC
  8
0
 10
-171.150024
 20
36.553551
 40
0.500000
 50
0.000000
 51
90.000000
  0
ARC
  8
0
 10
-178.550003
 20
36.553547
 40
0.500000
 50
90.000000
 51
180.000000
  0
ARC
  8
0
 10
-170.350006
 20
39.881973
 40
0.500000
 50
0.000000
 51
90.000000
  0
ARC
  8
0
 10
-179.350006
 20
39.881973
 40
0.500000
 50
90.000000
 51
180.000000
  0
ARC
  8
0
 10
-186.299988
 20
29.760338
 40
1.000000
 50
90.000000
 51
180.000000
  0
ARC
  8
0
 10
-185.299988
 20
29.199669
 40
0.500000
 50
90.000000
 51
180.000000
  0
ARC
  8
0
 10
-203.822571
 20
18.641582
 40
1.000000
 50
90.000000
 51
174.261185
  0
ARC
  8
0
 10
-203.822662
 20
-66.640625
 40
1.000007
 50
185.641525
 51
270.000000
  0
ARC
  8
0
 10
-178.009903
 20
-60.769562
 40
1.309916
 50
345.893829
 51
14.106173
  0
ARC
  8
0
 10
-178.352325
 20
-60.895092
 40
1.673045
 50
15.417580
 51
51.387932
  0
ARC
  8
0
 10
-179.299988
 20
-62.279617
 40
3.348557
 50
53.501774
 51
126.498222
  0
ARC
  8
0
 10
-180.247650
 20
-60.895092
 40
1.673042
 50
128.612061
 51
164.582413
  0
ARC
  8
0
 10
-180.590073
 20
-60.769562
 40
1.309916
 50
165.893829
 51
194.106171
  0
ARC
  8
0
 10
-180.247650
 20
-60.644032
 40
1.673045
 50
195.417587
 51
231.387939
  0
ARC
  8
0
 10
-179.299988
 20
-59.259506
 40
3.348557
 50
233.501770
 51
306.498230
  0
ARC
  8
0
 10
-178.352325
 20
-60.644032
 40
1.673042
 50
308.612061
 51
344.582428
  0
ARC
  8
0
 10
-178.009903
 20
12.769562
 40
1.309901
 50
345.893677
 51
14.106336
  0
ARC
  8
0
 10
-178.352325
 20
12.644033
 40
1.673030
 50
15.417656
 51
51.387871
  0
ARC
  8
0
 10
-179.299988
 20
11.259527
 40
3.348539
 50
53.501553
 51
126.498451
  0
ARC
  8
0
 10
-180.247650
 20
12.644033
 40
1.673040
 50
128.612122
 51
164.582352
  0
ARC
  8
0
 10
-180.590073
 20
12.769562
 40
1.309901
 50
165.893661
 51
194.106339
  0
ARC
  8
0
 10
-180.247650
 20
12.895090
 40
1.673030
 50
195.417648
 51
231.387878
  0
ARC
  8
0
 10
-179.299988
 20
14.279596
 40
3.348539
 50
233.501556
 51
306.498444
  0
ARC
  8
0
 10
-178.352325
 20
12.895090
 40
1.673040
 50
308.612122
 51
344.582336
  0
ARC
  8
0
 10
-137.749985
 20
-21.060699
 40
1.672815
 50
270.000000
 51
281.891937
  0
ARC
  8
0
 10
-137.438309
 20
-22.502302
 40
0.198085
 50
279.600281
 51
311.587738
  0
ARC
  8
0
 10
-137.325684
 20
-22.633007
 40
0.025697
 50
317.216827
 51
42.783188
  0
ARC
  8
0
 10
-137.438309
 20
-22.763712
 40
0.198089
 50
48.412277
 51
80.399727
  0
ARC
  8
0
 10
-137.749985
 20
-24.205315
 40
1.672815
 50
78.108055
 51
90.000000
  0
ARC
  8
0
 10
-174.850021
 20
-82.359131
 40
4.532888
 50
245.097870
 51
294.888336
  0
ARC
  8
0
 10
-173.386200
 20
-85.760643
 40
1.486211
 50
354.668640
 51
14.106581
  0
ARC
  8
0
 10
-173.774734
 20
-85.903076
 40
1.898239
 50
15.417928
 51
51.388382
  0
ARC
  8
0
 10
-174.849991
 20
-87.474022
 40
3.799348
 50
53.502098
 51
126.497902
  0
ARC
  8
0
 10
-175.925247
 20
-85.903076
 40
1.898234
 50
128.611618
 51
164.582291
  0
ARC
  8
0
 10
-176.313782
 20
-85.760643
 40
1.486207
 50
165.893707
 51
185.354416
  0
ARC
  8
0
 10
-182.631317
 20
-81.093735
 40
0.425080
 50
345.893921
 51
14.107077
  0
ARC
  8
0
 10
-182.742447
 20
-81.134468
 40
0.542930
 50
15.417746
 51
51.388477
  0
ARC
  8
0
 10
-183.049988
 20
-81.583801
 40
1.086690
 50
53.502678
 51
126.497559
  0
ARC
  8
0
 10
-183.357529
 20
-81.134476
 40
0.542927
 50
128.611526
 51
164.582260
  0
ARC
  8
0
 10
-183.468658
 20
-81.093735
 40
0.425080
 50
165.893921
 51
194.107071
  0
ARC
  8
0
 10
-183.357529
 20
-81.053001
 40
0.542930
 50
195.417740
 51
231.388474
  0
ARC
  8
0
 10
-183.049988
 20
-80.603668
 40
1.086690
 50
233.502686
 51
306.497559
  0
ARC
  8
0
 10
-182.742447
 20
-81.052994
 40
0.542927
 50
308.611511
 51
344.582245
  0
ARC
  8
0
 10
-198.119720
 20
-64.937080
 40
2.130294
 50
176.237457
 51
191.772614
  0
ARC
  8
0
 10
-197.902161
 20
-64.870613
 40
2.356926
 50
192.275360
 51
225.305038
  0
ARC
  8
0
 10
-197.300003
 20
-64.137520
 40
3.302728
 50
226.824173
 51
305.006989
  0
ARC
  8
0
 10
-175.594315
 20
-73.598412
 40
0.755692
 50
180.000000
 51
194.106384
  0
ARC
  8
0
 10
-175.396759
 20
-73.525986
 40
0.965201
 50
195.417969
 51
231.388992
  0
ARC
  8
0
 10
-174.850006
 20
-72.727180
 40
1.931886
 50
233.502457
 51
306.497528
  0
ARC
  8
0
 10
-174.303253
 20
-73.525986
 40
0.965195
 50
308.610992
 51
344.582031
  0
ARC
  8
0
 10
-174.105698
 20
-73.598412
 40
0.755698
 50
345.893616
 51
359.999420
  0
ARC
  8
0
 10
-197.300034
 20
-66.650467
 40
3.799343
 50
60.139099
 51
126.497612
  0
ARC
  8
0
 10
-198.375275
 20
-65.079514
 40
1.898237
 50
128.611542
 51
164.582077
  0
ARC
  8
0
 10
-198.763809
 20
-64.937080
 40
1.486209
 50
165.893417
 51
185.354126
  0
ARC
  8
0
 10
-182.305695
 20
-81.093735
 40
0.755698
 50
345.893616
 51
14.106391
  0
ARC
  8
0
 10
-182.503250
 20
-81.166161
 40
0.965201
 50
15.417976
 51
51.388996
  0
ARC
  8
0
 10
-183.050003
 20
-81.964958
 40
1.931880
 50
53.502323
 51
126.497673
  0
ARC
  8
0
 10
-183.596756
 20
-81.166161
 40
0.965195
 50
128.611008
 51
164.582031
  0
ARC
  8
0
 10
-183.794312
 20
-81.093735
 40
0.755698
 50
165.893616
 51
194.106384
  0
ARC
  8
0
 10
-183.596756
 20
-81.021309
 40
0.965201
 50
195.417969
 51
231.388992
  0
ARC
  8
0
 10
-183.050003
 20
-80.222511
 40
1.931880
 50
233.502319
 51
306.497681
  0
ARC
  8
0
 10
-182.503250
 20
-81.021309
 40
0.965195
 50
308.610992
 51
344.582031
  0
ARC
  8
0
 10
-197.300064
 20
-61.535580
 40
4.532871
 50
245.097992
 51
294.888397
  0
ARC
  8
0
 10
-175.669693
 20
-85.760651
 40
2.130295
 50
176.237045
 51
191.773209
  0
ARC
  8
0
 10
-175.452133
 20
-85.694183
 40
2.356930
 50
192.275894
 51
225.305573
  0
ARC
  8
0
 10
-174.849991
 20
-84.961082
 40
3.302724
 50
226.824829
 51
313.174988
  0
ARC
  8
0
 10
-174.247849
 20
-85.694183
 40
2.356934
 50
314.694183
 51
347.723724
  0
ARC
  8
0
 10
-174.030289
 20
-85.760651
 40
2.130298
 50
348.226379
 51
356.237244
  0
ARC
  8
0
 10
-196.570984
 20
11.518909
 40
1.286935
 50
24.646441
 51
51.388809
  0
ARC
  8
0
 10
-197.299988
 20
10.453843
 40
2.575845
 50
53.502266
 51
126.497749
  0
ARC
  8
0
 10
-198.028992
 20
11.518909
 40
1.286929
 50
128.611221
 51
164.582077
  0
ARC
  8
0
 10
-198.292389
 20
11.615475
 40
1.007603
 50
165.893677
 51
194.106369
  0
ARC
  8
0
 10
-198.028992
 20
11.712040
 40
1.286930
 50
195.417969
 51
231.388809
  0
ARC
  8
0
 10
-197.299988
 20
12.777106
 40
2.575845
 50
233.502274
 51
306.497742
  0
ARC
  8
0
 10
-196.570984
 20
11.712040
 40
1.286929
 50
308.611206
 51
335.416382
  0
ARC
  8
0
 10
-196.570984
 20
13.852368
 40
1.286936
 50
24.646557
 51
51.388836
  0
ARC
  8
0
 10
-197.299988
 20
12.787304
 40
2.575844
 50
53.502254
 51
126.497795
  0
ARC
  8
0
 10
-198.028992
 20
13.852366
 40
1.286929
 50
128.611221
 51
164.582108
  0
ARC
  8
0
 10
-198.292389
 20
13.948932
 40
1.007603
 50
165.893738
 51
180.105362
  0
ARC
  8
0
 10
-196.506042
 20
11.615471
 40
0.806076
 50
345.893585
 51
14.106479
  0
ARC
  8
0
 10
-196.716782
 20
11.538218
 40
1.029559
 50
15.417804
 51
51.388000
  0
ARC
  8
0
 10
-197.299973
 20
10.686167
 40
2.060677
 50
53.502087
 51
126.497917
  0
ARC
  8
0
 10
-197.883163
 20
11.538218
 40
1.029554
 50
128.612000
 51
164.582245
  0
ARC
  8
0
 10
-198.093903
 20
11.615471
 40
0.806076
 50
165.893585
 51
194.106476
  0
ARC
  8
0
 10
-197.883163
 20
11.692724
 40
1.029559
 50
195.417801
 51
231.388000
  0
ARC
  8
0
 10
-197.299973
 20
12.544775
 40
2.060677
 50
233.502090
 51
306.497925
  0
ARC
  8
0
 10
-196.716782
 20
11.692724
 40
1.029554
 50
308.612000
 51
344.582245
  0
ARC
  8
0
 10
-174.105698
 20
31.820953
 40
0.755692
 50
0.000289
 51
14.106391
  0
ARC
  8
0
 10
-174.303253
 20
31.748529
 40
0.965201
 50
15.417867
 51
51.388924
  0
ARC
  8
0
 10
-174.850006
 20
30.949726
 40
1.931883
 50
53.502392
 51
126.497612
  0
ARC
  8
0
 10
-175.396759
 20
31.748529
 40
0.965193
 50
128.611069
 51
164.582138
  0
ARC
  8
0
 10
-175.594315
 20
31.820953
 40
0.755698
 50
165.893616
 51
179.999710
  0
POLYLINE
  8
0
 66
     1
  0
VERTEX
  8
0
 10
-204.817474
 20
18.742355
  0
VERTEX
  8
0
 10
-204.831924
 20
18.490580
  0
VERTEX
  8
0
 10
-204.789215
 20
18.044891
  0
VERTEX
  8
0
 10
-204.704163
 20
17.295918
  0
VERTEX
  8
0
 10
-204.609421
 20
16.560068
  0
VERTEX
  8
0
 10
-204.504364
 20
15.889130
  0
VERTEX
  8
0
 10
-204.351990
 20
15.121021
  0
VERTEX
  8
0
 10
-204.156952
 20
14.292267
  0
VERTEX
  8
0
 10
-203.976471
 20
13.587467
  0
VERTEX
  8
0
 10
-203.784821
 20
12.886642
  0
VERTEX
  8
0
 10
-203.589508
 20
12.216354
  0
VERTEX
  8
0
 10
-203.305176
 20
11.310746
  0
VERTEX
  8
0
 10
-203.000000
 20
10.411758
  0
SEQEND
  0
POLYLINE
  8
0
 66
     1
  0
VERTEX
  8
0
 10
-203.000000
 20
-58.411758
  0
VERTEX
  8
0
 10
-203.300613
 20
-59.295574
  0
VERTEX
  8
0
 10
-203.589508
 20
-60.216354
  0
VERTEX
  8
0
 10
-203.794846
 20
-60.923283
  0
VERTEX
  8
0
 10
-203.988403
 20
-61.633778
  0
VERTEX
  8
0
 10
-204.156952
 20
-62.292267
  0
VERTEX
  8
0
 10
-204.338333
 20
-63.056484
  0
VERTEX
  8
0
 10
-204.504364
 20
-63.889130
  0
VERTEX
  8
0
 10
-204.622467
 20
-64.655075
  0
VERTEX
  8
0
 10
-204.719803
 20
-65.427177
  0
VERTEX
  8
0
 10
-204.789215
 20
-66.044891
  0
VERTEX
  8
0
 10
-204.821899
 20
-66.391663
  0
VERTEX
  8
0
 10
-204.817841
 20
-66.738625
  0
SEQEND
  0
POLYLINE
  8
0
 66
     1
  0
VERTEX
  8
0
 10
-203.000000
 20
-15.000000
  0
VERTEX
  8
0
 10
-203.117096
 20
-15.835159
  0
VERTEX
  8
0
 10
-203.330307
 20
-16.607010
  0
VERTEX
  8
0
 10
-203.577072
 20
-17.164955
  0
VERTEX
  8
0
 10
-203.872559
 20
-17.804657
  0
VERTEX
  8
0
 10
-204.102753
 20
-18.442924
  0
VERTEX
  8
0
 10
-204.274887
 20
-19.101833
  0
VERTEX
  8
0
 10
-204.414810
 20
-19.800735
  0
VERTEX
  8
0
 10
-204.545380
 20
-20.587330
  0
VERTEX
  8
0
 10
-204.651566
 20
-21.375484
  0
VERTEX
  8
0
 10
-204.726654
 20
-22.116180
  0
VERTEX
  8
0
 10
-204.782516
 20
-23.056866
  0
VERTEX
  8
0
 10
-204.800018
 20
-24.000000
  0
VERTEX
  8
0
 10
-204.784821
 20
-24.915060
  0
VERTEX
  8
0
 10
-204.726654
 20
-25.883820
  0
VERTEX
  8
0
 10
-204.647064
 20
-26.667595
  0
VERTEX
  8
0
 10
-204.540436
 20
-27.448917
  0
VERTEX
  8
0
 10
-204.414810
 20
-28.199265
  0
VERTEX
  8
0
 10
-204.267609
 20
-28.904243
  0
VERTEX
  8
0
 10
-204.082855
 20
-29.598642
  0
VERTEX
  8
0
 10
-203.872559
 20
-30.195343
  0
VERTEX
  8
0
 10
-203.602539
 20
-30.772652
  0
VERTEX
  8
0
 10
-203.330307
 20
-31.392990
  0
VERTEX
  8
0
 10
-203.109940
 20
-32.183891
  0
VERTEX
  8
0
 10
-203.000000
 20
-33.000000
  0
SEQEND
  0
POINT
  8
0
 10
-158.500000
 20
-190.000000
  0
POINT
  8
0
 10
-190.000000
 20
-190.000000
  0
LINE
  8
0
 10
-164.350006
 20
-247.472427
 11
-161.850006
 21
-247.472427
  0
LINE
  8
0
 10
-161.850006
 20
-246.972427
 11
-135.350006
 21
-246.972427
  0
LINE
  8
0
 10
-158.500000
 20
-242.972427
 11
-135.350006
 21
-242.972427
  0
LINE
  8
0
 10
-182.000000
 20
-179.238998
 11
-182.000000
 21
-212.273865
  0
LINE
  8
0
 10
-168.500000
 20
-148.703705
 11
-160.500000
 21
-148.703705
  0
LINE
  8
0
 10
-168.500000
 20
-158.449554
 11
-160.500000
 21
-158.449554
  0
LINE
  8
0
 10
-168.500000
 20
-221.550415
 11
-160.500000
 21
-221.550415
  0
LINE
  8
0
 10
-168.500000
 20
-231.296265
 11
-160.500000
 21
-231.296265
  0
LINE
  8
0
 10
-168.500000
 20
-245.397522
 11
-160.500000
 21
-245.397522
  0
LINE
  8
0
 10
-171.800003
 20
-164.897705
 11
-170.500000
 21
-164.897705
  0
LINE
  8
0
 10
-182.000000
 20
-187.525131
 11
-173.499985
 21
-187.525131
  0
LINE
  8
0
 10
-182.000000
 20
-193.181976
 11
-173.499985
 21
-193.181976
  0
LINE
  8
0
 10
-182.000000
 20
-212.273865
 11
-173.493927
 21
-212.273865
  0
LINE
  8
0
 10
-156.320969
 20
-148.952271
 11
-157.300003
 21
-148.952271
  0
LINE
  8
0
 10
-157.300003
 20
-144.603760
 11
-172.199997
 21
-144.603760
  0
LINE
  8
0
 10
-157.300003
 20
-151.694916
 11
-158.500000
 21
-151.694916
  0
LINE
  8
0
 10
-171.000000
 20
-149.199951
 11
-179.699997
 21
-149.199951
  0
LINE
  8
0
 10
-178.500000
 20
-144.603760
 11
-179.699997
 21
-144.603760
  0
LINE
  8
0
 10
-172.199997
 20
-148.351410
 11
-178.500000
 21
-148.351410
  0
LINE
  8
0
 10
-172.199997
 20
-144.603760
 11
-178.500000
 21
-144.603760
  0
LINE
  8
0
 10
-170.500000
 20
-145.603760
 11
-170.500000
 21
-243.397522
  0
LINE
  8
0
 10
-158.500000
 20
-145.603760
 11
-158.500000
 21
-243.397522
  0
LINE
  8
0
 10
-179.699997
 20
-143.371475
 11
-179.699997
 21
-149.199951
  0
LINE
  8
0
 10
-178.500000
 20
-142.770432
 11
-178.500000
 21
-148.351410
  0
LINE
  8
0
 10
-172.199997
 20
-143.230011
 11
-172.199997
 21
-148.351410
  0
LINE
  8
0
 10
-157.300003
 20
-137.027588
 11
-157.300003
 21
-151.694916
  0
LINE
  8
0
 10
-135.350006
 20
-242.972427
 11
-135.350006
 21
-246.972427
  0
LINE
  8
0
 10
-135.350006
 20
-245.272430
 11
-132.350006
 21
-245.272430
  0
LINE
  8
0
 10
-135.350006
 20
-244.672424
 11
-132.350006
 21
-244.672424
  0
LINE
  8
0
 10
-135.350006
 20
-246.272430
 11
-132.350006
 21
-246.272430
  0
LINE
  8
0
 10
-135.350006
 20
-243.672424
 11
-132.350006
 21
-243.672424
  0
LINE
  8
0
 10
-132.350006
 20
-243.672424
 11
-132.350006
 21
-244.672424
  0
LINE
  8
0
 10
-132.350006
 20
-245.272430
 11
-132.350006
 21
-246.272430
  0
LINE
  8
0
 10
-132.350006
 20
-243.797424
 11
-130.850006
 21
-243.797424
  0
LINE
  8
0
 10
-132.350006
 20
-243.922424
 11
-130.850006
 21
-243.922424
  0
LINE
  8
0
 10
-132.350006
 20
-244.047424
 11
-130.850006
 21
-244.047424
  0
LINE
  8
0
 10
-132.350006
 20
-244.172424
 11
-130.850006
 21
-244.172424
  0
LINE
  8
0
 10
-132.350006
 20
-244.297424
 11
-130.850006
 21
-244.297424
  0
LINE
  8
0
 10
-132.350006
 20
-244.422424
 11
-130.850006
 21
-244.422424
  0
LINE
  8
0
 10
-132.350006
 20
-244.547424
 11
-130.850006
 21
-244.547424
  0
LINE
  8
0
 10
-132.350006
 20
-245.397430
 11
-130.850006
 21
-245.397430
  0
LINE
  8
0
 10
-132.350006
 20
-245.522430
 11
-130.850006
 21
-245.522430
  0
LINE
  8
0
 10
-132.350006
 20
-245.647430
 11
-130.850006
 21
-245.647430
  0
LINE
  8
0
 10
-132.350006
 20
-245.772430
 11
-130.850006
 21
-245.772430
  0
LINE
  8
0
 10
-132.350006
 20
-245.897430
 11
-130.850006
 21
-245.897430
  0
LINE
  8
0
 10
-132.350006
 20
-246.022430
 11
-130.850006
 21
-246.022430
  0
LINE
  8
0
 10
-132.350006
 20
-246.147430
 11
-130.850006
 21
-246.147430
  0
LINE
  8
0
 10
-158.500000
 20
-145.603760
 11
-171.000000
 21
-145.603760
  0
LINE
  8
0
 10
-188.800003
 20
-182.000000
 11
-184.300003
 21
-182.000000
  0
LINE
  8
0
 10
-184.300003
 20
-155.999939
 11
-170.500000
 21
-155.999939
  0
LINE
  8
0
 10
-184.300003
 20
-124.237991
 11
-142.300003
 21
-124.237991
  0
LINE
  8
0
 10
-184.300003
 20
-94.999939
 11
-142.300003
 21
-94.999939
  0
LINE
  8
0
 10
-142.300003
 20
-103.367111
 11
-137.750015
 21
-103.367111
  0
LINE
  8
0
 10
-142.300003
 20
-107.978027
 11
-137.750015
 21
-107.978027
  0
LINE
  8
0
 10
-142.300003
 20
-113.292572
 11
-137.750015
 21
-113.292572
  0
LINE
  8
0
 10
-142.300003
 20
-113.996185
 11
-137.575058
 21
-113.996185
  0
LINE
  8
0
 10
-137.300003
 20
-106.181641
 11
-130.600006
 21
-106.181641
  0
LINE
  8
0
 10
-137.300003
 20
-111.181641
 11
-130.600006
 21
-111.181641
  0
LINE
  8
0
 10
-142.300003
 20
-155.415665
 11
-140.300003
 21
-155.415665
  0
LINE
  8
0
 10
-139.055435
 20
-130.665665
 11
-126.500015
 21
-130.665665
  0
LINE
  8
0
 10
-140.300003
 20
-153.165665
 11
-126.500000
 21
-153.165665
  0
LINE
  8
0
 10
-184.300003
 20
-94.960937
 11
-184.300003
 21
-130.077835
  0
LINE
  8
0
 10
-142.300003
 20
-94.999939
 11
-142.300003
 21
-133.027588
  0
LINE
  8
0
 10
-137.300003
 20
-105.672562
 11
-137.300003
 21
-113.644371
  0
LINE
  8
0
 10
-130.300003
 20
-106.481628
 11
-130.300003
 21
-110.881638
  0
LINE
  8
0
 10
-140.300003
 20
-137.027588
 11
-140.300003
 21
-155.415665
  0
LINE
  8
0
 10
-126.300003
 20
-130.865662
 11
-126.300003
 21
-152.965652
  0
LINE
  8
0
 10
-130.599976
 20
-106.181587
 11
-130.299973
 21
-106.481583
  0
LINE
  8
0
 10
-130.600006
 20
-111.181610
 11
-130.300003
 21
-110.881622
  0
LINE
  8
0
 10
-130.600006
 20
-106.181633
 11
-130.600006
 21
-111.181633
  0
LINE
  8
0
 10
-130.350021
 20
-110.931641
 11
-137.300003
 21
-110.931641
  0
LINE
  8
0
 10
-130.349976
 20
-106.431641
 11
-137.300003
 21
-106.431641
  0
LINE
  8
0
 10
-126.500076
 20
-130.665726
 11
-126.300079
 21
-130.865723
  0
LINE
  8
0
 10
-126.500015
 20
-153.165649
 11
-126.300003
 21
-152.965652
  0
LINE
  8
0
 10
-188.800018
 20
-95.000000
 11
-184.300003
 21
-95.000000
  0
LINE
  8
0
 10
-188.800018
 20
-124.199997
 11
-184.300003
 21
-124.199997
  0
LINE
  8
0
 10
-156.000504
 20
-130.669647
 11
-156.000504
 21
-130.959229
  0
LINE
  8
0
 10
-150.800507
 20
-130.673019
 11
-150.800507
 21
-130.955856
  0
LINE
  8
0
 10
-149.346161
 20
-133.027588
 11
-149.400421
 21
-129.230225
  0
LINE
  8
0
 10
-163.299652
 20
-126.359344
 11
-153.248840
 21
-126.432449
  0
LINE
  8
0
 10
-163.299652
 20
-127.773560
 11
-153.248856
 21
-127.846649
  0
LINE
  8
0
 10
-139.900009
 20
-145.515656
 11
-139.900009
 21
-138.315659
  0
LINE
  8
0
 10
-137.850006
 20
-141.964966
 11
-137.850006
 21
-141.866364
  0
LINE
  8
0
 10
-139.900009
 20
-138.315659
 11
-140.300003
 21
-138.315659
  0
LINE
  8
0
 10
-139.900009
 20
-145.515656
 11
-140.300003
 21
-145.515656
  0
LINE
  8
0
 10
-139.900009
 20
-133.056442
 11
-139.900009
 21
-121.076385
  0
LINE
  8
0
 10
-139.899994
 20
-121.076355
 11
-142.300003
 21
-120.866386
  0
LINE
  8
0
 10
-195.400009
 20
-99.586525
 11
-195.400009
 21
-109.213478
  0
LINE
  8
0
 10
-195.000000
 20
-99.400002
 11
-195.000000
 21
-109.400002
  0
LINE
  8
0
 10
-195.000000
 20
-99.400002
 11
-189.400009
 21
-99.400002
  0
LINE
  8
0
 10
-195.000000
 20
-109.400002
 11
-189.400009
 21
-109.400002
  0
LINE
  8
0
 10
-195.400024
 20
-99.586517
 11
-195.000031
 21
-99.399994
  0
LINE
  8
0
 10
-195.399994
 20
-109.213463
 11
-195.000000
 21
-109.399979
  0
LINE
  8
0
 10
-195.000000
 20
-101.400002
 11
-191.954712
 21
-101.400002
  0
LINE
  8
0
 10
-195.000000
 20
-103.400002
 11
-193.109406
 21
-103.400002
  0
LINE
  8
0
 10
-195.000000
 20
-105.400002
 11
-194.264114
 21
-105.400002
  0
LINE
  8
0
 10
-195.400009
 20
-119.386520
 11
-195.400009
 21
-129.013474
  0
LINE
  8
0
 10
-195.000000
 20
-119.199997
 11
-195.000000
 21
-129.199997
  0
LINE
  8
0
 10
-195.000000
 20
-119.199997
 11
-189.400009
 21
-119.199997
  0
LINE
  8
0
 10
-195.000000
 20
-129.199997
 11
-189.400009
 21
-129.199997
  0
LINE
  8
0
 10
-195.400024
 20
-119.386505
 11
-195.000015
 21
-119.199974
  0
LINE
  8
0
 10
-195.399994
 20
-129.013428
 11
-195.000000
 21
-129.199951
  0
LINE
  8
0
 10
-195.000000
 20
-121.199997
 11
-191.954712
 21
-121.199997
  0
LINE
  8
0
 10
-195.000000
 20
-123.199997
 11
-193.109406
 21
-123.199997
  0
LINE
  8
0
 10
-195.000000
 20
-125.199997
 11
-194.264114
 21
-125.199997
  0
LINE
  8
0
 10
-171.800003
 20
-177.759216
 11
-171.800003
 21
-162.318787
  0
LINE
  8
0
 10
-172.400009
 20
-178.039001
 11
-172.400009
 21
-162.039001
  0
LINE
  8
0
 10
-172.400009
 20
-178.039001
 11
-181.800003
 21
-178.039001
  0
LINE
  8
0
 10
-172.399994
 20
-162.039001
 11
-181.800003
 21
-162.039001
  0
LINE
  8
0
 10
-171.800018
 20
-177.759216
 11
-172.400024
 21
-178.039001
  0
LINE
  8
0
 10
-171.800003
 20
-162.318771
 11
-172.399994
 21
-162.038986
  0
LINE
  8
0
 10
-172.400009
 20
-176.039001
 11
-178.295303
 21
-176.039001
  0
LINE
  8
0
 10
-172.400009
 20
-174.039001
 11
-177.140610
 21
-174.039001
  0
LINE
  8
0
 10
-172.400009
 20
-172.039001
 11
-175.985901
 21
-172.039001
  0
LINE
  8
0
 10
-172.400009
 20
-170.039001
 11
-174.831192
 21
-170.039001
  0
LINE
  8
0
 10
-172.400009
 20
-168.039001
 11
-173.676498
 21
-168.039001
  0
LINE
  8
0
 10
-172.400009
 20
-166.039001
 11
-172.521805
 21
-166.039001
  0
LINE
  8
0
 10
-189.399994
 20
-99.150002
 11
-189.399994
 21
-109.650002
  0
LINE
  8
0
 10
-181.800003
 20
-160.839005
 11
-181.800003
 21
-179.238998
  0
LINE
  8
0
 10
-181.800003
 20
-160.839005
 11
-184.300003
 21
-160.839005
  0
LINE
  8
0
 10
-181.800003
 20
-179.238998
 11
-184.300003
 21
-179.238998
  0
LINE
  8
0
 10
-189.400009
 20
-118.949997
 11
-188.800003
 21
-118.949997
  0
LINE
  8
0
 10
-189.400009
 20
-129.449997
 11
-188.800003
 21
-129.449997
  0
LINE
  8
0
 10
-189.400009
 20
-99.150002
 11
-188.800003
 21
-99.150002
  0
LINE
  8
0
 10
-189.400009
 20
-109.650002
 11
-188.800003
 21
-109.650002
  0
LINE
  8
0
 10
-189.399994
 20
-118.949997
 11
-189.399994
 21
-129.449997
  0
LINE
  8
0
 10
-184.300003
 20
-171.482376
 11
-181.800003
 21
-170.039001
  0
LINE
  8
0
 10
-184.300003
 20
-170.327667
 11
-181.800003
 21
-168.884293
  0
LINE
  8
0
 10
-188.800003
 20
-95.000000
 11
-188.800003
 21
-145.527374
  0
LINE
  8
0
 10
-195.000000
 20
-133.500000
 11
-195.000000
 21
-145.527374
  0
LINE
  8
0
 10
-195.000000
 20
-246.500000
 11
-188.800003
 21
-246.500000
  0
LINE
  8
0
 10
-195.000000
 20
-133.500000
 11
-188.800003
 21
-133.500000
  0
LINE
  8
0
 10
-178.550003
 20
-133.047684
 11
-171.150024
 21
-133.047684
  0
LINE
  8
0
 10
-179.349991
 20
-131.067780
 11
-170.350006
 21
-131.067780
  0
LINE
  8
0
 10
-179.349991
 20
-125.618042
 11
-170.350006
 21
-125.618042
  0
LINE
  8
0
 10
-178.550003
 20
-124.769501
 11
-171.150024
 21
-124.769501
  0
LINE
  8
0
 10
-178.550003
 20
-137.431747
 11
-171.150024
 21
-137.431747
  0
LINE
  8
0
 10
-170.650024
 20
-136.931747
 11
-170.650024
 21
-132.133484
  0
LINE
  8
0
 10
-169.850006
 20
-135.517532
 11
-169.850006
 21
-126.118042
  0
LINE
  8
0
 10
-179.050003
 20
-136.931747
 11
-179.050003
 21
-132.133484
  0
LINE
  8
0
 10
-179.849991
 20
-135.517532
 11
-179.849991
 21
-126.118042
  0
LINE
  8
0
 10
-178.550003
 20
-131.633484
 11
-171.150024
 21
-131.633484
  0
LINE
  8
0
 10
-180.350006
 20
-136.017532
 11
-179.050003
 21
-136.017532
  0
LINE
  8
0
 10
-179.050003
 20
-125.618042
 11
-179.050003
 21
-125.269501
  0
LINE
  8
0
 10
-170.650024
 20
-125.618042
 11
-170.650024
 21
-125.269501
  0
LINE
  8
0
 10
-170.650024
 20
-136.017532
 11
-169.350006
 21
-136.017532
  0
LINE
  8
0
 10
-186.350006
 20
-135.734680
 11
-180.350006
 21
-135.734680
  0
LINE
  8
0
 10
-169.350006
 20
-136.017532
 11
-169.350006
 21
-130.077835
  0
LINE
  8
0
 10
-180.350006
 20
-136.017532
 11
-180.350006
 21
-130.077835
  0
LINE
  8
0
 10
-171.350006
 20
-143.230026
 11
-171.350006
 21
-137.431747
  0
LINE
  8
0
 10
-178.349991
 20
-143.230011
 11
-178.349991
 21
-137.431747
  0
LINE
  8
0
 10
-169.350006
 20
-135.734680
 11
-164.350006
 21
-135.734680
  0
LINE
  8
0
 10
-173.349976
 20
-140.401596
 11
-173.349976
 21
-143.230011
  0
LINE
  8
0
 10
-176.350006
 20
-140.401581
 11
-176.350006
 21
-143.230011
  0
LINE
  8
0
 10
-178.349991
 20
-143.230011
 11
-176.350006
 21
-143.230011
  0
LINE
  8
0
 10
-173.350006
 20
-143.230011
 11
-171.350006
 21
-143.230011
  0
LINE
  8
0
 10
-164.350006
 20
-141.179413
 11
-164.350006
 21
-130.077835
  0
LINE
  8
0
 10
-186.350006
 20
-130.077835
 11
-180.350006
 21
-130.077835
  0
LINE
  8
0
 10
-180.350006
 20
-130.360672
 11
-179.849991
 21
-130.360672
  0
LINE
  8
0
 10
-169.850006
 20
-130.360672
 11
-169.350006
 21
-130.360672
  0
LINE
  8
0
 10
-169.350006
 20
-130.077835
 11
-164.350006
 21
-130.077835
  0
LINE
  8
0
 10
-186.350006
 20
-141.179413
 11
-178.349991
 21
-141.179413
  0
LINE
  8
0
 10
-176.350006
 20
-141.603668
 11
-173.350006
 21
-141.603668
  0
LINE
  8
0
 10
-176.350006
 20
-142.664337
 11
-173.350006
 21
-142.664337
  0
LINE
  8
0
 10
-176.350006
 20
-141.179413
 11
-173.350006
 21
-141.179413
  0
LINE
  8
0
 10
-171.350006
 20
-141.179413
 11
-164.350006
 21
-141.179413
  0
LINE
  8
0
 10
-171.350006
 20
-141.603668
 11
-164.800018
 21
-141.603668
  0
LINE
  8
0
 10
-171.350006
 20
-142.664337
 11
-164.800018
 21
-142.664337
  0
LINE
  8
0
 10
-179.349991
 20
-142.310822
 11
-178.349991
 21
-141.603714
  0
LINE
  8
0
 10
-179.350006
 20
-143.371460
 11
-178.350021
 21
-142.664368
  0
LINE
  8
0
 10
-185.800003
 20
-143.371460
 11
-179.349991
 21
-143.371460
  0
LINE
  8
0
 10
-186.300003
 20
-142.310806
 11
-179.349991
 21
-142.310806
  0
LINE
  8
0
 10
-179.349991
 20
-143.371460
 11
-179.349991
 21
-142.310806
  0
LINE
  8
0
 10
-200.800018
 20
-153.669937
 11
-199.300018
 21
-153.669937
  0
LINE
  8
0
 10
-202.300018
 20
-152.598450
 11
-199.300018
 21
-152.598450
  0
LINE
  8
0
 10
-202.300018
 20
-145.527374
 11
-199.300018
 21
-145.527374
  0
LINE
  8
0
 10
-202.300018
 20
-155.675140
 11
-202.300018
 21
-145.527374
  0
LINE
  8
0
 10
-200.800018
 20
-154.527863
 11
-200.800018
 21
-153.669937
  0
LINE
  8
0
 10
-199.300018
 20
-156.735809
 11
-199.300018
 21
-152.598450
  0
LINE
  8
0
 10
-195.300018
 20
-156.735809
 11
-195.300018
 21
-152.598450
  0
LINE
  8
0
 10
-195.300018
 20
-153.669937
 11
-188.800034
 21
-153.669937
  0
LINE
  8
0
 10
-199.300018
 20
-153.830750
 11
-195.300018
 21
-153.830750
  0
LINE
  8
0
 10
-199.300018
 20
-144.638367
 11
-195.300018
 21
-144.638367
  0
LINE
  8
0
 10
-195.300018
 20
-145.527374
 11
-187.300034
 21
-145.527374
  0
LINE
  8
0
 10
-195.300018
 20
-152.598450
 11
-187.300034
 21
-152.598450
  0
LINE
  8
0
 10
-199.300018
 20
-145.527374
 11
-199.300018
 21
-144.638367
  0
LINE
  8
0
 10
-195.300018
 20
-145.527374
 11
-195.300018
 21
-144.638367
  0
LINE
  8
0
 10
-199.300018
 20
-156.735809
 11
-195.300018
 21
-156.735809
  0
LINE
  8
0
 10
-202.300018
 20
-155.675140
 11
-199.300018
 21
-155.675140
  0
LINE
  8
0
 10
-202.300018
 20
-154.527863
 11
-199.300018
 21
-154.527863
  0
LINE
  8
0
 10
-195.300018
 20
-155.675140
 11
-195.000031
 21
-155.675140
  0
LINE
  8
0
 10
-195.300018
 20
-154.527863
 11
-195.000031
 21
-154.527863
  0
LINE
  8
0
 10
-186.350006
 20
-141.179413
 11
-186.350006
 21
-130.077835
  0
LINE
  8
0
 10
-185.800003
 20
-143.371460
 11
-185.800003
 21
-154.912415
  0
LINE
  8
0
 10
-187.300003
 20
-136.239731
 11
-187.300003
 21
-154.912415
  0
LINE
  8
0
 10
-188.800003
 20
-153.669937
 11
-188.800003
 21
-246.500000
  0
LINE
  8
0
 10
-195.000000
 20
-153.669937
 11
-195.000000
 21
-246.500000
  0
LINE
  8
0
 10
-184.300003
 20
-143.371460
 11
-184.300003
 21
-182.000000
  0
LINE
  8
0
 10
-158.500000
 20
-155.999939
 11
-142.300003
 21
-155.999939
  0
LINE
  8
0
 10
-156.320969
 20
-141.952271
 11
-157.300003
 21
-141.952271
  0
LINE
  8
0
 10
-161.850006
 20
-245.397522
 11
-161.850006
 21
-247.472427
  0
LINE
  8
0
 10
-142.300003
 20
-137.027588
 11
-142.300003
 21
-155.999939
  0
LINE
  8
0
 10
-173.349976
 20
-245.820953
 11
-173.349976
 21
-236.769989
  0
LINE
  8
0
 10
-176.350006
 20
-245.820953
 11
-176.350006
 21
-236.769989
  0
LINE
  8
0
 10
-178.550003
 20
-255.230499
 11
-171.150024
 21
-255.230499
  0
LINE
  8
0
 10
-179.350006
 20
-254.381973
 11
-179.050003
 21
-254.381973
  0
LINE
  8
0
 10
-178.550003
 20
-251.053543
 11
-171.150024
 21
-251.053543
  0
LINE
  8
0
 10
-180.350006
 20
-249.639328
 11
-178.350006
 21
-249.639328
  0
LINE
  8
0
 10
-179.050003
 20
-254.730499
 11
-179.050003
 21
-249.639328
  0
LINE
  8
0
 10
-170.650024
 20
-254.730499
 11
-170.650024
 21
-249.639328
  0
LINE
  8
0
 10
-169.850006
 20
-253.881973
 11
-169.850006
 21
-249.639328
  0
LINE
  8
0
 10
-179.849991
 20
-253.881973
 11
-179.849991
 21
-249.639328
  0
LINE
  8
0
 10
-180.350006
 20
-249.922180
 11
-180.350006
 21
-249.639328
  0
LINE
  8
0
 10
-169.350006
 20
-249.922180
 11
-169.350006
 21
-249.639328
  0
LINE
  8
0
 10
-186.350006
 20
-249.922180
 11
-180.350006
 21
-249.922180
  0
LINE
  8
0
 10
-169.350006
 20
-249.922180
 11
-164.350006
 21
-249.922180
  0
LINE
  8
0
 10
-170.650024
 20
-254.381973
 11
-170.350006
 21
-254.381973
  0
LINE
  8
0
 10
-171.150024
 20
-250.629288
 11
-171.150024
 21
-249.639328
  0
LINE
  8
0
 10
-178.550003
 20
-250.629272
 11
-178.550003
 21
-249.639328
  0
LINE
  8
0
 10
-178.550003
 20
-250.629272
 11
-171.150024
 21
-250.629272
  0
LINE
  8
0
 10
-176.350006
 20
-242.992523
 11
-173.349976
 21
-242.992523
  0
LINE
  8
0
 10
-178.350006
 20
-236.769989
 11
-176.350006
 21
-236.769989
  0
LINE
  8
0
 10
-178.349991
 20
-250.629272
 11
-178.349991
 21
-236.769989
  0
LINE
  8
0
 10
-171.350006
 20
-250.629272
 11
-171.350006
 21
-236.769989
  0
LINE
  8
0
 10
-173.349976
 20
-236.769989
 11
-171.350006
 21
-236.769989
  0
LINE
  8
0
 10
-171.350006
 20
-249.639328
 11
-169.350006
 21
-249.639328
  0
LINE
  8
0
 10
-186.350006
 20
-249.922180
 11
-186.350006
 21
-244.760315
  0
LINE
  8
0
 10
-164.350006
 20
-249.922180
 11
-164.350006
 21
-245.397522
  0
LINE
  8
0
 10
-176.350006
 20
-244.053192
 11
-173.349976
 21
-244.053192
  0
LINE
  8
0
 10
-176.350006
 20
-237.335663
 11
-173.349976
 21
-237.335663
  0
LINE
  8
0
 10
-179.350006
 20
-243.699646
 11
-178.350021
 21
-242.992538
  0
LINE
  8
0
 10
-179.350021
 20
-244.760269
 11
-178.350037
 21
-244.053177
  0
LINE
  8
0
 10
-186.300003
 20
-244.760345
 11
-179.350006
 21
-244.760345
  0
LINE
  8
0
 10
-185.300003
 20
-243.699677
 11
-179.350021
 21
-243.699677
  0
LINE
  8
0
 10
-185.800003
 20
-236.628586
 11
-179.350098
 21
-236.628586
  0
LINE
  8
0
 10
-179.350021
 20
-243.699661
 11
-179.350006
 21
-244.760315
  0
LINE
  8
0
 10
-179.350037
 20
-236.628632
 11
-178.350052
 21
-237.335724
  0
LINE
  8
0
 10
-202.300018
 20
-234.558670
 11
-199.300018
 21
-234.558670
  0
LINE
  8
0
 10
-200.800018
 20
-233.487167
 11
-199.300018
 21
-233.487167
  0
LINE
  8
0
 10
-202.300018
 20
-232.629257
 11
-199.300018
 21
-232.629257
  0
LINE
  8
0
 10
-202.300018
 20
-231.481964
 11
-195.000031
 21
-231.481964
  0
LINE
  8
0
 10
-202.300018
 20
-234.558670
 11
-202.300018
 21
-224.410889
  0
LINE
  8
0
 10
-200.800018
 20
-233.487167
 11
-200.800018
 21
-232.629257
  0
LINE
  8
0
 10
-199.300018
 20
-235.447662
 11
-199.300018
 21
-231.481964
  0
LINE
  8
0
 10
-195.300018
 20
-235.447662
 11
-195.300018
 21
-231.481964
  0
LINE
  8
0
 10
-195.300018
 20
-233.487167
 11
-195.000031
 21
-233.487167
  0
LINE
  8
0
 10
-195.300018
 20
-234.558670
 11
-195.000031
 21
-234.558670
  0
LINE
  8
0
 10
-195.300018
 20
-232.629257
 11
-195.000031
 21
-232.629257
  0
LINE
  8
0
 10
-199.300018
 20
-232.542633
 11
-195.300018
 21
-232.542633
  0
LINE
  8
0
 10
-199.300018
 20
-235.447662
 11
-195.300018
 21
-235.447662
  0
LINE
  8
0
 10
-199.300018
 20
-224.410889
 11
-199.300018
 21
-223.350235
  0
LINE
  8
0
 10
-195.300018
 20
-224.410889
 11
-195.300018
 21
-223.350235
  0
LINE
  8
0
 10
-199.300018
 20
-223.350235
 11
-195.300018
 21
-223.350235
  0
LINE
  8
0
 10
-202.300018
 20
-224.410889
 11
-198.352509
 21
-224.410889
  0
LINE
  8
0
 10
-199.300018
 20
-227.946426
 11
-199.300018
 21
-225.612976
  0
LINE
  8
0
 10
-195.300018
 20
-227.946442
 11
-195.300018
 21
-225.612976
  0
LINE
  8
0
 10
-196.246277
 20
-224.410889
 11
-195.000031
 21
-224.410889
  0
LINE
  8
0
 10
-187.300003
 20
-232.158646
 11
-187.300003
 21
-243.760345
  0
LINE
  8
0
 10
-185.800003
 20
-225.087585
 11
-185.800003
 21
-243.199677
  0
LINE
  8
0
 10
-188.800003
 20
-234.558670
 11
-187.800003
 21
-234.558670
  0
LINE
  8
0
 10
-132.350006
 20
-136.202576
 11
-130.850006
 21
-136.202576
  0
LINE
  8
0
 10
-164.350006
 20
-137.527588
 11
-161.850006
 21
-137.527588
  0
LINE
  8
0
 10
-161.850006
 20
-137.027588
 11
-135.350006
 21
-137.027588
  0
LINE
  8
0
 10
-161.850006
 20
-133.027588
 11
-135.350006
 21
-133.027588
  0
LINE
  8
0
 10
-164.350006
 20
-132.527588
 11
-161.850006
 21
-132.527588
  0
LINE
  8
0
 10
-161.850006
 20
-132.527588
 11
-161.850006
 21
-137.527588
  0
LINE
  8
0
 10
-135.350006
 20
-133.027588
 11
-135.350006
 21
-137.027588
  0
LINE
  8
0
 10
-135.350006
 20
-135.327576
 11
-132.350006
 21
-135.327576
  0
LINE
  8
0
 10
-135.350006
 20
-134.727585
 11
-132.350006
 21
-134.727585
  0
LINE
  8
0
 10
-135.350006
 20
-136.327576
 11
-132.350006
 21
-136.327576
  0
LINE
  8
0
 10
-135.350006
 20
-133.727585
 11
-132.350006
 21
-133.727585
  0
LINE
  8
0
 10
-132.350006
 20
-133.727585
 11
-132.350006
 21
-134.727585
  0
LINE
  8
0
 10
-132.350006
 20
-135.327576
 11
-132.350006
 21
-136.327576
  0
LINE
  8
0
 10
-132.350006
 20
-133.852585
 11
-130.850006
 21
-133.852585
  0
LINE
  8
0
 10
-132.350006
 20
-133.977585
 11
-130.850006
 21
-133.977585
  0
LINE
  8
0
 10
-132.350006
 20
-134.102585
 11
-130.850006
 21
-134.102585
  0
LINE
  8
0
 10
-132.350006
 20
-134.227585
 11
-130.850006
 21
-134.227585
  0
LINE
  8
0
 10
-132.350006
 20
-134.352585
 11
-130.850006
 21
-134.352585
  0
LINE
  8
0
 10
-132.350006
 20
-134.477585
 11
-130.850006
 21
-134.477585
  0
LINE
  8
0
 10
-132.350006
 20
-134.602585
 11
-130.850006
 21
-134.602585
  0
LINE
  8
0
 10
-132.350006
 20
-135.452576
 11
-130.850006
 21
-135.452576
  0
LINE
  8
0
 10
-132.350006
 20
-135.577576
 11
-130.850006
 21
-135.577576
  0
LINE
  8
0
 10
-132.350006
 20
-135.702576
 11
-130.850006
 21
-135.702576
  0
LINE
  8
0
 10
-132.350006
 20
-135.827576
 11
-130.850006
 21
-135.827576
  0
LINE
  8
0
 10
-132.350006
 20
-135.952576
 11
-130.850006
 21
-135.952576
  0
LINE
  8
0
 10
-132.350006
 20
-136.077576
 11
-130.850006
 21
-136.077576
  0
LINE
  8
0
 10
-186.500000
 20
-182.000000
 11
-186.500000
 21
-212.199997
  0
LINE
  8
0
 10
-207.500000
 20
-135.000000
 11
-207.500000
 21
-245.000000
  0
LINE
  8
0
 10
-204.800003
 20
-239.000000
 11
-195.000000
 21
-239.000000
  0
LINE
  8
0
 10
-203.000000
 20
-219.000000
 11
-195.000000
 21
-219.000000
  0
LINE
  8
0
 10
-188.800003
 20
-212.500000
 11
-186.800003
 21
-212.500000
  0
LINE
  8
0
 10
-186.500000
 20
-202.500000
 11
-183.050003
 21
-202.500000
  0
LINE
  8
0
 10
-203.000000
 20
-161.000000
 11
-195.000000
 21
-161.000000
  0
LINE
  8
0
 10
-204.800003
 20
-141.000000
 11
-195.000000
 21
-141.000000
  0
LINE
  8
0
 10
-186.800018
 20
-212.499969
 11
-186.500015
 21
-212.199982
  0
LINE
  8
0
 10
-183.000000
 20
-179.238998
 11
-183.000000
 21
-202.449997
  0
LINE
  8
0
 10
-183.000000
 20
-202.449997
 11
-182.000000
 21
-202.449997
  0
LINE
  8
0
 10
-183.050003
 20
-202.499985
 11
-183.000000
 21
-202.449982
  0
LINE
  8
0
 10
-207.500092
 20
-244.999954
 11
-204.800095
 21
-238.999954
  0
LINE
  8
0
 10
-207.500092
 20
-135.000046
 11
-204.800095
 21
-141.000046
  0
LINE
  8
0
 10
-203.000000
 20
-145.699997
 11
-203.000000
 21
-161.000000
  0
LINE
  8
0
 10
-203.000000
 20
-219.000000
 11
-203.000000
 21
-234.300003
  0
LINE
  8
0
 10
-203.000000
 20
-174.697144
 11
-203.000000
 21
-205.302856
  0
LINE
  8
0
 10
-171.000000
 20
-149.199951
 11
-171.000000
 21
-145.603760
  0
LINE
  8
0
 10
-171.350006
 20
-237.335663
 11
-170.500000
 21
-237.335663
  0
LINE
  8
0
 10
-171.350006
 20
-244.053192
 11
-170.389465
 21
-244.053192
  0
LINE
  8
0
 10
-171.350006
 20
-242.992523
 11
-170.500000
 21
-242.992523
  0
LINE
  8
0
 10
-164.800018
 20
-142.664337
 11
-164.800018
 21
-141.179413
  0
CIRCLE
  8
0
 10
-166.399506
 20
-145.698334
 40
0.010000
  0
CIRCLE
  8
0
 10
-172.699493
 20
-145.698334
 40
0.010000
  0
ARC
  8
0
 10
-160.500000
 20
-150.703705
 40
2.000000
 50
0.000000
 51
90.000000
  0
ARC
  8
0
 10
-168.500000
 20
-150.703705
 40
2.000000
 50
90.000000
 51
180.000000
  0
ARC
  8
0
 10
-160.500000
 20
-229.296265
 40
2.000000
 50
270.000000
 51
0.000000
  0
ARC
  8
0
 10
-168.500000
 20
-229.296265
 40
2.000000
 50
180.000000
 51
270.000000
  0
ARC
  8
0
 10
-160.500000
 20
-243.397522
 40
2.000000
 50
270.000000
 51
0.000000
  0
ARC
  8
0
 10
-168.500000
 20
-243.397522
 40
2.000000
 50
180.000000
 51
270.000000
  0
ARC
  8
0
 10
-163.699982
 20
-145.452286
 40
8.999998
 50
343.398468
 51
16.601566
  0
ARC
  8
0
 10
-156.320969
 20
-147.652283
 40
1.299988
 50
270.000000
 51
343.398346
  0
ARC
  8
0
 10
-168.500000
 20
-147.603760
 40
2.000000
 50
90.000000
 51
180.000000
  0
ARC
  8
0
 10
-160.500000
 20
-147.603760
 40
2.000000
 50
0.000000
 51
90.000000
  0
ARC
  8
0
 10
-137.662521
 20
-113.644371
 40
0.362520
 50
256.036285
 51
103.963715
  0
ARC
  8
0
 10
-145.370728
 20
-110.635300
 40
8.070709
 50
340.776794
 51
19.223194
  0
ARC
  8
0
 10
-143.430756
 20
-105.672569
 40
6.130752
 50
337.910889
 51
22.089111
  0
CIRCLE
  8
0
 10
-165.850006
 20
-138.380127
 40
0.010000
  0
CIRCLE
  8
0
 10
-153.400513
 20
-131.698318
 40
0.010000
  0
CIRCLE
  8
0
 10
-173.699509
 20
-145.698334
 40
0.010000
  0
ARC
  8
0
 10
-141.950012
 20
-141.964951
 40
4.100002
 50
300.000031
 51
0.000000
  0
ARC
  8
0
 10
-141.950012
 20
-141.866364
 40
4.100006
 50
0.000000
 51
59.999969
  0
ARC
  8
0
 10
-153.050171
 20
-127.066422
 40
14.450153
 50
335.510345
 51
24.489733
  0
ARC
  8
0
 10
-178.550003
 20
-136.931747
 40
0.500000
 50
180.000000
 51
270.000000
  0
ARC
  8
0
 10
-171.149994
 20
-136.931747
 40
0.500000
 50
270.000000
 51
0.000000
  0
ARC
  8
0
 10
-170.350006
 20
-135.517532
 40
0.500000
 50
270.000000
 51
0.000000
  0
ARC
  8
0
 10
-179.349991
 20
-135.517532
 40
0.500000
 50
180.000000
 51
270.000000
  0
ARC
  8
0
 10
-179.349991
 20
-126.118042
 40
0.500000
 50
90.000000
 51
180.000000
  0
ARC
  8
0
 10
-170.350006
 20
-126.118042
 40
0.500000
 50
0.000000
 51
90.000000
  0
ARC
  8
0
 10
-171.149994
 20
-125.269501
 40
0.500000
 50
0.000000
 51
90.000000
  0
ARC
  8
0
 10
-178.550003
 20
-125.269501
 40
0.500000
 50
90.000000
 51
180.000000
  0
ARC
  8
0
 10
-171.149994
 20
-132.133484
 40
0.500000
 50
0.000000
 51
90.000000
  0
ARC
  8
0
 10
-178.550003
 20
-132.133484
 40
0.500000
 50
90.000000
 51
180.000000
  0
ARC
  8
0
 10
-187.300003
 20
-154.912415
 40
1.500000
 50
180.000000
 51
0.000000
  0
ARC
  8
0
 10
-186.300003
 20
-143.310806
 40
1.000000
 50
90.000000
 51
180.000000
  0
ARC
  8
0
 10
-186.300003
 20
-136.239731
 40
1.000000
 50
92.866158
 51
180.000000
  0
ARC
  8
0
 10
-156.320969
 20
-143.252274
 40
1.299995
 50
16.601656
 51
90.000000
  0
ARC
  8
0
 10
-178.550003
 20
-254.730499
 40
0.500000
 50
180.000000
 51
270.000000
  0
ARC
  8
0
 10
-171.150024
 20
-254.730499
 40
0.500000
 50
270.000000
 51
0.000000
  0
ARC
  8
0
 10
-171.150024
 20
-250.553558
 40
0.500000
 50
270.000000
 51
0.000000
  0
ARC
  8
0
 10
-178.550003
 20
-250.553543
 40
0.500000
 50
180.000000
 51
270.000000
  0
ARC
  8
0
 10
-170.350006
 20
-253.881973
 40
0.500000
 50
270.000000
 51
0.000000
  0
ARC
  8
0
 10
-179.350006
 20
-253.881973
 40
0.500000
 50
180.000000
 51
270.000000
  0
ARC
  8
0
 10
-186.300003
 20
-243.760345
 40
1.000000
 50
180.000000
 51
270.000000
  0
ARC
  8
0
 10
-185.300003
 20
-243.199677
 40
0.500000
 50
180.000000
 51
270.000000
  0
ARC
  8
0
 10
-187.300003
 20
-232.158646
 40
1.500000
 50
0.000000
 51
180.000000
  0
ARC
  8
0
 10
-187.300003
 20
-225.087585
 40
1.500000
 50
0.000000
 51
180.000000
  0
ARC
  8
0
 10
-187.800003
 20
-234.058670
 40
0.500000
 50
270.000000
 51
0.000000
  0
ARC
  8
0
 10
-157.903168
 20
-137.668228
 40
7.053178
 50
345.933228
 51
14.146034
  0
ARC
  8
0
 10
-159.746567
 20
-138.345459
 40
9.008546
 50
15.457477
 51
51.428055
  0
ARC
  8
0
 10
-164.844376
 20
-145.804398
 40
18.030882
 50
53.541752
 51
126.537392
  0
ARC
  8
0
 10
-169.952484
 20
-138.352509
 40
9.008552
 50
128.651077
 51
164.621658
  0
ARC
  8
0
 10
-171.796814
 20
-137.677811
 40
7.053178
 50
165.933212
 51
194.146027
  0
ARC
  8
0
 10
-169.953415
 20
-137.000580
 40
9.008546
 50
195.457474
 51
231.428055
  0
ARC
  8
0
 10
-164.855606
 20
-129.541641
 40
18.030882
 50
233.541748
 51
306.537384
  0
ARC
  8
0
 10
-159.747498
 20
-136.993530
 40
9.008552
 50
308.651093
 51
344.621643
  0
ARC
  8
0
 10
-157.903168
 20
-137.668228
 40
7.053178
 50
345.933228
 51
14.146034
  0
ARC
  8
0
 10
-159.746567
 20
-138.345459
 40
9.008546
 50
15.457477
 51
51.428055
  0
ARC
  8
0
 10
-164.844376
 20
-145.804398
 40
18.030882
 50
53.541752
 51
126.537392
  0
ARC
  8
0
 10
-169.952484
 20
-138.352509
 40
9.008552
 50
128.651077
 51
164.621658
  0
ARC
  8
0
 10
-171.796814
 20
-137.677811
 40
7.053178
 50
165.933212
 51
194.146027
  0
ARC
  8
0
 10
-169.953415
 20
-137.000580
 40
9.008546
 50
195.457474
 51
231.428055
  0
ARC
  8
0
 10
-164.855606
 20
-129.541641
 40
18.030882
 50
233.541748
 51
306.537384
  0
ARC
  8
0
 10
-159.747498
 20
-136.993530
 40
9.008552
 50
308.651093
 51
344.621643
  0
ARC
  8
0
 10
-171.000000
 20
-164.342239
 40
5.151676
 50
261.066895
 51
275.563354
  0
ARC
  8
0
 10
-171.000000
 20
-164.806870
 40
4.121343
 50
258.836761
 51
276.956940
  0
ARC
  8
0
 10
-173.500000
 20
-183.661362
 40
3.863754
 50
270.000214
 51
306.497681
  0
ARC
  8
0
 10
-172.406509
 20
-185.258957
 40
1.930399
 50
308.611359
 51
344.582031
  0
ARC
  8
0
 10
-172.011398
 20
-185.403793
 40
1.511400
 50
345.893036
 51
0.000000
  0
ARC
  8
0
 10
-172.011353
 20
-214.395172
 40
1.511383
 50
0.000000
 51
14.106531
  0
ARC
  8
0
 10
-172.406479
 20
-214.540024
 40
1.930403
 50
15.417976
 51
51.388287
  0
ARC
  8
0
 10
-173.499969
 20
-216.137619
 40
3.863769
 50
53.502144
 51
90.000000
  0
ARC
  8
0
 10
-172.011398
 20
-195.303314
 40
1.511398
 50
0.000000
 51
14.106952
  0
ARC
  8
0
 10
-172.406509
 20
-195.448151
 40
1.930403
 50
15.417976
 51
51.388641
  0
ARC
  8
0
 10
-173.500000
 20
-197.045746
 40
3.863760
 50
53.502323
 51
89.999771
  0
ARC
  8
0
 10
-178.009918
 20
-115.042450
 40
1.309905
 50
346.033356
 51
14.246034
  0
ARC
  8
0
 10
-178.352036
 20
-115.168816
 40
1.673037
 50
15.557425
 51
51.527977
  0
ARC
  8
0
 10
-179.296326
 20
-116.555664
 40
3.348565
 50
53.641735
 51
126.638107
  0
ARC
  8
0
 10
-180.247391
 20
-115.173447
 40
1.673036
 50
128.751450
 51
164.721985
  0
ARC
  8
0
 10
-180.590118
 20
-115.048752
 40
1.309905
 50
166.033356
 51
194.246033
  0
ARC
  8
0
 10
-180.248001
 20
-114.922386
 40
1.673037
 50
195.557419
 51
231.527985
  0
ARC
  8
0
 10
-179.303711
 20
-113.535538
 40
3.348565
 50
233.641739
 51
306.638092
  0
ARC
  8
0
 10
-178.352646
 20
-114.917755
 40
1.673036
 50
308.751465
 51
344.721985
  0
ARC
  8
0
 10
-152.321350
 20
-131.230286
 40
1.120839
 50
345.973022
 51
14.026974
  0
ARC
  8
0
 10
-152.607788
 20
-131.334702
 40
1.424401
 50
15.309274
 51
51.197941
  0
ARC
  8
0
 10
-153.400513
 20
-132.486313
 40
2.820534
 50
53.308083
 51
126.691917
  0
ARC
  8
0
 10
-154.193237
 20
-131.334702
 40
1.424406
 50
128.802063
 51
164.690720
  0
ARC
  8
0
 10
-154.479675
 20
-131.230286
 40
1.120839
 50
165.973022
 51
194.026978
  0
ARC
  8
0
 10
-154.193237
 20
-131.125870
 40
1.424401
 50
195.309280
 51
231.197937
  0
ARC
  8
0
 10
-153.400513
 20
-129.974258
 40
2.820534
 50
233.308090
 51
306.691925
  0
ARC
  8
0
 10
-152.607788
 20
-131.125870
 40
1.424406
 50
308.802063
 51
344.690735
  0
ARC
  8
0
 10
-152.527100
 20
-131.437607
 40
0.887593
 50
345.896881
 51
14.103133
  0
ARC
  8
0
 10
-152.758926
 20
-131.522568
 40
1.133431
 50
15.413085
 51
51.381031
  0
ARC
  8
0
 10
-153.400513
 20
-132.459717
 40
2.267612
 50
53.494598
 51
126.505402
  0
ARC
  8
0
 10
-154.042099
 20
-131.522568
 40
1.133423
 50
128.618973
 51
164.586914
  0
ARC
  8
0
 10
-154.273926
 20
-131.437607
 40
0.887593
 50
165.896866
 51
194.103134
  0
ARC
  8
0
 10
-154.042099
 20
-131.352646
 40
1.133431
 50
195.413086
 51
231.381027
  0
ARC
  8
0
 10
-153.400513
 20
-130.415497
 40
2.267612
 50
233.494598
 51
306.505402
  0
ARC
  8
0
 10
-152.758926
 20
-131.352646
 40
1.133423
 50
308.618958
 51
344.586914
  0
ARC
  8
0
 10
-152.967728
 20
-131.572754
 40
0.438713
 50
346.128571
 51
14.352341
  0
ARC
  8
0
 10
-153.082413
 20
-131.615372
 40
0.560528
 50
15.666879
 51
51.644184
  0
ARC
  8
0
 10
-153.398376
 20
-132.081375
 40
1.122800
 50
53.757549
 51
126.725693
  0
ARC
  8
0
 10
-153.718246
 20
-131.618057
 40
0.560552
 50
128.839813
 51
164.815598
  0
ARC
  8
0
 10
-153.833298
 20
-131.576416
 40
0.438713
 50
166.128571
 51
194.352341
  0
ARC
  8
0
 10
-153.718613
 20
-131.533798
 40
0.560528
 50
195.666885
 51
231.644180
  0
ARC
  8
0
 10
-153.402649
 20
-131.067795
 40
1.122800
 50
233.757553
 51
306.725677
  0
ARC
  8
0
 10
-153.082779
 20
-131.531113
 40
0.560552
 50
308.839813
 51
344.815613
  0
ARC
  8
0
 10
-152.110428
 20
-130.673019
 40
1.309921
 50
0.000000
 51
14.106497
  0
ARC
  8
0
 10
-152.452850
 20
-130.798553
 40
1.673048
 50
15.417957
 51
51.387932
  0
ARC
  8
0
 10
-153.400513
 20
-132.183075
 40
3.348554
 50
53.501736
 51
126.498260
  0
ARC
  8
0
 10
-154.348175
 20
-130.798553
 40
1.673042
 50
128.612061
 51
164.582047
  0
ARC
  8
0
 10
-154.690598
 20
-130.673019
 40
1.309918
 50
165.893509
 51
179.892548
  0
ARC
  8
0
 10
-153.400513
 20
-129.445801
 40
3.348561
 50
280.597778
 51
306.498260
  0
ARC
  8
0
 10
-152.452850
 20
-130.830322
 40
1.673042
 50
308.612061
 51
344.582031
  0
ARC
  8
0
 10
-152.110428
 20
-130.955856
 40
1.309918
 50
345.893494
 51
14.106497
  0
ARC
  8
0
 10
-152.452850
 20
-131.081390
 40
1.673048
 50
15.417957
 51
51.387932
  0
ARC
  8
0
 10
-153.400513
 20
-132.465912
 40
3.348554
 50
53.501736
 51
126.498260
  0
ARC
  8
0
 10
-154.348175
 20
-131.081390
 40
1.673042
 50
128.612061
 51
164.582047
  0
ARC
  8
0
 10
-154.690598
 20
-130.955856
 40
1.309918
 50
165.893509
 51
194.106491
  0
ARC
  8
0
 10
-154.348175
 20
-130.830322
 40
1.673048
 50
195.417953
 51
231.387939
  0
ARC
  8
0
 10
-153.400513
 20
-129.445801
 40
3.348554
 50
233.501740
 51
259.390808
  0
ARC
  8
0
 10
-158.903183
 20
-137.673019
 40
7.053175
 50
345.893585
 51
14.106411
  0
ARC
  8
0
 10
-160.747055
 20
-138.348984
 40
9.008553
 50
15.417896
 51
51.388481
  0
ARC
  8
0
 10
-165.850006
 20
-145.804398
 40
18.030882
 50
53.502193
 51
126.497803
  0
ARC
  8
0
 10
-170.952957
 20
-138.348984
 40
9.008562
 50
128.611526
 51
164.582108
  0
ARC
  8
0
 10
-172.796829
 20
-137.673019
 40
7.053175
 50
165.893585
 51
194.106415
  0
ARC
  8
0
 10
-170.952957
 20
-136.997055
 40
9.008553
 50
195.417892
 51
231.388474
  0
ARC
  8
0
 10
-165.850006
 20
-129.541641
 40
18.030882
 50
233.502197
 51
306.497803
  0
ARC
  8
0
 10
-160.747055
 20
-136.997055
 40
9.008562
 50
308.611511
 51
344.582092
  0
ARC
  8
0
 10
-158.903183
 20
-137.673019
 40
7.053175
 50
345.893585
 51
14.106411
  0
ARC
  8
0
 10
-160.747055
 20
-138.348984
 40
9.008553
 50
15.417896
 51
51.388481
  0
ARC
  8
0
 10
-165.850006
 20
-145.804398
 40
18.030882
 50
53.502193
 51
126.497803
  0
ARC
  8
0
 10
-170.952957
 20
-138.348984
 40
9.008562
 50
128.611526
 51
164.582108
  0
ARC
  8
0
 10
-172.796829
 20
-137.673019
 40
7.053175
 50
165.893585
 51
194.106415
  0
ARC
  8
0
 10
-170.952957
 20
-136.997055
 40
9.008553
 50
195.417892
 51
231.388474
  0
ARC
  8
0
 10
-165.850006
 20
-129.541641
 40
18.030882
 50
233.502197
 51
306.497803
  0
ARC
  8
0
 10
-160.747055
 20
-136.997055
 40
9.008562
 50
308.611511
 51
344.582092
  0
ARC
  8
0
 10
-163.300003
 20
-144.390182
 40
18.030880
 50
89.959755
 51
111.203773
  0
ARC
  8
0
 10
-151.415710
 20
-129.258804
 40
2.015198
 50
0.000000
 51
14.106426
  0
ARC
  8
0
 10
-151.942520
 20
-129.451935
 40
2.573859
 50
15.417927
 51
51.388519
  0
ARC
  8
0
 10
-153.400513
 20
-131.582047
 40
5.151671
 50
53.502113
 51
90.767090
  0
ARC
  8
0
 10
-163.300003
 20
-131.031494
 40
11.591275
 50
301.043243
 51
306.497772
  0
ARC
  8
0
 10
-160.019531
 20
-135.824265
 40
5.791207
 50
308.611481
 51
344.582184
  0
ARC
  8
0
 10
-158.834183
 20
-136.258804
 40
4.534175
 50
345.893555
 51
351.018890
  0
ARC
  8
0
 10
-163.300003
 20
-145.804382
 40
18.030884
 50
90.000000
 51
111.203827
  0
ARC
  8
0
 10
-151.415710
 20
-130.673004
 40
2.015198
 50
0.000000
 51
14.106426
  0
ARC
  8
0
 10
-151.942520
 20
-130.866135
 40
2.573859
 50
15.417927
 51
51.388622
  0
ARC
  8
0
 10
-153.400513
 20
-132.996246
 40
5.151677
 50
53.502167
 51
90.767090
  0
ARC
  8
0
 10
-163.300003
 20
-129.541626
 40
18.030890
 50
298.339325
 51
306.497803
  0
ARC
  8
0
 10
-158.197052
 20
-136.997040
 40
9.008562
 50
308.611511
 51
344.582092
  0
ARC
  8
0
 10
-156.353180
 20
-137.673004
 40
7.053175
 50
345.893585
 51
5.246208
  0
ARC
  8
0
 10
-163.300003
 20
-142.900330
 40
11.591278
 50
58.075748
 51
95.198891
  0
ARC
  8
0
 10
-174.105698
 20
-140.401581
 40
0.755692
 50
0.000000
 51
14.106952
  0
ARC
  8
0
 10
-174.303253
 20
-140.473999
 40
0.965201
 50
15.417976
 51
51.388714
  0
ARC
  8
0
 10
-174.850006
 20
-141.272812
 40
1.931886
 50
53.502457
 51
126.497543
  0
ARC
  8
0
 10
-175.396759
 20
-140.473999
 40
0.965189
 50
128.611282
 51
164.582901
  0
ARC
  8
0
 10
-175.594315
 20
-140.401581
 40
0.755696
 50
165.894165
 51
180.000000
  0
ARC
  8
0
 10
-196.480316
 20
-149.062897
 40
2.130293
 50
3.762343
 51
11.774097
  0
ARC
  8
0
 10
-196.697876
 20
-149.129379
 40
2.356925
 50
12.277066
 51
45.306355
  0
ARC
  8
0
 10
-197.300003
 20
-149.862473
 40
3.302720
 50
46.825485
 51
133.175827
  0
ARC
  8
0
 10
-197.902161
 20
-149.129395
 40
2.356934
 50
134.694687
 51
167.724457
  0
ARC
  8
0
 10
-198.119720
 20
-149.062927
 40
2.130292
 50
168.227188
 51
183.762344
  0
ARC
  8
0
 10
-182.631317
 20
-132.906265
 40
0.425082
 50
345.892914
 51
14.105082
  0
ARC
  8
0
 10
-182.742447
 20
-132.947006
 40
0.542928
 50
15.416969
 51
51.388477
  0
ARC
  8
0
 10
-183.049988
 20
-133.396332
 40
1.086684
 50
53.502438
 51
126.497559
  0
ARC
  8
0
 10
-183.357529
 20
-132.947006
 40
0.542927
 50
128.611526
 51
164.581482
  0
ARC
  8
0
 10
-183.468658
 20
-132.906265
 40
0.425082
 50
165.892929
 51
194.105087
  0
ARC
  8
0
 10
-183.357529
 20
-132.865524
 40
0.542928
 50
195.416962
 51
231.388474
  0
ARC
  8
0
 10
-183.049988
 20
-132.416199
 40
1.086684
 50
233.502441
 51
306.497559
  0
ARC
  8
0
 10
-182.742447
 20
-132.865524
 40
0.542927
 50
308.611511
 51
344.581482
  0
ARC
  8
0
 10
-198.763809
 20
-149.062912
 40
1.486205
 50
174.646164
 51
194.107147
  0
ARC
  8
0
 10
-198.375275
 20
-148.920486
 40
1.898241
 50
195.418152
 51
231.388535
  0
ARC
  8
0
 10
-197.300034
 20
-147.349533
 40
3.799351
 50
233.502426
 51
306.498230
  0
ARC
  8
0
 10
-196.224762
 20
-148.920471
 40
1.898228
 50
308.611755
 51
344.582306
  0
ARC
  8
0
 10
-195.836227
 20
-149.062912
 40
1.486205
 50
345.893982
 51
5.331355
  0
ARC
  8
0
 10
-197.300064
 20
-152.464417
 40
4.532878
 50
65.111641
 51
114.901917
  0
ARC
  8
0
 10
-182.305695
 20
-132.906265
 40
0.755700
 50
345.893036
 51
14.105829
  0
ARC
  8
0
 10
-182.503250
 20
-132.978683
 40
0.965197
 50
15.417103
 51
51.388714
  0
ARC
  8
0
 10
-183.050003
 20
-133.777496
 40
1.931886
 50
53.502457
 51
126.497543
  0
ARC
  8
0
 10
-183.596756
 20
-132.978683
 40
0.965189
 50
128.611282
 51
164.582031
  0
ARC
  8
0
 10
-183.794312
 20
-132.906265
 40
0.755700
 50
165.893051
 51
194.105835
  0
ARC
  8
0
 10
-183.596756
 20
-132.833847
 40
0.965197
 50
195.417099
 51
231.388718
  0
ARC
  8
0
 10
-183.050003
 20
-132.035034
 40
1.931886
 50
233.502457
 51
306.497528
  0
ARC
  8
0
 10
-182.503250
 20
-132.833847
 40
0.965189
 50
308.611298
 51
344.582031
  0
ARC
  8
0
 10
-174.030289
 20
-128.239349
 40
2.130294
 50
3.762753
 51
11.773612
  0
ARC
  8
0
 10
-174.247849
 20
-128.305817
 40
2.356934
 50
12.276262
 51
45.305832
  0
ARC
  8
0
 10
-174.849991
 20
-129.038910
 40
3.302730
 50
46.824921
 51
133.175262
  0
ARC
  8
0
 10
-175.452133
 20
-128.305817
 40
2.356923
 50
134.694427
 51
167.724106
  0
ARC
  8
0
 10
-175.669693
 20
-128.239349
 40
2.130295
 50
168.226791
 51
183.762756
  0
ARC
  8
0
 10
-176.313782
 20
-128.239349
 40
1.486205
 50
174.646164
 51
194.106583
  0
ARC
  8
0
 10
-175.925247
 20
-128.096924
 40
1.898237
 50
195.417709
 51
231.388245
  0
ARC
  8
0
 10
-174.849991
 20
-126.525970
 40
3.799348
 50
233.502106
 51
306.497894
  0
ARC
  8
0
 10
-173.774734
 20
-128.096924
 40
1.898228
 50
308.611755
 51
344.582306
  0
ARC
  8
0
 10
-173.386200
 20
-128.239349
 40
1.486209
 50
345.893433
 51
5.330769
  0
ARC
  8
0
 10
-174.850021
 20
-131.640869
 40
4.532878
 50
65.111641
 51
114.901993
  0
ARC
  8
0
 10
-163.300003
 20
-132.445679
 40
11.591271
 50
305.019348
 51
306.497772
  0
ARC
  8
0
 10
-160.019531
 20
-137.238464
 40
5.791195
 50
308.611572
 51
344.582184
  0
ARC
  8
0
 10
-158.834183
 20
-137.673004
 40
4.534175
 50
345.893555
 51
8.190557
  0
ARC
  8
0
 10
-198.292419
 20
-227.946426
 40
1.007601
 50
179.895020
 51
194.106323
  0
ARC
  8
0
 10
-198.029022
 20
-227.849854
 40
1.286932
 50
195.418259
 51
231.389099
  0
ARC
  8
0
 10
-197.300018
 20
-226.784790
 40
2.575851
 50
233.502365
 51
306.497620
  0
ARC
  8
0
 10
-196.571014
 20
-227.849869
 40
1.286926
 50
308.611328
 51
344.582397
  0
ARC
  8
0
 10
-196.307617
 20
-227.946426
 40
1.007603
 50
345.893677
 51
0.125812
  0
ARC
  8
0
 10
-175.594315
 20
-245.820953
 40
0.755707
 50
180.000000
 51
194.105835
  0
ARC
  8
0
 10
-175.396759
 20
-245.748535
 40
0.965197
 50
195.417099
 51
231.388718
  0
ARC
  8
0
 10
-174.850006
 20
-244.949722
 40
1.931886
 50
233.502457
 51
306.497528
  0
ARC
  8
0
 10
-174.303253
 20
-245.748535
 40
0.965189
 50
308.611298
 51
344.582031
  0
ARC
  8
0
 10
-174.105698
 20
-245.820953
 40
0.755700
 50
345.893036
 51
0.000000
  0
ARC
  8
0
 10
-196.506088
 20
-225.612976
 40
0.806076
 50
345.893799
 51
14.106215
  0
ARC
  8
0
 10
-196.716827
 20
-225.690231
 40
1.029558
 50
15.417702
 51
51.388199
  0
ARC
  8
0
 10
-197.300018
 20
-226.542282
 40
2.060682
 50
53.502182
 51
126.497818
  0
ARC
  8
0
 10
-197.883209
 20
-225.690231
 40
1.029559
 50
128.611801
 51
164.582306
  0
ARC
  8
0
 10
-198.093948
 20
-225.612976
 40
0.806076
 50
165.893784
 51
194.106216
  0
ARC
  8
0
 10
-197.883209
 20
-225.535721
 40
1.029558
 50
195.417694
 51
231.388199
  0
ARC
  8
0
 10
-197.300018
 20
-224.683670
 40
2.060682
 50
233.502182
 51
306.497833
  0
ARC
  8
0
 10
-196.716827
 20
-225.535721
 40
1.029559
 50
308.611786
 51
344.582306
  0
ARC
  8
0
 10
-196.307617
 20
-225.612976
 40
1.007603
 50
345.893677
 51
14.106320
  0
ARC
  8
0
 10
-196.571014
 20
-225.709549
 40
1.286932
 50
15.418255
 51
51.389103
  0
ARC
  8
0
 10
-197.300018
 20
-226.774612
 40
2.575851
 50
53.502369
 51
126.497635
  0
ARC
  8
0
 10
-198.029022
 20
-225.709534
 40
1.286926
 50
128.611328
 51
164.582397
  0
ARC
  8
0
 10
-198.292419
 20
-225.612976
 40
1.007603
 50
165.893677
 51
194.106323
  0
ARC
  8
0
 10
-198.029022
 20
-225.516403
 40
1.286932
 50
195.418259
 51
231.389099
  0
ARC
  8
0
 10
-197.300018
 20
-224.451340
 40
2.575851
 50
233.502365
 51
306.497620
  0
ARC
  8
0
 10
-196.571014
 20
-225.516418
 40
1.286926
 50
308.611328
 51
344.582397
  0
POLYLINE
  8
0
 66
     1
  0
VERTEX
  8
0
 10
-204.800003
 20
-141.000000
  0
VERTEX
  8
0
 10
-204.698212
 20
-141.279449
  0
VERTEX
  8
0
 10
-204.570496
 20
-141.625336
  0
VERTEX
  8
0
 10
-204.357239
 20
-142.193802
  0
VERTEX
  8
0
 10
-204.134003
 20
-142.782364
  0
VERTEX
  8
0
 10
-203.889709
 20
-143.426392
  0
VERTEX
  8
0
 10
-203.630005
 20
-144.104675
  0
VERTEX
  8
0
 10
-203.317841
 20
-144.903458
  0
VERTEX
  8
0
 10
-203.000000
 20
-145.699997
  0
SEQEND
  0
POLYLINE
  8
0
 66
     1
  0
VERTEX
  8
0
 10
-204.800003
 20
-239.000000
  0
VERTEX
  8
0
 10
-204.698212
 20
-238.720551
  0
VERTEX
  8
0
 10
-204.570496
 20
-238.374664
  0
VERTEX
  8
0
 10
-204.357239
 20
-237.806198
  0
VERTEX
  8
0
 10
-204.134003
 20
-237.217636
  0
VERTEX
  8
0
 10
-203.889709
 20
-236.573608
  0
VERTEX
  8
0
 10
-203.630005
 20
-235.895325
  0
VERTEX
  8
0
 10
-203.317841
 20
-235.096542
  0
VERTEX
  8
0
 10
-203.000000
 20
-234.300003
  0
SEQEND
  0
POLYLINE
  8
0
 66
     1
  0
VERTEX
  8
0
 10
-203.000000
 20
-205.302856
  0
VERTEX
  8
0
 10
-203.251724
 20
-205.971634
  0
VERTEX
  8
0
 10
-203.486679
 20
-206.646606
  0
VERTEX
  8
0
 10
-203.724503
 20
-207.382919
  0
VERTEX
  8
0
 10
-203.984055
 20
-208.249451
  0
VERTEX
  8
0
 10
-204.214157
 20
-209.123962
  0
VERTEX
  8
0
 10
-204.408508
 20
-210.027542
  0
VERTEX
  8
0
 10
-204.562408
 20
-210.997131
  0
VERTEX
  8
0
 10
-204.669357
 20
-211.973114
  0
VERTEX
  8
0
 10
-204.737000
 20
-212.920105
  0
VERTEX
  8
0
 10
-204.772171
 20
-213.816025
  0
VERTEX
  8
0
 10
-204.781281
 20
-214.715286
  0
VERTEX
  8
0
 10
-204.764008
 20
-215.564743
  0
VERTEX
  8
0
 10
-204.715332
 20
-216.286819
  0
VERTEX
  8
0
 10
-204.594711
 20
-216.991226
  0
VERTEX
  8
0
 10
-204.359009
 20
-217.630859
  0
VERTEX
  8
0
 10
-203.774963
 20
-218.401871
  0
VERTEX
  8
0
 10
-203.000000
 20
-219.000000
  0
SEQEND
  0
POLYLINE
  8
0
 66
     1
  0
VERTEX
  8
0
 10
-203.000000
 20
-161.000000
  0
VERTEX
  8
0
 10
-203.769928
 20
-161.588440
  0
VERTEX
  8
0
 10
-204.359009
 20
-162.369141
  0
VERTEX
  8
0
 10
-204.599930
 20
-162.999908
  0
VERTEX
  8
0
 10
-204.716782
 20
-163.678207
  0
VERTEX
  8
0
 10
-204.764008
 20
-164.435257
  0
VERTEX
  8
0
 10
-204.783356
 20
-165.315613
  0
VERTEX
  8
0
 10
-204.774017
 20
-166.184708
  0
VERTEX
  8
0
 10
-204.737000
 20
-167.079895
  0
VERTEX
  8
0
 10
-204.667038
 20
-168.053040
  0
VERTEX
  8
0
 10
-204.559402
 20
-169.025772
  0
VERTEX
  8
0
 10
-204.408508
 20
-169.972458
  0
VERTEX
  8
0
 10
-204.210770
 20
-170.881668
  0
VERTEX
  8
0
 10
-203.973572
 20
-171.781433
  0
VERTEX
  8
0
 10
-203.724503
 20
-172.617081
  0
VERTEX
  8
0
 10
-203.498398
 20
-173.315964
  0
VERTEX
  8
0
 10
-203.257584
 20
-174.009644
  0
VERTEX
  8
0
 10
-203.000000
 20
-174.697144
  0
SEQEND
  0
POINT
  8
0
 10
-16.000000
 20
-24.000000
  0
POINT
  8
0
 10
54.750000
 20
-24.000000
  0
LINE
  8
0
 10
-59.629425
 20
-54.122601
 11
-59.559715
 21
-54.052891
  0
LINE
  8
0
 10
-41.102291
 20
-17.989594
 11
-31.980614
 21
-8.867915
  0
LINE
  8
0
 10
6.273863
 20
-21.525126
 11
-16.353554
 21
1.102291
  0
LINE
  8
0
 10
-22.010408
 20
1.102293
 11
-16.353556
 21
1.102293
  0
LINE
  8
0
 10
6.273861
 20
-21.525127
 11
6.273861
 21
-27.181982
  0
LINE
  8
0
 10
-41.102291
 20
-23.646446
 11
-41.102291
 21
-17.989594
  0
LINE
  8
0
 10
-56.041859
 20
-76.769775
 11
-48.015911
 21
-68.743835
  0
LINE
  8
0
 10
-54.323582
 20
-53.838303
 11
-43.009315
 21
-42.524033
  0
LINE
  8
0
 10
-46.980381
 20
-67.949234
 11
-23.500019
 21
-54.392830
  0
LINE
  8
0
 10
-71.397545
 20
-63.434891
 11
-61.605202
 21
-55.218132
  0
LINE
  8
0
 10
14.980350
 20
-67.949257
 11
-8.499996
 21
-54.392838
  0
LINE
  8
0
 10
24.041821
 20
-76.769806
 11
16.015881
 21
-68.743851
  0
LINE
  8
0
 10
22.323563
 20
-53.838326
 11
10.156136
 21
-41.670883
  0
LINE
  8
0
 10
39.397518
 20
-63.434929
 11
28.672905
 21
-54.435890
  0
LINE
  8
0
 10
-16.707108
 20
-36.727921
 11
-28.727921
 21
-24.707108
  0
LINE
  8
0
 10
-15.292893
 20
-36.727921
 11
-3.272079
 21
-24.707108
  0
LINE
  8
0
 10
-3.272079
 20
-23.292892
 11
-15.292893
 21
-11.272079
  0
LINE
  8
0
 10
-28.727921
 20
-23.292892
 11
-16.707108
 21
-11.272079
  0
LINE
  8
0
 10
-16.707108
 20
-37.435028
 11
-29.435028
 21
-24.707108
  0
LINE
  8
0
 10
-15.292893
 20
-37.435028
 11
-2.564971
 21
-24.707108
  0
LINE
  8
0
 10
-2.564971
 20
-23.292892
 11
-15.292893
 21
-10.564971
  0
LINE
  8
0
 10
-29.435028
 20
-23.292892
 11
-23.495331
 21
-17.353197
  0
LINE
  8
0
 10
-23.141779
 20
-17.706749
 11
-31.980614
 21
-8.867915
  0
LINE
  8
0
 10
-22.293251
 20
-16.858221
 11
-31.132084
 21
-8.019387
  0
LINE
  8
0
 10
-22.646803
 20
-16.504669
 11
-16.707108
 21
-10.564971
  0
LINE
  8
0
 10
-31.132084
 20
-8.019387
 11
-17.060659
 21
6.052038
  0
LINE
  8
0
 10
-24.555992
 20
-16.292536
 11
-23.707464
 21
-15.444008
  0
LINE
  8
0
 10
-30.212845
 20
-10.635682
 11
-29.364319
 21
-9.787154
  0
LINE
  8
0
 10
-8.127091
 20
-2.174423
 11
-16.094736
 21
5.793221
  0
LINE
  8
0
 10
-7.868274
 20
-3.140352
 11
-17.060661
 21
6.052036
  0
LINE
  8
0
 10
-7.868286
 20
-3.140354
 11
-8.127106
 21
-2.174427
  0
LINE
  8
0
 10
-17.060661
 20
6.052036
 11
-16.094736
 21
5.793217
  0
LINE
  8
0
 10
-9.989592
 20
-5.261671
 11
-7.868272
 21
-3.140350
  0
LINE
  8
0
 10
48.235535
 20
34.578632
 11
36.992535
 21
23.335632
  0
LINE
  8
0
 10
42.578682
 20
40.235497
 11
31.335690
 21
28.992500
  0
LINE
  8
0
 10
38.265320
 20
35.922176
 11
43.922176
 21
30.265324
  0
LINE
  8
0
 10
30.769997
 20
28.992508
 11
36.992527
 21
22.769974
  0
LINE
  8
0
 10
43.922176
 20
29.699600
 11
36.992531
 21
22.769951
  0
LINE
  8
0
 10
37.699638
 20
35.922173
 11
30.769989
 21
28.992523
  0
LINE
  8
0
 10
32.820595
 20
30.477428
 11
38.477451
 21
24.820576
  0
LINE
  8
0
 10
36.568268
 20
37.053566
 11
37.982479
 21
35.639351
  0
LINE
  8
0
 10
41.305866
 20
41.084030
 11
42.366528
 21
40.023369
  0
LINE
  8
0
 10
43.639336
 20
29.982498
 11
45.053547
 21
28.568283
  0
LINE
  8
0
 10
49.084076
 20
32.598736
 11
45.053570
 21
28.568230
  0
LINE
  8
0
 10
40.598785
 20
41.084038
 11
36.568279
 21
37.053528
  0
LINE
  8
0
 10
48.023384
 20
34.366516
 11
49.084045
 21
33.305855
  0
LINE
  8
0
 10
32.749832
 20
29.699619
 11
32.749832
 21
30.406727
  0
LINE
  8
0
 10
37.699604
 20
24.749832
 11
38.406715
 21
24.749832
  0
LINE
  8
0
 10
31.335686
 20
28.992500
 11
36.992538
 21
23.335651
  0
LINE
  8
0
 10
32.396355
 20
30.053169
 11
38.053196
 21
24.396324
  0
LINE
  8
0
 10
29.361656
 20
12.169231
 11
28.282482
 21
11.090057
  0
LINE
  8
0
 10
38.760311
 20
23.689209
 11
24.658649
 21
9.587543
  0
LINE
  8
0
 10
38.336048
 20
24.113476
 11
38.760303
 21
23.689217
  0
LINE
  8
0
 10
37.275387
 20
23.052803
 11
37.699650
 21
22.628540
  0
LINE
  8
0
 10
30.628582
 20
29.699608
 11
31.052845
 21
29.275345
  0
LINE
  8
0
 10
31.689236
 20
30.760284
 11
32.113506
 21
30.336018
  0
LINE
  8
0
 10
20.169270
 20
21.361645
 11
19.090096
 21
20.282471
  0
LINE
  8
0
 10
48.235535
 20
35.285801
 11
43.285789
 21
40.235550
  0
LINE
  8
0
 10
39.820904
 20
26.164062
 11
34.164055
 21
31.820911
  0
LINE
  8
0
 10
17.587597
 20
16.658611
 11
24.658665
 21
9.587543
  0
LINE
  8
0
 10
-80.235527
 20
-82.578644
 11
-68.992523
 21
-71.335648
  0
LINE
  8
0
 10
-74.578682
 20
-88.235497
 11
-63.335686
 21
-76.992508
  0
LINE
  8
0
 10
-70.265320
 20
-83.922180
 11
-75.922180
 21
-78.265320
  0
LINE
  8
0
 10
-62.769997
 20
-76.992508
 11
-68.992523
 21
-70.769974
  0
LINE
  8
0
 10
-75.922180
 20
-77.699600
 11
-68.992531
 21
-70.769943
  0
LINE
  8
0
 10
-69.699631
 20
-83.922180
 11
-62.769981
 21
-76.992531
  0
LINE
  8
0
 10
-64.820602
 20
-78.477432
 11
-70.477448
 21
-72.820572
  0
LINE
  8
0
 10
-68.568268
 20
-85.053558
 11
-69.982483
 21
-83.639343
  0
LINE
  8
0
 10
-73.305862
 20
-89.084038
 11
-74.366516
 21
-88.023376
  0
LINE
  8
0
 10
-75.639343
 20
-77.982491
 11
-77.053558
 21
-76.568283
  0
LINE
  8
0
 10
-81.084068
 20
-80.598740
 11
-77.053558
 21
-76.568237
  0
LINE
  8
0
 10
-72.598785
 20
-89.084038
 11
-68.568283
 21
-85.053528
  0
LINE
  8
0
 10
-80.023376
 20
-82.366516
 11
-81.084038
 21
-81.305862
  0
LINE
  8
0
 10
-64.749832
 20
-77.699615
 11
-64.749832
 21
-78.406723
  0
LINE
  8
0
 10
-69.699600
 20
-72.749825
 11
-70.406715
 21
-72.749825
  0
LINE
  8
0
 10
-63.335690
 20
-76.992500
 11
-68.992538
 21
-71.335648
  0
LINE
  8
0
 10
-64.396355
 20
-78.053162
 11
-70.053200
 21
-72.396317
  0
LINE
  8
0
 10
-70.336044
 20
-72.113472
 11
-70.760307
 21
-71.689209
  0
LINE
  8
0
 10
-69.275391
 20
-71.052803
 11
-69.699646
 21
-70.628540
  0
LINE
  8
0
 10
-62.628582
 20
-77.699608
 11
-63.052845
 21
-77.275345
  0
LINE
  8
0
 10
-63.689240
 20
-78.760284
 11
-64.113510
 21
-78.336014
  0
LINE
  8
0
 10
-80.235542
 20
-83.285797
 11
-75.285797
 21
-88.235550
  0
LINE
  8
0
 10
-71.820908
 20
-74.164062
 11
-66.164055
 21
-79.820915
  0
LINE
  8
0
 10
-70.760315
 20
-71.689209
 11
-68.467346
 21
-69.396233
  0
LINE
  8
0
 10
-63.689247
 20
-78.760269
 11
-61.396275
 21
-76.467300
  0
LINE
  8
0
 10
-50.000065
 20
-9.799998
 11
-81.762024
 21
21.961971
  0
LINE
  8
0
 10
-81.762032
 20
-69.961945
 11
-50.000065
 21
-38.199989
  0
LINE
  8
0
 10
-81.762047
 20
-69.961960
 11
-111.000076
 21
-40.723915
  0
LINE
  8
0
 10
-111.000076
 20
-7.276056
 11
-81.762032
 21
21.961983
  0
LINE
  8
0
 10
-50.000065
 20
-38.199989
 11
-50.000065
 21
-9.799997
  0
LINE
  8
0
 10
-111.000061
 20
-40.749947
 11
-111.000061
 21
-7.250038
  0
LINE
  8
0
 10
-72.569626
 20
15.597988
 11
-63.165104
 21
25.002510
  0
LINE
  8
0
 10
-64.084351
 20
7.112726
 11
-54.679825
 21
16.517246
  0
LINE
  8
0
 10
-71.809952
 20
-63.014164
 11
-71.897888
 21
-62.926231
  0
LINE
  8
0
 10
-64.668182
 20
-55.872387
 11
-64.756119
 21
-55.784454
  0
LINE
  8
0
 10
-61.998379
 20
24.825737
 11
-61.203339
 21
25.620777
  0
LINE
  8
0
 10
-54.856598
 20
17.683971
 11
-54.061554
 21
18.479015
  0
LINE
  8
0
 10
-54.470608
 20
17.297970
 11
-62.384342
 21
25.211704
  0
LINE
  8
0
 10
-71.809944
 20
-63.014156
 11
-64.668167
 21
-55.872383
  0
LINE
  8
0
 10
-61.203323
 20
25.620770
 11
-54.061546
 21
18.478992
  0
LINE
  8
0
 10
-54.679787
 20
16.517216
 11
-54.470585
 21
17.297962
  0
LINE
  8
0
 10
-63.165096
 20
25.002522
 11
-62.384350
 21
25.211723
  0
LINE
  8
0
 10
-54.679810
 20
16.517227
 11
-63.165085
 21
25.002506
  0
LINE
  8
0
 10
-92.707428
 20
-33.838535
 11
-92.003815
 21
-28.108051
  0
LINE
  8
0
 10
-102.632957
 20
-32.619831
 11
-101.929344
 21
-26.889366
  0
LINE
  8
0
 10
-92.707443
 20
-33.838516
 11
-98.021980
 21
-36.094406
  0
LINE
  8
0
 10
-96.614761
 20
-24.633453
 11
-101.929298
 21
-26.889339
  0
LINE
  8
0
 10
-98.022072
 20
-36.094543
 11
-102.632988
 21
-32.619968
  0
LINE
  8
0
 10
-92.003906
 20
-28.108181
 11
-96.614830
 21
-24.633602
  0
LINE
  8
0
 10
-94.948051
 20
-31.158745
 11
-99.810524
 21
-30.561707
  0
LINE
  8
0
 10
-94.826187
 20
-30.166214
 11
-99.688660
 21
-29.569176
  0
LINE
  8
0
 10
-91.548439
 20
-17.837570
 11
-94.258934
 21
-12.739862
  0
LINE
  8
0
 10
-100.377937
 20
-22.532291
 11
-103.088425
 21
-17.434597
  0
LINE
  8
0
 10
-91.548439
 20
-17.837479
 11
-94.607925
 21
-22.733686
  0
LINE
  8
0
 10
-100.028893
 20
-12.538287
 11
-103.088379
 21
-17.434494
  0
LINE
  8
0
 10
-94.607857
 20
-22.733742
 11
-100.377846
 21
-22.532249
  0
LINE
  8
0
 10
-94.258873
 20
-12.739795
 11
-100.028854
 21
-12.538302
  0
LINE
  8
0
 10
-94.920876
 20
-16.927483
 11
-99.246429
 21
-19.227415
  0
LINE
  8
0
 10
-95.390350
 20
-16.044527
 11
-99.715904
 21
-18.344461
  0
LINE
  8
0
 10
-50.584335
 20
-30.538345
 11
-50.584335
 21
-17.461647
  0
LINE
  8
0
 10
-77.584335
 20
-30.538343
 11
-77.584335
 21
-17.461647
  0
LINE
  8
0
 10
-66.803970
 20
-41.933495
 11
-74.282532
 21
-35.000156
  0
LINE
  8
0
 10
-61.364914
 20
-41.933281
 11
-53.886353
 21
-34.999947
  0
LINE
  8
0
 10
-53.886345
 20
-13.000040
 11
-61.364906
 21
-6.066708
  0
LINE
  8
0
 10
-66.803970
 20
-6.066488
 11
-74.282532
 21
-12.999821
  0
LINE
  8
0
 10
-78.226486
 20
-69.254829
 11
-58.427494
 21
-49.455845
  0
LINE
  8
0
 10
-58.427498
 20
1.455847
 11
-78.226486
 21
21.254833
  0
LINE
  8
0
 10
-24.000000
 20
-62.405727
 11
-24.000000
 21
-54.681496
  0
LINE
  8
0
 10
-24.000000
 20
-0.887300
 11
-24.000000
 21
14.405727
  0
LINE
  8
0
 10
-81.800003
 20
-69.950035
 11
-111.000076
 21
-40.749954
  0
LINE
  8
0
 10
-81.800003
 20
-69.949997
 11
-81.786995
 21
-69.936981
  0
LINE
  8
0
 10
-81.786987
 20
21.936996
 11
-81.800011
 21
21.950016
  0
LINE
  8
0
 10
-111.000076
 20
-7.250029
 11
-81.800026
 21
21.950016
  0
LINE
  8
0
 10
-78.226501
 20
-69.254868
 11
-79.640709
 21
-67.840652
  0
LINE
  8
0
 10
-58.427513
 20
-49.455872
 11
-59.841724
 21
-48.041656
  0
LINE
  8
0
 10
-79.640709
 20
19.840637
 11
-78.226494
 21
21.254848
  0
LINE
  8
0
 10
-59.841698
 20
0.041655
 11
-58.427486
 21
1.455868
  0
LINE
  8
0
 10
-77.589729
 20
-69.183762
 11
-72.498566
 21
-64.092590
  0
LINE
  8
0
 10
-73.629440
 20
-68.122604
 11
-73.559723
 21
-68.052887
  0
LINE
  8
0
 10
-72.498550
 20
-64.092606
 11
-72.781395
 21
-63.809765
  0
LINE
  8
0
 10
-77.589737
 20
-69.183792
 11
-77.872574
 21
-68.900948
  0
LINE
  8
0
 10
-63.589725
 20
-55.183762
 11
-58.498554
 21
-50.092594
  0
LINE
  8
0
 10
-58.498554
 20
-50.092617
 11
-58.781399
 21
-49.809772
  0
LINE
  8
0
 10
-63.589745
 20
-55.183777
 11
-63.872589
 21
-54.900936
  0
LINE
  8
0
 10
-58.498543
 20
2.092602
 11
-63.589710
 21
7.183773
  0
LINE
  8
0
 10
-59.559704
 20
6.052896
 11
-59.629421
 21
6.122612
  0
LINE
  8
0
 10
-63.589699
 20
7.183777
 11
-63.872543
 21
6.900934
  0
LINE
  8
0
 10
-58.498528
 20
2.092606
 11
-58.781372
 21
1.809763
  0
LINE
  8
0
 10
-72.498543
 20
16.092606
 11
-77.589706
 21
21.183773
  0
LINE
  8
0
 10
-73.559708
 20
20.052898
 11
-73.629410
 21
20.122608
  0
LINE
  8
0
 10
-77.589722
 20
21.183769
 11
-77.872566
 21
20.900925
  0
LINE
  8
0
 10
-72.498520
 20
16.092621
 11
-72.781372
 21
15.809780
  0
LINE
  8
0
 10
-68.467323
 20
-69.396255
 11
-61.396255
 21
-76.467323
  0
LINE
  8
0
 10
-59.133522
 20
-62.890884
 11
-54.890881
 21
-67.133530
  0
LINE
  8
0
 10
-68.467316
 20
-69.396255
 11
-61.961937
 21
-62.890869
  0
LINE
  8
0
 10
-61.396252
 20
-76.467316
 11
-54.890869
 21
-69.961937
  0
LINE
  8
0
 10
-62.647717
 20
-68.547729
 11
-58.447720
 21
-68.547729
  0
LINE
  8
0
 10
-60.547726
 20
-66.447723
 11
-60.547726
 21
-70.647728
  0
LINE
  8
0
 10
31.689243
 20
30.760277
 11
17.587578
 21
16.658611
  0
LINE
  8
0
 10
-78.933578
 20
-45.598732
 11
-78.933578
 21
-51.898731
  0
LINE
  8
0
 10
-82.083580
 20
-48.748734
 11
-75.783577
 21
-48.748734
  0
LINE
  8
0
 10
-64.084335
 20
-37.845295
 11
-65.084335
 21
-38.422646
  0
LINE
  8
0
 10
-65.084335
 20
-38.422646
 11
-65.084335
 21
-39.577347
  0
LINE
  8
0
 10
-64.084335
 20
-40.154694
 11
-65.084335
 21
-39.577343
  0
LINE
  8
0
 10
-63.084335
 20
-39.577347
 11
-64.084335
 21
-40.154694
  0
LINE
  8
0
 10
-63.084335
 20
-38.422646
 11
-63.084335
 21
-39.577347
  0
LINE
  8
0
 10
-64.084335
 20
-37.845291
 11
-63.084332
 21
-38.422646
  0
LINE
  8
0
 10
-33.690601
 20
-62.599998
 11
-37.715237
 21
-62.599998
  0
LINE
  8
0
 10
-31.678282
 20
-59.114559
 11
-33.690601
 21
-62.599998
  0
LINE
  8
0
 10
-31.381195
 20
10.599998
 11
-33.690598
 21
14.599995
  0
LINE
  8
0
 10
-33.690598
 20
14.599998
 11
-38.309399
 21
14.599998
  0
LINE
  8
0
 10
-40.618801
 20
10.599998
 11
-38.309399
 21
14.599998
  0
LINE
  8
0
 10
-38.309399
 20
6.599997
 11
-40.618797
 21
10.599995
  0
LINE
  8
0
 10
-33.690598
 20
6.599998
 11
-38.309399
 21
6.599998
  0
LINE
  8
0
 10
-31.381195
 20
10.599998
 11
-33.690598
 21
6.599997
  0
LINE
  8
0
 10
-64.084335
 20
-7.845301
 11
-65.084335
 21
-8.422651
  0
LINE
  8
0
 10
-65.084335
 20
-8.422643
 11
-65.084335
 21
-9.577344
  0
LINE
  8
0
 10
-64.084335
 20
-10.154693
 11
-65.084335
 21
-9.577344
  0
LINE
  8
0
 10
-63.084335
 20
-9.577345
 11
-64.084335
 21
-10.154696
  0
LINE
  8
0
 10
-63.084335
 20
-8.422643
 11
-63.084335
 21
-9.577344
  0
LINE
  8
0
 10
-64.084335
 20
-7.845293
 11
-63.084335
 21
-8.422642
  0
LINE
  8
0
 10
-75.783577
 20
0.748743
 11
-82.083580
 21
0.748743
  0
LINE
  8
0
 10
-78.933578
 20
3.898743
 11
-78.933578
 21
-2.401257
  0
LINE
  8
0
 10
-40.160191
 20
-66.805656
 11
-39.559166
 21
-65.764656
  0
LINE
  8
0
 10
-41.026215
 20
-66.305656
 11
-40.425194
 21
-65.264656
  0
LINE
  8
0
 10
-40.160187
 20
18.805656
 11
-39.559166
 21
17.764656
  0
LINE
  8
0
 10
-41.026215
 20
18.305656
 11
-40.425194
 21
17.264656
  0
LINE
  8
0
 10
-23.244444
 20
40.441139
 11
-23.963839
 21
37.756325
  0
LINE
  8
0
 10
-8.755558
 20
40.441154
 11
-8.036161
 21
37.756332
  0
LINE
  8
0
 10
-23.244436
 20
-88.441132
 11
-23.963831
 21
-85.756317
  0
LINE
  8
0
 10
-8.755573
 20
-88.441132
 11
-8.036182
 21
-85.756317
  0
LINE
  8
0
 10
41.464470
 20
-47.981293
 11
43.429878
 21
-49.946705
  0
LINE
  8
0
 10
41.464474
 20
-0.018768
 11
43.429916
 21
1.946676
  0
LINE
  8
0
 10
33.500660
 20
13.775047
 11
36.185455
 21
14.494434
  0
LINE
  8
0
 10
40.000000
 20
-44.445763
 11
40.000000
 21
-31.500000
  0
LINE
  8
0
 10
-26.293495
 20
-82.720352
 11
-37.505234
 21
-76.247253
  0
LINE
  8
0
 10
-5.706540
 20
-82.720291
 11
5.504717
 21
-76.247459
  0
LINE
  8
0
 10
-54.140327
 20
18.642876
 11
-50.495316
 21
20.747326
  0
LINE
  8
0
 10
-16.673119
 20
-35.630539
 11
-27.630539
 21
-24.673122
  0
LINE
  8
0
 10
-15.326874
 20
-35.630539
 11
-4.369461
 21
-24.673120
  0
LINE
  8
0
 10
-27.630539
 20
-23.326881
 11
-16.673122
 21
-12.369462
  0
LINE
  8
0
 10
-4.369462
 20
-23.326878
 11
-15.326882
 21
-12.369462
  0
LINE
  8
0
 10
-15.326890
 20
-12.369459
 11
-14.972508
 21
-11.592468
  0
LINE
  8
0
 10
-16.673120
 20
-12.369462
 11
-17.027502
 21
-11.592472
  0
LINE
  8
0
 10
-28.407530
 20
-22.972506
 11
-27.630539
 21
-23.326887
  0
LINE
  8
0
 10
-28.407524
 20
-25.027510
 11
-27.630535
 21
-24.673126
  0
LINE
  8
0
 10
-17.027489
 20
-36.407532
 11
-16.673103
 21
-35.630543
  0
LINE
  8
0
 10
-14.972494
 20
-36.407524
 11
-15.326869
 21
-35.630535
  0
LINE
  8
0
 10
-3.592470
 20
-25.027496
 11
-4.369461
 21
-24.673120
  0
LINE
  8
0
 10
-4.369463
 20
-23.326881
 11
-3.592473
 21
-22.972494
  0
LINE
  8
0
 10
-56.041859
 20
-76.769775
 11
-48.015911
 21
-68.743835
  0
LINE
  8
0
 10
-37.504692
 20
28.247471
 11
-26.293472
 21
34.720276
  0
LINE
  8
0
 10
5.505232
 20
28.247257
 11
-5.706514
 21
34.720360
  0
LINE
  8
0
 10
40.000000
 20
-16.500000
 11
40.000000
 21
-3.554295
  0
ARC
  8
0
 10
-44.480377
 20
-72.279366
 40
4.999997
 50
120.000015
 51
135.000031
  0
ARC
  8
0
 10
-16.000000
 20
-24.000000
 40
22.500000
 50
122.898529
 51
147.101517
  0
ARC
  8
0
 10
-16.000000
 20
-24.000000
 40
67.999992
 50
215.445297
 51
220.783234
  0
ARC
  8
0
 10
-57.456070
 20
-75.355560
 40
2.000000
 50
231.088257
 51
314.999908
  0
ARC
  8
0
 10
-57.859116
 20
-50.302765
 40
5.000004
 50
240.476089
 51
314.999969
  0
ARC
  8
0
 10
-53.615913
 20
-31.917431
 40
14.999997
 50
315.000000
 51
33.463039
  0
ARC
  8
0
 10
-44.480377
 20
-72.279366
 40
4.999997
 50
120.000015
 51
135.000031
  0
ARC
  8
0
 10
12.480343
 20
-72.279388
 40
5.000003
 50
45.000031
 51
60.000046
  0
ARC
  8
0
 10
25.456036
 20
-75.355591
 40
1.999999
 50
225.000076
 51
308.911743
  0
ARC
  8
0
 10
25.859100
 20
-50.302795
 40
5.000000
 50
225.000061
 51
304.247040
  0
ARC
  8
0
 10
20.762741
 20
-31.064291
 40
15.000001
 50
164.999908
 51
224.999969
  0
ARC
  8
0
 10
-16.000011
 20
-67.383209
 40
14.999998
 50
59.999943
 51
120.000046
  0
ARC
  8
0
 10
-16.000000
 20
-36.020813
 40
1.000001
 50
225.000000
 51
314.999969
  0
ARC
  8
0
 10
-3.979185
 20
-24.000000
 40
1.000000
 50
314.999969
 51
45.000038
  0
ARC
  8
0
 10
-16.000000
 20
-11.979185
 40
1.000000
 50
45.000038
 51
135.000046
  0
ARC
  8
0
 10
-28.020815
 20
-24.000000
 40
1.000000
 50
134.999924
 51
225.000076
  0
ARC
  8
0
 10
-16.000000
 20
-36.727921
 40
1.000001
 50
225.000000
 51
314.999969
  0
ARC
  8
0
 10
-3.272079
 20
-24.000000
 40
1.000000
 50
314.999969
 51
45.000038
  0
ARC
  8
0
 10
-16.000000
 20
-11.272079
 40
1.000000
 50
45.000038
 51
135.000046
  0
ARC
  8
0
 10
-28.727921
 20
-24.000000
 40
1.000001
 50
135.000000
 51
225.000000
  0
ARC
  8
0
 10
-16.000000
 20
-24.000000
 40
68.000000
 50
229.216690
 51
231.088318
  0
ARC
  8
0
 10
-16.000000
 20
-24.000000
 40
68.000000
 50
308.911682
 51
324.554749
  0
CIRCLE
  8
0
 10
38.972420
 20
30.972408
 40
2.500000
  0
CIRCLE
  8
0
 10
38.972420
 20
30.972408
 40
2.000000
  0
ARC
  8
0
 10
42.932217
 20
39.881958
 40
0.500001
 50
45.000000
 51
135.000000
  0
ARC
  8
0
 10
47.881973
 20
34.932194
 40
0.500001
 50
315.000000
 51
45.000000
  0
ARC
  8
0
 10
48.730492
 20
32.952293
 40
0.500001
 50
315.000000
 51
45.000000
  0
ARC
  8
0
 10
40.952324
 20
40.730469
 40
0.500001
 50
45.000000
 51
135.000000
  0
ARC
  8
0
 10
43.877953
 20
35.877949
 40
3.519531
 50
4.156643
 51
85.843231
  0
ARC
  8
0
 10
-0.272019
 20
-8.272034
 40
36.000000
 50
34.597839
 51
37.016441
  0
ARC
  8
0
 10
-0.272019
 20
-8.272034
 40
36.000000
 50
52.983559
 51
55.402122
  0
CIRCLE
  8
0
 10
-70.972427
 20
-78.972404
 40
2.500000
  0
CIRCLE
  8
0
 10
-70.972427
 20
-78.972404
 40
2.000000
  0
ARC
  8
0
 10
-74.932220
 20
-87.881958
 40
0.499995
 50
224.999374
 51
315.000610
  0
ARC
  8
0
 10
-79.881973
 20
-82.932190
 40
0.500001
 50
135.000000
 51
225.000000
  0
ARC
  8
0
 10
-80.730499
 20
-80.952286
 40
0.499995
 50
135.000626
 51
225.000626
  0
ARC
  8
0
 10
-72.952332
 20
-88.730461
 40
0.499995
 50
225.000626
 51
315.000610
  0
ARC
  8
0
 10
-75.877960
 20
-83.877945
 40
3.519527
 50
184.156708
 51
265.843292
  0
CIRCLE
  8
0
 10
-78.933578
 20
-48.748734
 40
6.500000
  0
CIRCLE
  8
0
 10
-78.933578
 20
0.748743
 40
6.500000
  0
CIRCLE
  8
0
 10
-64.084335
 20
-23.999994
 40
0.500000
  0
CIRCLE
  8
0
 10
-64.084335
 20
-23.999994
 40
11.250000
  0
ARC
  8
0
 10
-78.226479
 20
-49.455841
 40
14.999997
 50
295.326080
 51
334.673889
  0
ARC
  8
0
 10
-67.619865
 20
12.062450
 40
14.999998
 50
25.326059
 51
64.673904
  0
CIRCLE
  8
0
 10
-97.318359
 20
-30.363953
 40
2.500000
  0
CIRCLE
  8
0
 10
-97.318359
 20
-30.363953
 40
2.250000
  0
CIRCLE
  8
0
 10
-97.318359
 20
-30.363953
 40
5.000000
  0
CIRCLE
  8
0
 10
-97.318359
 20
-17.636030
 40
2.500000
  0
CIRCLE
  8
0
 10
-97.318359
 20
-17.636030
 40
2.250000
  0
CIRCLE
  8
0
 10
-97.318359
 20
-17.636030
 40
5.000000
  0
ARC
  8
0
 10
-64.084335
 20
-38.999996
 40
3.999999
 50
227.166611
 51
312.833405
  0
ARC
  8
0
 10
-64.084335
 20
-8.999994
 40
4.000000
 50
47.166546
 51
132.833496
  0
ARC
  8
0
 10
-64.084335
 20
-23.999994
 40
15.000003
 50
132.833435
 51
154.158066
  0
ARC
  8
0
 10
-64.084335
 20
-23.999994
 40
15.000002
 50
312.833405
 51
334.158051
  0
ARC
  8
0
 10
-64.084335
 20
-8.999994
 40
4.000000
 50
47.166546
 51
90.000000
  0
ARC
  8
0
 10
-64.084335
 20
-23.999994
 40
15.000004
 50
205.841965
 51
227.166611
  0
ARC
  8
0
 10
-64.084335
 20
-23.999994
 40
14.999999
 50
25.841923
 51
47.166565
  0
ARC
  8
0
 10
-16.000000
 20
-24.000000
 40
51.000000
 50
113.876205
 51
140.871994
  0
ARC
  8
0
 10
-33.000004
 20
-62.405727
 40
9.000002
 50
246.123795
 51
0.000000
  0
ARC
  8
0
 10
-32.999996
 20
14.405727
 40
9.000000
 50
0.000024
 51
113.876198
  0
ARC
  8
0
 10
-61.768539
 20
13.232254
 40
8.000001
 50
288.428345
 51
320.871979
  0
CIRCLE
  8
0
 10
-78.933578
 20
-48.748734
 40
6.200000
  0
CIRCLE
  8
0
 10
-78.933578
 20
0.748743
 40
6.200000
  0
ARC
  8
0
 10
-76.528564
 20
-65.223465
 40
4.100000
 50
255.000015
 51
314.999939
  0
ARC
  8
0
 10
-76.458855
 20
-65.153748
 40
4.099997
 50
314.999939
 51
14.999986
  0
ARC
  8
0
 10
-62.528561
 20
-51.223465
 40
4.100000
 50
255.000015
 51
314.999969
  0
ARC
  8
0
 10
-62.458847
 20
-51.153748
 40
4.099999
 50
314.999969
 51
14.999986
  0
ARC
  8
0
 10
-62.458839
 20
3.153759
 40
4.100000
 50
345.000031
 51
44.999962
  0
ARC
  8
0
 10
-62.528553
 20
3.223473
 40
4.100001
 50
44.999981
 51
104.999985
  0
ARC
  8
0
 10
-76.458847
 20
17.153763
 40
4.100000
 50
345.000000
 51
44.999962
  0
ARC
  8
0
 10
-76.528557
 20
17.223476
 40
4.099999
 50
44.999962
 51
104.999985
  0
CIRCLE
  8
0
 10
-64.084335
 20
-23.999994
 40
11.800000
  0
ARC
  8
0
 10
-60.547726
 20
-64.305084
 40
2.000002
 50
45.000000
 51
135.000000
  0
ARC
  8
0
 10
-56.305084
 20
-68.547729
 40
2.000002
 50
315.000000
 51
45.000000
  0
CIRCLE
  8
0
 10
-60.547726
 20
-68.547729
 40
3.500000
  0
ARC
  8
0
 10
-16.000000
 20
-24.000000
 40
56.499996
 50
234.165787
 51
305.834167
  0
ARC
  8
0
 10
-16.000000
 20
-24.000000
 40
56.500000
 50
142.622147
 51
146.370392
  0
ARC
  8
0
 10
-61.768547
 20
-61.232246
 40
8.000000
 50
49.621986
 51
71.571671
  0
ARC
  8
0
 10
-16.000000
 20
-24.000000
 40
50.999996
 50
236.267822
 51
246.123810
  0
ARC
  8
0
 10
-16.000000
 20
-24.000000
 40
56.500000
 50
325.484375
 51
39.922913
  0
CIRCLE
  8
0
 10
4.000002
 20
10.641014
 40
5.500000
  0
ARC
  8
0
 10
-36.000000
 20
-58.599998
 40
8.000003
 50
229.014694
 51
10.985352
  0
ARC
  8
0
 10
-36.000000
 20
-58.599998
 40
7.000000
 50
231.860947
 51
8.139114
  0
ARC
  8
0
 10
-36.000000
 20
-58.599998
 40
9.200001
 50
226.458069
 51
236.884567
  0
CIRCLE
  8
0
 10
-64.084335
 20
-38.999992
 40
2.850000
  0
CIRCLE
  8
0
 10
-36.000000
 20
10.599998
 40
8.000000
  0
CIRCLE
  8
0
 10
-36.000000
 20
10.599998
 40
7.000000
  0
ARC
  8
0
 10
-36.000000
 20
10.599998
 40
9.199998
 50
123.115417
 51
116.884552
  0
CIRCLE
  8
0
 10
-64.084335
 20
-8.999993
 40
2.850000
  0
ARC
  8
0
 10
-36.000000
 20
-58.599998
 40
9.200001
 50
243.115417
 51
13.541959
  0
ARC
  8
0
 10
-16.000000
 20
-24.000000
 40
56.500000
 50
50.077042
 51
132.972168
  0
CIRCLE
  8
0
 10
4.000034
 20
10.640995
 40
5.000000
  0
CIRCLE
  8
0
 10
4.000034
 20
10.640995
 40
4.250000
  0
ARC
  8
0
 10
-16.000013
 20
38.500000
 40
7.500000
 50
15.000033
 51
164.999969
  0
ARC
  8
0
 10
-15.999995
 20
-86.500000
 40
7.500000
 50
195.000031
 51
344.999969
  0
ARC
  8
0
 10
38.126587
 20
-55.250008
 40
7.500000
 50
273.358154
 51
44.999981
  0
ARC
  8
0
 10
38.126595
 20
7.249981
 40
7.499999
 50
315.000000
 51
104.999969
  0
ARC
  8
0
 10
32.206524
 20
18.604691
 40
5.000000
 50
236.992661
 51
285.000000
  0
ARC
  8
0
 10
-28.793465
 20
-87.050415
 40
5.000000
 50
14.999943
 51
59.999981
  0
ARC
  8
0
 10
-3.206529
 20
-87.050430
 40
5.000003
 50
119.999954
 51
164.999969
  0
ARC
  8
0
 10
45.000000
 20
-44.445763
 40
5.000000
 50
180.000000
 51
225.000031
  0
ARC
  8
0
 10
45.000000
 20
-3.554295
 40
5.000000
 50
135.000000
 51
179.999985
  0
ARC
  8
0
 10
-3.206548
 20
39.050419
 40
5.000000
 50
195.000031
 51
240.000031
  0
ARC
  8
0
 10
-16.000000
 20
-24.000000
 40
70.750000
 50
216.991135
 51
220.947403
  0
ARC
  8
0
 10
-16.000000
 20
-24.000000
 40
12.450000
 50
175.265991
 51
184.734009
  0
ARC
  8
0
 10
-16.000000
 20
-24.000000
 40
11.650000
 50
176.687683
 51
183.312302
  0
ARC
  8
0
 10
-16.000000
 20
-24.000000
 40
11.650001
 50
266.687714
 51
273.312347
  0
ARC
  8
0
 10
-16.000000
 20
-24.000000
 40
11.650000
 50
356.687653
 51
3.312285
  0
ARC
  8
0
 10
-16.000000
 20
-24.000000
 40
11.650000
 50
86.687683
 51
93.312317
  0
ARC
  8
0
 10
-16.000000
 20
-24.000000
 40
12.450001
 50
265.265961
 51
274.734039
  0
ARC
  8
0
 10
-16.000000
 20
-24.000000
 40
12.450000
 50
355.265961
 51
4.734048
  0
ARC
  8
0
 10
-16.000000
 20
-24.000000
 40
12.450000
 50
85.265968
 51
94.734062
  0
ARC
  8
0
 10
-28.793480
 20
39.050419
 40
5.000000
 50
299.999969
 51
344.999969
  0
ARC
  8
0
 10
-16.000000
 20
-24.000000
 40
70.750000
 50
229.052521
 51
40.947426
  0
ARC
  8
0
 10
-16.000000
 20
-24.000000
 40
70.750000
 50
49.052528
 51
143.101379
  0
POINT
  8
0
 10
178.700012
 20
180.000000
  0
POINT
  8
0
 10
115.000000
 20
180.000000
  0
LINE
  8
0
 10
110.000008
 20
123.500000
 11
110.000008
 21
135.527374
  0
LINE
  8
0
 10
110.000008
 20
236.500000
 11
116.200012
 21
236.500000
  0
LINE
  8
0
 10
110.000008
 20
123.500000
 11
116.200012
 21
123.500000
  0
LINE
  8
0
 10
110.000008
 20
145.899994
 11
110.000008
 21
156.100006
  0
LINE
  8
0
 10
116.200012
 20
123.500000
 11
116.200012
 21
236.500000
  0
LINE
  8
0
 10
120.700005
 20
134.038055
 11
162.699997
 21
134.038055
  0
LINE
  8
0
 10
120.700020
 20
225.961945
 11
162.700027
 21
225.961945
  0
LINE
  8
0
 10
120.700012
 20
225.949997
 11
120.700012
 21
134.050003
  0
LINE
  8
0
 10
162.700012
 20
225.961929
 11
162.700012
 21
134.038040
  0
LINE
  8
0
 10
167.700012
 20
189.013550
 11
167.700012
 21
181.366959
  0
LINE
  8
0
 10
174.700012
 20
188.563934
 11
174.700012
 21
184.163940
  0
LINE
  8
0
 10
164.700012
 20
198.723694
 11
164.700012
 21
191.461639
  0
LINE
  8
0
 10
178.700012
 20
191.049988
 11
178.700012
 21
168.949982
  0
LINE
  8
0
 10
162.700012
 20
167.905563
 11
167.250015
 21
167.905563
  0
LINE
  8
0
 10
162.700012
 20
171.380157
 11
167.250015
 21
171.380157
  0
LINE
  8
0
 10
162.700012
 20
177.110626
 11
167.250015
 21
177.110626
  0
LINE
  8
0
 10
162.700012
 20
179.366501
 11
167.250015
 21
179.366501
  0
LINE
  8
0
 10
162.700012
 20
181.467743
 11
167.250015
 21
181.467743
  0
LINE
  8
0
 10
162.700012
 20
181.266266
 11
167.250015
 21
181.266266
  0
LINE
  8
0
 10
162.700012
 20
186.565460
 11
167.250015
 21
186.565460
  0
LINE
  8
0
 10
162.700012
 20
191.461655
 11
167.250015
 21
191.461655
  0
LINE
  8
0
 10
167.700012
 20
188.863953
 11
174.400009
 21
188.863953
  0
LINE
  8
0
 10
167.700012
 20
183.863953
 11
174.400009
 21
183.863953
  0
LINE
  8
0
 10
167.700012
 20
176.136032
 11
174.400009
 21
176.136032
  0
LINE
  8
0
 10
167.700012
 20
171.136032
 11
174.400009
 21
171.136032
  0
LINE
  8
0
 10
174.700012
 20
175.836014
 11
174.700012
 21
171.436020
  0
LINE
  8
0
 10
167.700012
 20
178.238556
 11
167.700012
 21
169.642853
  0
LINE
  8
0
 10
174.400040
 20
171.136002
 11
174.700043
 21
171.436005
  0
LINE
  8
0
 10
174.400024
 20
176.136017
 11
174.700012
 21
175.836029
  0
LINE
  8
0
 10
174.700043
 20
184.163925
 11
174.400040
 21
183.863922
  0
LINE
  8
0
 10
174.400040
 20
188.863968
 11
174.700043
 21
188.563965
  0
LINE
  8
0
 10
174.400009
 20
171.136017
 11
174.400009
 21
176.136017
  0
LINE
  8
0
 10
174.400009
 20
183.863953
 11
174.400009
 21
188.863953
  0
LINE
  8
0
 10
174.650040
 20
171.386047
 11
167.700012
 21
171.386047
  0
LINE
  8
0
 10
174.649994
 20
175.886047
 11
167.700012
 21
175.886047
  0
LINE
  8
0
 10
174.650024
 20
184.113953
 11
167.700012
 21
184.113953
  0
LINE
  8
0
 10
174.650009
 20
188.613953
 11
167.700012
 21
188.613953
  0
LINE
  8
0
 10
167.250015
 20
168.750000
 11
178.500015
 21
168.750000
  0
LINE
  8
0
 10
166.876617
 20
191.250000
 11
178.500015
 21
191.250000
  0
LINE
  8
0
 10
178.500031
 20
168.749954
 11
178.700027
 21
168.949966
  0
LINE
  8
0
 10
178.700012
 20
191.049973
 11
178.500000
 21
191.249969
  0
LINE
  8
0
 10
164.700012
 20
167.905548
 11
164.700012
 21
161.276276
  0
LINE
  8
0
 10
164.700012
 20
181.266251
 11
164.700012
 21
179.366486
  0
LINE
  8
0
 10
120.700012
 20
163.276108
 11
162.700012
 21
163.276108
  0
LINE
  8
0
 10
120.700012
 20
196.723618
 11
162.700012
 21
196.723618
  0
LINE
  8
0
 10
120.700012
 20
197.000000
 11
116.200012
 21
197.000000
  0
LINE
  8
0
 10
120.700012
 20
163.000000
 11
116.200012
 21
163.000000
  0
LINE
  8
0
 10
165.100006
 20
149.261215
 11
165.100006
 21
161.241272
  0
LINE
  8
0
 10
165.100006
 20
149.261215
 11
162.699997
 21
149.051239
  0
LINE
  8
0
 10
165.100006
 20
161.241272
 11
162.700012
 21
161.451233
  0
LINE
  8
0
 10
165.100021
 20
198.758698
 11
165.100021
 21
210.738754
  0
LINE
  8
0
 10
165.100006
 20
198.758698
 11
162.700012
 21
198.548737
  0
LINE
  8
0
 10
165.100021
 20
210.738770
 11
162.700012
 21
210.948730
  0
LINE
  8
0
 10
165.100006
 20
161.399994
 11
165.100006
 21
167.905563
  0
LINE
  8
0
 10
167.150009
 20
164.950699
 11
167.150009
 21
165.049286
  0
LINE
  8
0
 10
165.100006
 20
161.399994
 11
164.700012
 21
161.399994
  0
LINE
  8
0
 10
165.100006
 20
191.461655
 11
165.100006
 21
198.599991
  0
LINE
  8
0
 10
167.150009
 20
194.950699
 11
167.150009
 21
195.049286
  0
LINE
  8
0
 10
165.100006
 20
198.600006
 11
164.700012
 21
198.600006
  0
LINE
  8
0
 10
116.200012
 20
134.050003
 11
120.700012
 21
134.050003
  0
LINE
  8
0
 10
116.200012
 20
225.949997
 11
120.700012
 21
225.949997
  0
LINE
  8
0
 10
115.600014
 20
135.850006
 11
115.600014
 21
146.350006
  0
LINE
  8
0
 10
109.600014
 20
136.699997
 11
109.600014
 21
145.500000
  0
LINE
  8
0
 10
110.200012
 20
136.100006
 11
115.600014
 21
136.100006
  0
LINE
  8
0
 10
110.200012
 20
146.100006
 11
115.600014
 21
146.100006
  0
LINE
  8
0
 10
110.200012
 20
165.899994
 11
115.600014
 21
165.899994
  0
LINE
  8
0
 10
110.200012
 20
155.899994
 11
115.600014
 21
155.899994
  0
LINE
  8
0
 10
110.200012
 20
204.100006
 11
115.600014
 21
204.100006
  0
LINE
  8
0
 10
110.200012
 20
194.100006
 11
115.600014
 21
194.100006
  0
LINE
  8
0
 10
110.200012
 20
213.899994
 11
115.600014
 21
213.899994
  0
LINE
  8
0
 10
110.200012
 20
223.899994
 11
115.600014
 21
223.899994
  0
LINE
  8
0
 10
115.600014
 20
224.149994
 11
116.200012
 21
224.149994
  0
LINE
  8
0
 10
115.600014
 20
213.649994
 11
116.200012
 21
213.649994
  0
LINE
  8
0
 10
115.600014
 20
204.350006
 11
116.200012
 21
204.350006
  0
LINE
  8
0
 10
115.600014
 20
193.850006
 11
116.200012
 21
193.850006
  0
LINE
  8
0
 10
115.600014
 20
166.149994
 11
116.200012
 21
166.149994
  0
LINE
  8
0
 10
115.600014
 20
155.649994
 11
116.200012
 21
155.649994
  0
LINE
  8
0
 10
115.600014
 20
135.850006
 11
116.200012
 21
135.850006
  0
LINE
  8
0
 10
115.600014
 20
146.350006
 11
116.200012
 21
146.350006
  0
LINE
  8
0
 10
109.600014
 20
194.699997
 11
109.600014
 21
203.500000
  0
LINE
  8
0
 10
115.600014
 20
193.850006
 11
115.600014
 21
204.350006
  0
LINE
  8
0
 10
109.600014
 20
156.500000
 11
109.600014
 21
165.300003
  0
LINE
  8
0
 10
115.600014
 20
155.649994
 11
115.600014
 21
166.149994
  0
LINE
  8
0
 10
109.600014
 20
214.500000
 11
109.600014
 21
223.300003
  0
LINE
  8
0
 10
115.600014
 20
213.649994
 11
115.600014
 21
224.149994
  0
LINE
  8
0
 10
110.200012
 20
136.100006
 11
110.200012
 21
146.100006
  0
LINE
  8
0
 10
110.200012
 20
155.899994
 11
110.200012
 21
165.899994
  0
LINE
  8
0
 10
110.200012
 20
194.100006
 11
110.200012
 21
204.100006
  0
LINE
  8
0
 10
110.200012
 20
213.899994
 11
110.200012
 21
223.899994
  0
LINE
  8
0
 10
110.200012
 20
136.100006
 11
109.600014
 21
136.699997
  0
LINE
  8
0
 10
110.200012
 20
146.100006
 11
109.600014
 21
145.500000
  0
LINE
  8
0
 10
110.200012
 20
155.899994
 11
109.600014
 21
156.500000
  0
LINE
  8
0
 10
109.600014
 20
165.300003
 11
110.200012
 21
165.899994
  0
LINE
  8
0
 10
110.000008
 20
165.699997
 11
110.000008
 21
194.300003
  0
LINE
  8
0
 10
110.200012
 20
194.100006
 11
109.600014
 21
194.699997
  0
LINE
  8
0
 10
109.600006
 20
203.500000
 11
110.200012
 21
204.100006
  0
LINE
  8
0
 10
109.600014
 20
214.500000
 11
110.200012
 21
213.900009
  0
LINE
  8
0
 10
109.600014
 20
223.300003
 11
110.200012
 21
223.899994
  0
LINE
  8
0
 10
110.000008
 20
203.899994
 11
110.000008
 21
214.100006
  0
LINE
  8
0
 10
110.000008
 20
224.472626
 11
110.000008
 21
236.500000
  0
LINE
  8
0
 10
126.449982
 20
123.047684
 11
133.849976
 21
123.047684
  0
LINE
  8
0
 10
125.649994
 20
121.067780
 11
134.649979
 21
121.067780
  0
LINE
  8
0
 10
125.649994
 20
115.618042
 11
134.649979
 21
115.618042
  0
LINE
  8
0
 10
126.449982
 20
114.769501
 11
133.849976
 21
114.769501
  0
LINE
  8
0
 10
126.449982
 20
127.431747
 11
133.849976
 21
127.431747
  0
LINE
  8
0
 10
134.349976
 20
126.931747
 11
134.349976
 21
122.133484
  0
LINE
  8
0
 10
135.149979
 20
125.517532
 11
135.149979
 21
116.118042
  0
LINE
  8
0
 10
125.949982
 20
126.931747
 11
125.949982
 21
122.133484
  0
LINE
  8
0
 10
125.149994
 20
125.517532
 11
125.149994
 21
116.118042
  0
LINE
  8
0
 10
126.449982
 20
121.633484
 11
133.849976
 21
121.633484
  0
LINE
  8
0
 10
124.649979
 20
126.017532
 11
125.949982
 21
126.017532
  0
LINE
  8
0
 10
125.949982
 20
115.618042
 11
125.949982
 21
115.269501
  0
LINE
  8
0
 10
134.349976
 20
115.618042
 11
134.349976
 21
115.269501
  0
LINE
  8
0
 10
134.349976
 20
126.017532
 11
135.649994
 21
126.017532
  0
LINE
  8
0
 10
118.649979
 20
125.734688
 11
124.649979
 21
125.734688
  0
LINE
  8
0
 10
135.649994
 20
126.017532
 11
135.649994
 21
120.077835
  0
LINE
  8
0
 10
124.649979
 20
126.017532
 11
124.649979
 21
120.077835
  0
LINE
  8
0
 10
133.649994
 20
133.230026
 11
133.649994
 21
127.431747
  0
LINE
  8
0
 10
126.649994
 20
133.230011
 11
126.649994
 21
127.431747
  0
LINE
  8
0
 10
135.649994
 20
125.734688
 11
140.649994
 21
125.734688
  0
LINE
  8
0
 10
131.650024
 20
130.401596
 11
131.650024
 21
133.230011
  0
LINE
  8
0
 10
128.649979
 20
130.401581
 11
128.649979
 21
133.230011
  0
LINE
  8
0
 10
126.649994
 20
133.230011
 11
128.649979
 21
133.230011
  0
LINE
  8
0
 10
131.649994
 20
133.230011
 11
133.649994
 21
133.230011
  0
LINE
  8
0
 10
140.649994
 20
131.179413
 11
140.649994
 21
120.077835
  0
LINE
  8
0
 10
118.649979
 20
120.077835
 11
124.649979
 21
120.077835
  0
LINE
  8
0
 10
124.649979
 20
120.360672
 11
125.149994
 21
120.360672
  0
LINE
  8
0
 10
135.149979
 20
120.360672
 11
135.649994
 21
120.360672
  0
LINE
  8
0
 10
135.649994
 20
120.077835
 11
140.649994
 21
120.077835
  0
LINE
  8
0
 10
118.649979
 20
131.179413
 11
126.649994
 21
131.179413
  0
LINE
  8
0
 10
128.649979
 20
131.603668
 11
131.649979
 21
131.603668
  0
LINE
  8
0
 10
128.649979
 20
132.664337
 11
131.649994
 21
132.664337
  0
LINE
  8
0
 10
128.649979
 20
131.179413
 11
131.649979
 21
131.179413
  0
LINE
  8
0
 10
133.649994
 20
131.179413
 11
140.649994
 21
131.179413
  0
LINE
  8
0
 10
133.649994
 20
131.603668
 11
140.199982
 21
131.603668
  0
LINE
  8
0
 10
133.649994
 20
132.664337
 11
140.199982
 21
132.664337
  0
LINE
  8
0
 10
140.199982
 20
132.664337
 11
140.199982
 21
131.179413
  0
LINE
  8
0
 10
125.650002
 20
132.310806
 11
126.649994
 21
131.603714
  0
LINE
  8
0
 10
125.649979
 20
133.371460
 11
126.649971
 21
132.664352
  0
LINE
  8
0
 10
119.199997
 20
133.371460
 11
125.649994
 21
133.371460
  0
LINE
  8
0
 10
118.699997
 20
132.310806
 11
125.649994
 21
132.310806
  0
LINE
  8
0
 10
125.649994
 20
133.371460
 11
125.649994
 21
132.310806
  0
LINE
  8
0
 10
104.199974
 20
143.669937
 11
105.699974
 21
143.669937
  0
LINE
  8
0
 10
102.699974
 20
142.598450
 11
105.699974
 21
142.598450
  0
LINE
  8
0
 10
102.699974
 20
135.527374
 11
105.699974
 21
135.527374
  0
LINE
  8
0
 10
102.699974
 20
145.675140
 11
102.699974
 21
135.527374
  0
LINE
  8
0
 10
104.199974
 20
144.527863
 11
104.199974
 21
143.669937
  0
LINE
  8
0
 10
105.699974
 20
146.735809
 11
105.699974
 21
142.598450
  0
LINE
  8
0
 10
109.699974
 20
146.735809
 11
109.699974
 21
145.599960
  0
LINE
  8
0
 10
105.699974
 20
143.830750
 11
109.600014
 21
143.830750
  0
LINE
  8
0
 10
105.699974
 20
134.638367
 11
109.699974
 21
134.638367
  0
LINE
  8
0
 10
109.699974
 20
135.527374
 11
116.200012
 21
135.527374
  0
LINE
  8
0
 10
105.699974
 20
135.527374
 11
105.699974
 21
134.638367
  0
LINE
  8
0
 10
109.699974
 20
135.527374
 11
109.699974
 21
134.638367
  0
LINE
  8
0
 10
105.699974
 20
146.735809
 11
109.699974
 21
146.735809
  0
LINE
  8
0
 10
102.699974
 20
145.675140
 11
105.699974
 21
145.675140
  0
LINE
  8
0
 10
102.699974
 20
144.527863
 11
105.699974
 21
144.527863
  0
LINE
  8
0
 10
118.649979
 20
131.179413
 11
118.649979
 21
120.077835
  0
LINE
  8
0
 10
119.199997
 20
133.371460
 11
119.199997
 21
134.050003
  0
LINE
  8
0
 10
117.699997
 20
126.239731
 11
117.699997
 21
134.050003
  0
LINE
  8
0
 10
172.649979
 20
123.852585
 11
174.149979
 21
123.852585
  0
LINE
  8
0
 10
143.149979
 20
127.527588
 11
143.149979
 21
122.527588
  0
LINE
  8
0
 10
140.649994
 20
127.527580
 11
143.149979
 21
127.527580
  0
LINE
  8
0
 10
143.149979
 20
127.027580
 11
169.649979
 21
127.027580
  0
LINE
  8
0
 10
143.149979
 20
123.027580
 11
169.649979
 21
123.027580
  0
LINE
  8
0
 10
140.649994
 20
122.527580
 11
143.149979
 21
122.527580
  0
LINE
  8
0
 10
169.649979
 20
127.027580
 11
169.649979
 21
123.027580
  0
LINE
  8
0
 10
169.649979
 20
124.727585
 11
172.649979
 21
124.727585
  0
LINE
  8
0
 10
169.649979
 20
125.327576
 11
172.649979
 21
125.327576
  0
LINE
  8
0
 10
169.649979
 20
123.727585
 11
172.649979
 21
123.727585
  0
LINE
  8
0
 10
169.649979
 20
126.327576
 11
172.649979
 21
126.327576
  0
LINE
  8
0
 10
172.649979
 20
126.327576
 11
172.649979
 21
125.327576
  0
LINE
  8
0
 10
172.649979
 20
124.727585
 11
172.649979
 21
123.727585
  0
LINE
  8
0
 10
172.649979
 20
126.202576
 11
174.149979
 21
126.202576
  0
LINE
  8
0
 10
172.649979
 20
126.077576
 11
174.149979
 21
126.077576
  0
LINE
  8
0
 10
172.649979
 20
125.952576
 11
174.149979
 21
125.952576
  0
LINE
  8
0
 10
172.649979
 20
125.827576
 11
174.149979
 21
125.827576
  0
LINE
  8
0
 10
172.649979
 20
125.702576
 11
174.149979
 21
125.702576
  0
LINE
  8
0
 10
172.649979
 20
125.577576
 11
174.149979
 21
125.577576
  0
LINE
  8
0
 10
172.649979
 20
125.452576
 11
174.149979
 21
125.452576
  0
LINE
  8
0
 10
172.649979
 20
124.602585
 11
174.149979
 21
124.602585
  0
LINE
  8
0
 10
172.649979
 20
124.477585
 11
174.149979
 21
124.477585
  0
LINE
  8
0
 10
172.649979
 20
124.352585
 11
174.149979
 21
124.352585
  0
LINE
  8
0
 10
172.649979
 20
124.227585
 11
174.149979
 21
124.227585
  0
LINE
  8
0
 10
172.649979
 20
124.102585
 11
174.149979
 21
124.102585
  0
LINE
  8
0
 10
172.649979
 20
123.977585
 11
174.149979
 21
123.977585
  0
LINE
  8
0
 10
126.449982
 20
236.952316
 11
133.849976
 21
236.952316
  0
LINE
  8
0
 10
125.649994
 20
238.932220
 11
134.649979
 21
238.932220
  0
LINE
  8
0
 10
125.649994
 20
244.381958
 11
134.649979
 21
244.381958
  0
LINE
  8
0
 10
126.449982
 20
245.230499
 11
133.849976
 21
245.230499
  0
LINE
  8
0
 10
126.449982
 20
232.568253
 11
133.849976
 21
232.568253
  0
LINE
  8
0
 10
134.349976
 20
233.068253
 11
134.349976
 21
237.866516
  0
LINE
  8
0
 10
135.149979
 20
234.482468
 11
135.149979
 21
243.881958
  0
LINE
  8
0
 10
125.949982
 20
233.068253
 11
125.949982
 21
237.866516
  0
LINE
  8
0
 10
125.149994
 20
234.482468
 11
125.149994
 21
243.881958
  0
LINE
  8
0
 10
126.449982
 20
238.366516
 11
133.849976
 21
238.366516
  0
LINE
  8
0
 10
124.649979
 20
233.982468
 11
125.949982
 21
233.982468
  0
LINE
  8
0
 10
125.949982
 20
244.381958
 11
125.949982
 21
244.730499
  0
LINE
  8
0
 10
134.349976
 20
244.381958
 11
134.349976
 21
244.730499
  0
LINE
  8
0
 10
134.349976
 20
233.982468
 11
135.649994
 21
233.982468
  0
LINE
  8
0
 10
118.649979
 20
234.265320
 11
124.649979
 21
234.265320
  0
LINE
  8
0
 10
135.649994
 20
233.982468
 11
135.649994
 21
239.922165
  0
LINE
  8
0
 10
124.649979
 20
233.982468
 11
124.649979
 21
239.922165
  0
LINE
  8
0
 10
133.649994
 20
226.769974
 11
133.649994
 21
232.568253
  0
LINE
  8
0
 10
126.649994
 20
226.769989
 11
126.649994
 21
232.568253
  0
LINE
  8
0
 10
135.649994
 20
234.265320
 11
140.649994
 21
234.265320
  0
LINE
  8
0
 10
131.650024
 20
229.598404
 11
131.650024
 21
226.769989
  0
LINE
  8
0
 10
128.649979
 20
229.598419
 11
128.649979
 21
226.769989
  0
LINE
  8
0
 10
126.649994
 20
226.769989
 11
128.649979
 21
226.769989
  0
LINE
  8
0
 10
131.649994
 20
226.769989
 11
133.649994
 21
226.769989
  0
LINE
  8
0
 10
140.649994
 20
228.820587
 11
140.649994
 21
239.922165
  0
LINE
  8
0
 10
118.649979
 20
239.922165
 11
124.649979
 21
239.922165
  0
LINE
  8
0
 10
124.649979
 20
239.639328
 11
125.149994
 21
239.639328
  0
LINE
  8
0
 10
135.149979
 20
239.639328
 11
135.649994
 21
239.639328
  0
LINE
  8
0
 10
135.649994
 20
239.922165
 11
140.649994
 21
239.922165
  0
LINE
  8
0
 10
118.649979
 20
228.820587
 11
126.649994
 21
228.820587
  0
LINE
  8
0
 10
128.649979
 20
228.396332
 11
131.649979
 21
228.396332
  0
LINE
  8
0
 10
128.649979
 20
227.335663
 11
131.649994
 21
227.335663
  0
LINE
  8
0
 10
128.649979
 20
228.820587
 11
131.649979
 21
228.820587
  0
LINE
  8
0
 10
133.649994
 20
228.820587
 11
140.649994
 21
228.820587
  0
LINE
  8
0
 10
133.649994
 20
228.396332
 11
140.199982
 21
228.396332
  0
LINE
  8
0
 10
133.649994
 20
227.335663
 11
140.199982
 21
227.335663
  0
LINE
  8
0
 10
140.199982
 20
227.335663
 11
140.199982
 21
228.820587
  0
LINE
  8
0
 10
125.650002
 20
227.689194
 11
126.649994
 21
228.396286
  0
LINE
  8
0
 10
125.649979
 20
226.628540
 11
126.649971
 21
227.335632
  0
LINE
  8
0
 10
119.199997
 20
226.628540
 11
125.649994
 21
226.628540
  0
LINE
  8
0
 10
118.699997
 20
227.689194
 11
125.649994
 21
227.689194
  0
LINE
  8
0
 10
125.649994
 20
226.628540
 11
125.649994
 21
227.689194
  0
LINE
  8
0
 10
104.199974
 20
216.330063
 11
105.699974
 21
216.330063
  0
LINE
  8
0
 10
102.699974
 20
217.401550
 11
105.699974
 21
217.401550
  0
LINE
  8
0
 10
102.699974
 20
224.472626
 11
105.699974
 21
224.472626
  0
LINE
  8
0
 10
102.699974
 20
214.324860
 11
102.699974
 21
224.472626
  0
LINE
  8
0
 10
104.199974
 20
215.472137
 11
104.199974
 21
216.330063
  0
LINE
  8
0
 10
105.699974
 20
213.264191
 11
105.699974
 21
217.401550
  0
LINE
  8
0
 10
109.699974
 20
213.264191
 11
109.699974
 21
214.400040
  0
LINE
  8
0
 10
105.699974
 20
216.169250
 11
109.600014
 21
216.169250
  0
LINE
  8
0
 10
105.699974
 20
225.361633
 11
109.699974
 21
225.361633
  0
LINE
  8
0
 10
109.699974
 20
224.472626
 11
116.200012
 21
224.472626
  0
LINE
  8
0
 10
105.699974
 20
224.472626
 11
105.699974
 21
225.361633
  0
LINE
  8
0
 10
109.699974
 20
224.472626
 11
109.699974
 21
225.361633
  0
LINE
  8
0
 10
105.699974
 20
213.264191
 11
109.699974
 21
213.264191
  0
LINE
  8
0
 10
102.699974
 20
214.324860
 11
105.699974
 21
214.324860
  0
LINE
  8
0
 10
102.699974
 20
215.472137
 11
105.699974
 21
215.472137
  0
LINE
  8
0
 10
118.649979
 20
228.820587
 11
118.649979
 21
239.922165
  0
LINE
  8
0
 10
117.699997
 20
233.760269
 11
117.699997
 21
225.949997
  0
LINE
  8
0
 10
172.649979
 20
236.147415
 11
174.149979
 21
236.147415
  0
LINE
  8
0
 10
143.149979
 20
232.472412
 11
143.149979
 21
237.472412
  0
LINE
  8
0
 10
140.649994
 20
232.472412
 11
143.149979
 21
232.472412
  0
LINE
  8
0
 10
143.149979
 20
232.972412
 11
169.649979
 21
232.972412
  0
LINE
  8
0
 10
143.149979
 20
236.972412
 11
169.649979
 21
236.972412
  0
LINE
  8
0
 10
140.649994
 20
237.472412
 11
143.149979
 21
237.472412
  0
LINE
  8
0
 10
169.649979
 20
232.972412
 11
169.649979
 21
236.972412
  0
LINE
  8
0
 10
169.649979
 20
235.272415
 11
172.649979
 21
235.272415
  0
LINE
  8
0
 10
169.649979
 20
234.672424
 11
172.649979
 21
234.672424
  0
LINE
  8
0
 10
169.649979
 20
236.272415
 11
172.649979
 21
236.272415
  0
LINE
  8
0
 10
169.649979
 20
233.672424
 11
172.649979
 21
233.672424
  0
LINE
  8
0
 10
172.649979
 20
233.672424
 11
172.649979
 21
234.672424
  0
LINE
  8
0
 10
172.649979
 20
235.272415
 11
172.649979
 21
236.272415
  0
LINE
  8
0
 10
172.649979
 20
233.797424
 11
174.149979
 21
233.797424
  0
LINE
  8
0
 10
172.649979
 20
233.922424
 11
174.149979
 21
233.922424
  0
LINE
  8
0
 10
172.649979
 20
234.047424
 11
174.149979
 21
234.047424
  0
LINE
  8
0
 10
172.649979
 20
234.172424
 11
174.149979
 21
234.172424
  0
LINE
  8
0
 10
172.649979
 20
234.297424
 11
174.149979
 21
234.297424
  0
LINE
  8
0
 10
172.649979
 20
234.422424
 11
174.149979
 21
234.422424
  0
LINE
  8
0
 10
172.649979
 20
234.547424
 11
174.149979
 21
234.547424
  0
LINE
  8
0
 10
172.649979
 20
235.397415
 11
174.149979
 21
235.397415
  0
LINE
  8
0
 10
172.649979
 20
235.522415
 11
174.149979
 21
235.522415
  0
LINE
  8
0
 10
172.649979
 20
235.647415
 11
174.149979
 21
235.647415
  0
LINE
  8
0
 10
172.649979
 20
235.772415
 11
174.149979
 21
235.772415
  0
LINE
  8
0
 10
172.649979
 20
235.897415
 11
174.149979
 21
235.897415
  0
LINE
  8
0
 10
172.649979
 20
236.022415
 11
174.149979
 21
236.022415
  0
LINE
  8
0
 10
119.199997
 20
226.628540
 11
119.199997
 21
225.949997
  0
LINE
  8
0
 10
97.500000
 20
235.000000
 11
97.500000
 21
125.000000
  0
LINE
  8
0
 10
102.000000
 20
225.000000
 11
102.000000
 21
223.640991
  0
LINE
  8
0
 10
101.177338
 20
136.359009
 11
102.699974
 21
136.359009
  0
LINE
  8
0
 10
102.000000
 20
171.000000
 11
110.000008
 21
171.000000
  0
LINE
  8
0
 10
102.000000
 20
189.000000
 11
110.000008
 21
189.000000
  0
LINE
  8
0
 10
101.177429
 20
223.640991
 11
102.699974
 21
223.640991
  0
LINE
  8
0
 10
97.499878
 20
125.000046
 11
101.999878
 21
135.000046
  0
LINE
  8
0
 10
97.499878
 20
234.999954
 11
101.999878
 21
224.999954
  0
LINE
  8
0
 10
102.000000
 20
214.411758
 11
102.000000
 21
189.000000
  0
LINE
  8
0
 10
102.000000
 20
171.000000
 11
102.000000
 21
145.588242
  0
LINE
  8
0
 10
102.000000
 20
136.359009
 11
102.000000
 21
135.000000
  0
ARC
  8
0
 10
164.121460
 20
169.642853
 40
3.578559
 50
330.956329
 51
29.043451
  0
ARC
  8
0
 10
158.353210
 20
174.245377
 40
9.346802
 50
342.148743
 51
17.851261
  0
ARC
  8
0
 10
166.061386
 20
178.238556
 40
1.638638
 50
316.500916
 51
43.499054
  0
ARC
  8
0
 10
160.815842
 20
189.013550
 40
6.884176
 50
339.168823
 51
20.831175
  0
ARC
  8
0
 10
160.256485
 20
184.016586
 40
7.443525
 50
339.975372
 51
20.024860
  0
ARC
  8
0
 10
151.949844
 20
155.251251
 40
14.450159
 50
335.510284
 51
24.489626
  0
ARC
  8
0
 10
151.949860
 20
204.748718
 40
14.450159
 50
335.510284
 51
24.489706
  0
ARC
  8
0
 10
163.050018
 20
164.950699
 40
4.099995
 50
299.999847
 51
0.000000
  0
ARC
  8
0
 10
163.050018
 20
165.049286
 40
4.099991
 50
0.000000
 51
44.159069
  0
ARC
  8
0
 10
163.050018
 20
194.950699
 40
4.099995
 50
301.680756
 51
0.000000
  0
ARC
  8
0
 10
163.050018
 20
195.049286
 40
4.099991
 50
0.000000
 51
60.000153
  0
CIRCLE
  8
0
 10
127.700012
 20
180.000000
 40
2.700000
  0
CIRCLE
  8
0
 10
139.149979
 20
128.380127
 40
0.010000
  0
ARC
  8
0
 10
126.449982
 20
126.931747
 40
0.500000
 50
90.000000
 51
180.000000
  0
ARC
  8
0
 10
133.849991
 20
126.931747
 40
0.500000
 50
0.000000
 51
90.000000
  0
ARC
  8
0
 10
134.649979
 20
125.517532
 40
0.500000
 50
0.000000
 51
90.000000
  0
ARC
  8
0
 10
125.649994
 20
125.517532
 40
0.500000
 50
90.000000
 51
180.000000
  0
ARC
  8
0
 10
125.649994
 20
116.118042
 40
0.500000
 50
180.000000
 51
270.000000
  0
ARC
  8
0
 10
134.649979
 20
116.118042
 40
0.500000
 50
270.000000
 51
0.000000
  0
ARC
  8
0
 10
133.849991
 20
115.269501
 40
0.500000
 50
270.000000
 51
0.000000
  0
ARC
  8
0
 10
126.449982
 20
115.269501
 40
0.500000
 50
180.000000
 51
270.000000
  0
ARC
  8
0
 10
126.449982
 20
122.133484
 40
0.500000
 50
180.000000
 51
270.000000
  0
ARC
  8
0
 10
118.699997
 20
133.310806
 40
1.000000
 50
180.000000
 51
270.000000
  0
ARC
  8
0
 10
118.699997
 20
126.239731
 40
1.000000
 50
180.000000
 51
267.132965
  0
CIRCLE
  8
0
 10
139.149979
 20
231.619873
 40
0.010000
  0
ARC
  8
0
 10
126.449982
 20
233.068253
 40
0.500000
 50
180.000000
 51
270.000000
  0
ARC
  8
0
 10
133.849991
 20
233.068253
 40
0.500000
 50
270.000000
 51
0.000000
  0
ARC
  8
0
 10
134.649979
 20
234.482468
 40
0.500000
 50
270.000000
 51
0.000000
  0
ARC
  8
0
 10
125.649994
 20
234.482468
 40
0.500000
 50
180.000000
 51
270.000000
  0
ARC
  8
0
 10
125.649994
 20
243.881958
 40
0.500000
 50
90.000000
 51
180.000000
  0
ARC
  8
0
 10
134.649979
 20
243.881958
 40
0.500000
 50
0.000000
 51
90.000000
  0
ARC
  8
0
 10
133.849991
 20
244.730499
 40
0.500000
 50
0.000000
 51
90.000000
  0
ARC
  8
0
 10
126.449982
 20
244.730499
 40
0.500000
 50
90.000000
 51
180.000000
  0
ARC
  8
0
 10
126.449982
 20
237.866516
 40
0.500000
 50
90.000000
 51
180.000000
  0
ARC
  8
0
 10
118.699997
 20
226.689194
 40
1.000000
 50
90.000000
 51
180.000000
  0
ARC
  8
0
 10
118.699997
 20
233.760269
 40
1.000000
 50
92.867035
 51
180.000000
  0
ARC
  8
0
 10
101.177429
 20
222.641586
 40
1.000000
 50
90.000000
 51
174.261353
  0
ARC
  8
0
 10
101.177338
 20
137.359375
 40
0.999998
 50
185.641129
 51
270.000000
  0
ARC
  8
0
 10
126.990097
 20
143.230438
 40
1.309903
 50
345.893341
 51
14.106659
  0
ARC
  8
0
 10
126.647675
 20
143.104904
 40
1.673033
 50
15.418097
 51
51.388138
  0
ARC
  8
0
 10
125.700005
 20
141.720383
 40
3.348554
 50
53.501736
 51
126.498260
  0
ARC
  8
0
 10
124.752335
 20
143.104904
 40
1.673037
 50
128.611862
 51
164.581970
  0
ARC
  8
0
 10
124.409912
 20
143.230438
 40
1.309910
 50
165.893417
 51
194.106583
  0
ARC
  8
0
 10
124.752335
 20
143.355972
 40
1.673041
 50
195.418030
 51
231.388138
  0
ARC
  8
0
 10
125.700005
 20
144.740494
 40
3.348554
 50
233.501740
 51
306.498260
  0
ARC
  8
0
 10
126.647675
 20
143.355972
 40
1.673037
 50
308.611847
 51
344.581909
  0
ARC
  8
0
 10
126.990097
 20
216.769562
 40
1.309918
 50
345.893494
 51
14.106497
  0
ARC
  8
0
 10
126.647675
 20
216.644028
 40
1.673048
 50
15.417957
 51
51.387932
  0
ARC
  8
0
 10
125.700020
 20
215.259521
 40
3.348537
 50
53.501686
 51
126.498314
  0
ARC
  8
0
 10
124.752365
 20
216.644028
 40
1.673042
 50
128.612061
 51
164.582047
  0
ARC
  8
0
 10
124.409943
 20
216.769562
 40
1.309918
 50
165.893509
 51
194.106491
  0
ARC
  8
0
 10
124.752365
 20
216.895096
 40
1.673048
 50
195.417953
 51
231.387939
  0
ARC
  8
0
 10
125.700020
 20
218.279602
 40
3.348537
 50
233.501678
 51
306.498322
  0
ARC
  8
0
 10
126.647675
 20
216.895096
 40
1.673042
 50
308.612061
 51
344.582031
  0
ARC
  8
0
 10
167.250015
 20
182.939301
 40
1.672821
 50
270.000000
 51
281.891907
  0
ARC
  8
0
 10
167.561691
 20
181.497696
 40
0.198087
 50
279.600189
 51
311.587006
  0
ARC
  8
0
 10
167.674316
 20
181.366989
 40
0.025698
 50
317.213684
 51
42.786308
  0
ARC
  8
0
 10
167.561691
 20
181.236282
 40
0.198092
 50
48.413010
 51
80.399818
  0
ARC
  8
0
 10
167.250015
 20
179.794678
 40
1.672819
 50
78.108086
 51
90.000000
  0
ARC
  8
0
 10
130.149963
 20
121.640869
 40
4.532881
 50
245.098053
 51
294.888336
  0
ARC
  8
0
 10
131.613785
 20
118.239357
 40
1.486211
 50
354.668640
 51
14.106581
  0
ARC
  8
0
 10
131.225250
 20
118.096924
 40
1.898239
 50
15.417928
 51
51.388382
  0
ARC
  8
0
 10
130.149994
 20
116.525978
 40
3.799348
 50
53.502098
 51
126.497902
  0
ARC
  8
0
 10
129.074738
 20
118.096924
 40
1.898234
 50
128.611618
 51
164.582230
  0
ARC
  8
0
 10
128.686203
 20
118.239357
 40
1.486200
 50
165.893631
 51
185.354446
  0
ARC
  8
0
 10
122.368668
 20
122.906265
 40
0.425080
 50
345.893921
 51
14.107077
  0
ARC
  8
0
 10
122.257545
 20
122.865532
 40
0.542923
 50
15.417959
 51
51.389107
  0
ARC
  8
0
 10
121.949997
 20
122.416199
 40
1.086690
 50
53.502678
 51
126.497887
  0
ARC
  8
0
 10
121.642448
 20
122.865524
 40
0.542927
 50
128.611526
 51
164.582047
  0
ARC
  8
0
 10
121.531326
 20
122.906265
 40
0.425080
 50
165.893921
 51
194.107071
  0
ARC
  8
0
 10
121.642448
 20
122.946999
 40
0.542923
 50
195.417953
 51
231.389099
  0
ARC
  8
0
 10
121.949997
 20
123.396332
 40
1.086690
 50
233.502686
 51
306.497894
  0
ARC
  8
0
 10
122.257545
 20
122.947006
 40
0.542927
 50
308.611511
 51
344.582031
  0
ARC
  8
0
 10
106.880264
 20
139.062927
 40
2.130286
 50
176.237640
 51
191.772858
  0
ARC
  8
0
 10
107.097839
 20
139.129395
 40
2.356935
 50
192.275497
 51
225.305038
  0
ARC
  8
0
 10
107.699982
 20
139.862473
 40
3.302728
 50
226.824173
 51
305.007172
  0
ARC
  8
0
 10
129.405670
 20
130.401581
 40
0.755707
 50
180.000000
 51
194.105835
  0
ARC
  8
0
 10
129.603226
 20
130.473999
 40
0.965197
 50
195.417099
 51
231.388718
  0
ARC
  8
0
 10
130.149979
 20
131.272812
 40
1.931886
 50
233.502457
 51
306.497528
  0
ARC
  8
0
 10
130.696732
 20
130.473999
 40
0.965189
 50
308.611298
 51
344.582031
  0
ARC
  8
0
 10
130.894287
 20
130.401581
 40
0.755700
 50
345.893036
 51
0.000000
  0
ARC
  8
0
 10
107.699966
 20
137.349533
 40
3.799344
 50
60.138840
 51
126.497581
  0
ARC
  8
0
 10
106.624718
 20
138.920486
 40
1.898235
 50
128.611298
 51
164.581787
  0
ARC
  8
0
 10
106.236191
 20
139.062912
 40
1.486213
 50
165.892853
 51
185.353806
  0
ARC
  8
0
 10
122.694298
 20
122.906265
 40
0.755691
 50
345.893463
 51
14.106531
  0
ARC
  8
0
 10
122.496735
 20
122.833839
 40
0.965201
 50
15.417976
 51
51.388287
  0
ARC
  8
0
 10
121.949989
 20
122.035042
 40
1.931884
 50
53.502144
 51
126.497856
  0
ARC
  8
0
 10
121.403244
 20
122.833839
 40
0.965204
 50
128.611710
 51
164.582031
  0
ARC
  8
0
 10
121.205681
 20
122.906265
 40
0.755691
 50
165.893463
 51
194.106537
  0
ARC
  8
0
 10
121.403244
 20
122.978691
 40
0.965201
 50
195.417969
 51
231.388290
  0
ARC
  8
0
 10
121.949989
 20
123.777489
 40
1.931884
 50
233.502136
 51
306.497864
  0
ARC
  8
0
 10
122.496735
 20
122.978691
 40
0.965204
 50
308.611725
 51
344.582031
  0
ARC
  8
0
 10
107.699928
 20
142.464417
 40
4.532871
 50
245.098099
 51
294.888519
  0
ARC
  8
0
 10
129.330292
 20
118.239349
 40
2.130287
 50
176.237030
 51
191.773209
  0
ARC
  8
0
 10
129.547852
 20
118.305817
 40
2.356930
 50
192.275894
 51
225.305573
  0
ARC
  8
0
 10
130.149994
 20
119.038918
 40
3.302724
 50
226.824829
 51
313.174988
  0
ARC
  8
0
 10
130.752136
 20
118.305817
 40
2.356934
 50
314.694183
 51
347.723724
  0
ARC
  8
0
 10
130.969696
 20
118.239349
 40
2.130298
 50
348.226379
 51
356.237244
  0
ARC
  8
0
 10
122.694298
 20
237.093735
 40
0.755693
 50
345.892914
 51
14.105970
  0
ARC
  8
0
 10
122.496735
 20
237.021317
 40
0.965197
 50
15.417103
 51
51.388004
  0
ARC
  8
0
 10
121.949989
 20
236.222504
 40
1.931890
 50
53.502277
 51
126.497726
  0
ARC
  8
0
 10
121.403244
 20
237.021317
 40
0.965198
 50
128.612000
 51
164.582031
  0
ARC
  8
0
 10
121.205681
 20
237.093735
 40
0.755693
 50
165.892914
 51
194.105972
  0
ARC
  8
0
 10
121.403244
 20
237.166153
 40
0.965197
 50
195.417099
 51
231.388000
  0
ARC
  8
0
 10
121.949989
 20
237.964966
 40
1.931890
 50
233.502274
 51
306.497711
  0
ARC
  8
0
 10
122.496735
 20
237.166153
 40
0.965198
 50
308.612000
 51
344.582031
  0
ARC
  8
0
 10
107.699928
 20
217.535583
 40
4.532882
 50
65.111549
 51
114.901825
  0
ARC
  8
0
 10
106.236191
 20
220.937088
 40
1.486212
 50
174.646194
 51
194.107147
  0
ARC
  8
0
 10
106.624718
 20
221.079514
 40
1.898234
 50
195.418213
 51
231.388702
  0
ARC
  8
0
 10
107.699966
 20
222.650467
 40
3.799351
 50
233.502426
 51
299.861145
  0
ARC
  8
0
 10
130.969696
 20
241.760651
 40
2.130294
 50
3.762753
 51
11.773612
  0
ARC
  8
0
 10
130.752136
 20
241.694183
 40
2.356934
 50
12.276262
 51
45.305832
  0
ARC
  8
0
 10
130.149994
 20
240.961090
 40
3.302730
 50
46.824921
 51
133.175262
  0
ARC
  8
0
 10
129.547852
 20
241.694183
 40
2.356923
 50
134.694427
 51
167.724106
  0
ARC
  8
0
 10
129.330292
 20
241.760651
 40
2.130295
 50
168.226791
 51
183.762756
  0
ARC
  8
0
 10
130.149963
 20
238.359131
 40
4.532865
 50
65.111557
 51
114.901817
  0
ARC
  8
0
 10
128.686203
 20
241.760651
 40
1.486205
 50
174.646164
 51
194.106659
  0
ARC
  8
0
 10
129.074738
 20
241.903076
 40
1.898229
 50
195.417770
 51
231.388245
  0
ARC
  8
0
 10
130.149994
 20
243.474030
 40
3.799348
 50
233.502106
 51
306.497894
  0
ARC
  8
0
 10
131.225250
 20
241.903076
 40
1.898228
 50
308.611755
 51
344.582306
  0
ARC
  8
0
 10
131.613785
 20
241.760651
 40
1.486209
 50
345.893433
 51
5.330769
  0
ARC
  8
0
 10
122.368668
 20
237.093735
 40
0.425082
 50
345.892914
 51
14.105082
  0
ARC
  8
0
 10
122.257545
 20
237.052994
 40
0.542921
 50
15.417183
 51
51.388477
  0
ARC
  8
0
 10
121.949997
 20
236.603668
 40
1.086688
 50
53.502117
 51
126.497559
  0
ARC
  8
0
 10
121.642448
 20
237.052994
 40
0.542922
 50
128.610901
 51
164.581268
  0
ARC
  8
0
 10
121.531326
 20
237.093735
 40
0.425082
 50
165.892929
 51
194.105087
  0
ARC
  8
0
 10
121.642448
 20
237.134476
 40
0.542921
 50
195.417191
 51
231.388474
  0
ARC
  8
0
 10
121.949997
 20
237.583801
 40
1.086688
 50
233.502121
 51
306.497559
  0
ARC
  8
0
 10
122.257545
 20
237.134476
 40
0.542922
 50
308.610901
 51
344.581268
  0
ARC
  8
0
 10
107.699982
 20
220.137527
 40
3.302725
 50
54.992931
 51
133.175827
  0
ARC
  8
0
 10
107.097839
 20
220.870605
 40
2.356945
 50
134.694962
 51
167.724503
  0
ARC
  8
0
 10
106.880264
 20
220.937073
 40
2.130284
 50
168.227142
 51
183.762360
  0
ARC
  8
0
 10
130.894287
 20
229.598419
 40
0.755692
 50
0.000000
 51
14.106952
  0
ARC
  8
0
 10
130.696732
 20
229.526001
 40
0.965201
 50
15.417976
 51
51.388714
  0
ARC
  8
0
 10
130.149979
 20
228.727188
 40
1.931886
 50
53.502457
 51
126.497543
  0
ARC
  8
0
 10
129.603226
 20
229.526001
 40
0.965189
 50
128.611282
 51
164.582901
  0
ARC
  8
0
 10
129.405670
 20
229.598419
 40
0.755696
 50
165.894165
 51
180.000000
  0
POLYLINE
  8
0
 66
     1
  0
VERTEX
  8
0
 10
100.182526
 20
222.742355
  0
VERTEX
  8
0
 10
100.168076
 20
222.490585
  0
VERTEX
  8
0
 10
100.210785
 20
222.044891
  0
VERTEX
  8
0
 10
100.295837
 20
221.295914
  0
VERTEX
  8
0
 10
100.390579
 20
220.560074
  0
VERTEX
  8
0
 10
100.495644
 20
219.889130
  0
VERTEX
  8
0
 10
100.648018
 20
219.121017
  0
VERTEX
  8
0
 10
100.843040
 20
218.292267
  0
VERTEX
  8
0
 10
101.023521
 20
217.587463
  0
VERTEX
  8
0
 10
101.215187
 20
216.886642
  0
VERTEX
  8
0
 10
101.410492
 20
216.216354
  0
VERTEX
  8
0
 10
101.694824
 20
215.310745
  0
VERTEX
  8
0
 10
102.000000
 20
214.411758
  0
SEQEND
  0
POLYLINE
  8
0
 66
     1
  0
VERTEX
  8
0
 10
102.000000
 20
145.588242
  0
VERTEX
  8
0
 10
101.699394
 20
144.704422
  0
VERTEX
  8
0
 10
101.410492
 20
143.783646
  0
VERTEX
  8
0
 10
101.205162
 20
143.076721
  0
VERTEX
  8
0
 10
101.011597
 20
142.366226
  0
VERTEX
  8
0
 10
100.843040
 20
141.707733
  0
VERTEX
  8
0
 10
100.661667
 20
140.943512
  0
VERTEX
  8
0
 10
100.495644
 20
140.110870
  0
VERTEX
  8
0
 10
100.377541
 20
139.344925
  0
VERTEX
  8
0
 10
100.280190
 20
138.572830
  0
VERTEX
  8
0
 10
100.210785
 20
137.955109
  0
VERTEX
  8
0
 10
100.178101
 20
137.608337
  0
VERTEX
  8
0
 10
100.182152
 20
137.261368
  0
SEQEND
  0
POLYLINE
  8
0
 66
     1
  0
VERTEX
  8
0
 10
102.000000
 20
189.000000
  0
VERTEX
  8
0
 10
101.882896
 20
188.164841
  0
VERTEX
  8
0
 10
101.669693
 20
187.392990
  0
VERTEX
  8
0
 10
101.422928
 20
186.835052
  0
VERTEX
  8
0
 10
101.127441
 20
186.195343
  0
VERTEX
  8
0
 10
100.897240
 20
185.557068
  0
VERTEX
  8
0
 10
100.725121
 20
184.898163
  0
VERTEX
  8
0
 10
100.585190
 20
184.199265
  0
VERTEX
  8
0
 10
100.454620
 20
183.412674
  0
VERTEX
  8
0
 10
100.348427
 20
182.624512
  0
VERTEX
  8
0
 10
100.273346
 20
181.883820
  0
VERTEX
  8
0
 10
100.217484
 20
180.943130
  0
VERTEX
  8
0
 10
100.199989
 20
180.000000
  0
VERTEX
  8
0
 10
100.215187
 20
179.084946
  0
VERTEX
  8
0
 10
100.273346
 20
178.116180
  0
VERTEX
  8
0
 10
100.352936
 20
177.332413
  0
VERTEX
  8
0
 10
100.459557
 20
176.551086
  0
VERTEX
  8
0
 10
100.585190
 20
175.800735
  0
VERTEX
  8
0
 10
100.732384
 20
175.095749
  0
VERTEX
  8
0
 10
100.917145
 20
174.401352
  0
VERTEX
  8
0
 10
101.127441
 20
173.804657
  0
VERTEX
  8
0
 10
101.397469
 20
173.227356
  0
VERTEX
  8
0
 10
101.669693
 20
172.607010
  0
VERTEX
  8
0
 10
101.890060
 20
171.816116
  0
VERTEX
  8
0
 10
102.000000
 20
171.000000
  0
SEQEND
  0
POINT
  8
0
 10
146.499985
 20
4.000000
  0
POINT
  8
0
 10
115.000000
 20
4.000000
  0
LINE
  8
0
 10
122.999985
 20
14.761001
 11
122.999985
 21
-21.102291
  0
LINE
  8
0
 10
136.499985
 20
43.353085
 11
144.499985
 21
43.353085
  0
LINE
  8
0
 10
134.499985
 20
34.354065
 11
146.499985
 21
34.354065
  0
LINE
  8
0
 10
136.499985
 20
23.445438
 11
144.499985
 21
23.445438
  0
LINE
  8
0
 10
122.999985
 20
-21.102291
 11
146.499985
 21
-21.102291
  0
LINE
  8
0
 10
122.999985
 20
2.939340
 11
146.499985
 21
2.939340
  0
LINE
  8
0
 10
122.999985
 20
5.944287
 11
129.504547
 21
5.944287
  0
LINE
  8
0
 10
148.679016
 20
45.047726
 11
147.699982
 21
45.047726
  0
LINE
  8
0
 10
147.699982
 20
49.396252
 11
132.799988
 21
49.396252
  0
LINE
  8
0
 10
147.699982
 20
42.305084
 11
146.499985
 21
42.305084
  0
LINE
  8
0
 10
133.999985
 20
44.800060
 11
125.299980
 21
44.800060
  0
LINE
  8
0
 10
126.499985
 20
49.396252
 11
125.299980
 21
49.396252
  0
LINE
  8
0
 10
132.799988
 20
45.648590
 11
126.499985
 21
45.648590
  0
LINE
  8
0
 10
132.799988
 20
49.396252
 11
126.499985
 21
49.396252
  0
LINE
  8
0
 10
134.499985
 20
48.396252
 11
134.499985
 21
11.630859
  0
LINE
  8
0
 10
146.499985
 20
48.396252
 11
146.499985
 21
-21.102289
  0
LINE
  8
0
 10
125.299980
 20
50.628525
 11
125.299980
 21
44.800060
  0
LINE
  8
0
 10
126.499985
 20
51.229576
 11
126.499985
 21
45.648590
  0
LINE
  8
0
 10
132.799988
 20
50.769981
 11
132.799988
 21
45.648590
  0
LINE
  8
0
 10
147.699982
 20
56.972420
 11
147.699982
 21
42.305084
  0
LINE
  8
0
 10
116.199997
 20
12.000000
 11
120.699997
 21
12.000000
  0
LINE
  8
0
 10
120.699997
 20
38.000065
 11
134.499985
 21
38.000065
  0
LINE
  8
0
 10
120.699997
 20
69.762009
 11
162.699997
 21
69.762009
  0
LINE
  8
0
 10
120.699997
 20
99.000061
 11
162.699997
 21
99.000061
  0
LINE
  8
0
 10
162.699997
 20
90.632889
 11
167.249985
 21
90.632889
  0
LINE
  8
0
 10
162.699997
 20
86.021973
 11
167.249985
 21
86.021973
  0
LINE
  8
0
 10
162.699997
 20
80.707428
 11
167.249985
 21
80.707428
  0
LINE
  8
0
 10
162.699997
 20
80.003815
 11
167.424942
 21
80.003815
  0
LINE
  8
0
 10
167.699997
 20
87.818359
 11
174.399994
 21
87.818359
  0
LINE
  8
0
 10
167.699997
 20
82.818359
 11
174.399994
 21
82.818359
  0
LINE
  8
0
 10
162.699997
 20
38.584335
 11
164.699997
 21
38.584335
  0
LINE
  8
0
 10
165.944565
 20
63.334335
 11
178.499985
 21
63.334335
  0
LINE
  8
0
 10
164.699997
 20
40.834335
 11
178.500000
 21
40.834335
  0
LINE
  8
0
 10
120.699997
 20
99.039062
 11
120.699997
 21
63.922169
  0
LINE
  8
0
 10
162.699997
 20
99.000061
 11
162.699997
 21
60.972420
  0
LINE
  8
0
 10
167.699997
 20
88.327438
 11
167.699997
 21
80.355629
  0
LINE
  8
0
 10
174.699997
 20
87.518372
 11
174.699997
 21
83.118362
  0
LINE
  8
0
 10
164.699997
 20
56.972420
 11
164.699997
 21
38.584335
  0
LINE
  8
0
 10
178.699997
 20
63.134346
 11
178.699997
 21
41.034344
  0
LINE
  8
0
 10
174.400024
 20
87.818413
 11
174.700027
 21
87.518417
  0
LINE
  8
0
 10
174.399994
 20
82.818390
 11
174.699997
 21
83.118378
  0
LINE
  8
0
 10
174.399994
 20
87.818367
 11
174.399994
 21
82.818367
  0
LINE
  8
0
 10
174.649979
 20
83.068359
 11
167.699997
 21
83.068359
  0
LINE
  8
0
 10
174.650024
 20
87.568359
 11
167.699997
 21
87.568359
  0
LINE
  8
0
 10
178.499924
 20
63.334270
 11
178.699921
 21
63.134270
  0
LINE
  8
0
 10
178.499985
 20
40.834343
 11
178.699997
 21
41.034348
  0
LINE
  8
0
 10
116.199989
 20
99.000000
 11
120.699997
 21
99.000000
  0
LINE
  8
0
 10
116.199989
 20
69.800003
 11
120.699997
 21
69.800003
  0
LINE
  8
0
 10
148.999496
 20
63.330345
 11
148.999496
 21
63.040779
  0
LINE
  8
0
 10
154.199493
 20
63.326984
 11
154.199493
 21
63.044140
  0
LINE
  8
0
 10
155.653839
 20
60.972416
 11
155.599579
 21
64.769775
  0
LINE
  8
0
 10
141.700348
 20
67.640656
 11
151.751160
 21
67.567551
  0
LINE
  8
0
 10
141.700348
 20
66.226440
 11
151.751144
 21
66.153351
  0
LINE
  8
0
 10
165.099991
 20
48.484337
 11
165.099991
 21
55.684338
  0
LINE
  8
0
 10
167.149994
 20
52.035042
 11
167.149994
 21
52.133636
  0
LINE
  8
0
 10
165.099991
 20
55.684338
 11
164.699997
 21
55.684338
  0
LINE
  8
0
 10
165.099991
 20
48.484337
 11
164.699997
 21
48.484337
  0
LINE
  8
0
 10
165.099991
 20
60.943554
 11
165.099991
 21
72.923615
  0
LINE
  8
0
 10
165.100006
 20
72.923645
 11
162.699997
 21
73.133614
  0
LINE
  8
0
 10
109.599991
 20
94.413475
 11
109.599991
 21
84.786522
  0
LINE
  8
0
 10
109.999992
 20
94.599998
 11
109.999992
 21
84.599998
  0
LINE
  8
0
 10
109.999992
 20
94.599998
 11
115.599991
 21
94.599998
  0
LINE
  8
0
 10
109.999992
 20
84.599998
 11
115.599991
 21
84.599998
  0
LINE
  8
0
 10
109.599976
 20
94.413483
 11
109.999969
 21
94.600006
  0
LINE
  8
0
 10
109.600006
 20
84.786537
 11
110.000000
 21
84.600021
  0
LINE
  8
0
 10
109.999992
 20
92.599998
 11
113.045288
 21
92.599998
  0
LINE
  8
0
 10
109.999992
 20
90.599998
 11
111.890587
 21
90.599998
  0
LINE
  8
0
 10
109.999992
 20
88.599998
 11
110.735886
 21
88.599998
  0
LINE
  8
0
 10
109.599991
 20
74.613480
 11
109.599991
 21
64.986526
  0
LINE
  8
0
 10
109.999992
 20
74.800003
 11
109.999992
 21
64.800003
  0
LINE
  8
0
 10
109.999992
 20
74.800003
 11
115.599991
 21
74.800003
  0
LINE
  8
0
 10
109.999992
 20
64.800003
 11
115.599991
 21
64.800003
  0
LINE
  8
0
 10
109.599976
 20
74.613495
 11
109.999985
 21
74.800026
  0
LINE
  8
0
 10
109.600006
 20
64.986572
 11
110.000008
 21
64.800049
  0
LINE
  8
0
 10
109.999992
 20
72.800003
 11
113.045288
 21
72.800003
  0
LINE
  8
0
 10
109.999992
 20
70.800003
 11
111.890587
 21
70.800003
  0
LINE
  8
0
 10
109.999992
 20
68.800003
 11
110.735886
 21
68.800003
  0
LINE
  8
0
 10
133.199997
 20
16.240784
 11
133.199997
 21
31.681213
  0
LINE
  8
0
 10
132.599991
 20
15.960999
 11
132.599991
 21
31.960999
  0
LINE
  8
0
 10
132.599991
 20
15.961000
 11
123.199997
 21
15.961000
  0
LINE
  8
0
 10
132.600006
 20
31.961000
 11
123.199997
 21
31.961000
  0
LINE
  8
0
 10
133.199982
 20
16.240778
 11
132.599976
 21
15.960991
  0
LINE
  8
0
 10
133.199997
 20
31.681225
 11
132.600006
 21
31.961008
  0
LINE
  8
0
 10
132.599991
 20
17.961000
 11
126.704697
 21
17.961000
  0
LINE
  8
0
 10
132.599991
 20
19.961000
 11
127.859390
 21
19.961000
  0
LINE
  8
0
 10
132.599991
 20
21.961000
 11
129.014099
 21
21.961000
  0
LINE
  8
0
 10
132.599991
 20
23.961000
 11
130.168808
 21
23.961000
  0
LINE
  8
0
 10
132.599991
 20
25.961000
 11
131.323502
 21
25.961000
  0
LINE
  8
0
 10
132.599991
 20
27.961000
 11
132.478195
 21
27.961000
  0
LINE
  8
0
 10
115.599998
 20
94.849998
 11
115.599998
 21
84.349998
  0
LINE
  8
0
 10
123.199997
 20
33.160999
 11
123.199997
 21
14.761001
  0
LINE
  8
0
 10
123.199997
 20
33.160999
 11
120.699997
 21
33.160999
  0
LINE
  8
0
 10
123.199997
 20
14.761001
 11
120.699997
 21
14.761001
  0
LINE
  8
0
 10
115.599991
 20
75.050003
 11
116.199997
 21
75.050003
  0
LINE
  8
0
 10
115.599991
 20
64.550003
 11
116.199997
 21
64.550003
  0
LINE
  8
0
 10
115.599991
 20
94.849998
 11
116.199997
 21
94.849998
  0
LINE
  8
0
 10
115.599991
 20
84.349998
 11
116.199997
 21
84.349998
  0
LINE
  8
0
 10
115.599998
 20
75.050003
 11
115.599998
 21
64.550003
  0
LINE
  8
0
 10
120.699997
 20
22.517626
 11
123.199997
 21
23.961000
  0
LINE
  8
0
 10
120.699997
 20
23.672329
 11
123.199997
 21
25.115704
  0
LINE
  8
0
 10
116.199997
 20
99.000000
 11
116.199997
 21
48.472630
  0
LINE
  8
0
 10
109.999992
 20
60.499996
 11
109.999992
 21
48.472630
  0
LINE
  8
0
 10
109.999992
 20
-52.500004
 11
116.199997
 21
-52.500004
  0
LINE
  8
0
 10
109.999992
 20
60.499996
 11
116.199997
 21
60.499996
  0
LINE
  8
0
 10
126.449982
 20
60.952312
 11
133.849976
 21
60.952312
  0
LINE
  8
0
 10
125.649994
 20
62.932217
 11
134.649979
 21
62.932217
  0
LINE
  8
0
 10
125.649994
 20
68.381958
 11
134.649979
 21
68.381958
  0
LINE
  8
0
 10
126.449982
 20
69.230499
 11
133.849976
 21
69.230499
  0
LINE
  8
0
 10
126.449982
 20
56.568256
 11
133.849976
 21
56.568256
  0
LINE
  8
0
 10
134.349976
 20
57.068256
 11
134.349976
 21
61.866520
  0
LINE
  8
0
 10
135.149979
 20
58.482464
 11
135.149979
 21
67.881958
  0
LINE
  8
0
 10
125.949982
 20
57.068256
 11
125.949982
 21
61.866520
  0
LINE
  8
0
 10
125.149994
 20
58.482468
 11
125.149994
 21
67.881958
  0
LINE
  8
0
 10
126.449982
 20
62.366520
 11
133.849976
 21
62.366520
  0
LINE
  8
0
 10
124.649979
 20
57.982468
 11
125.949982
 21
57.982468
  0
LINE
  8
0
 10
125.949982
 20
68.381958
 11
125.949982
 21
68.730499
  0
LINE
  8
0
 10
134.349976
 20
68.381958
 11
134.349976
 21
68.730499
  0
LINE
  8
0
 10
134.349976
 20
57.982468
 11
135.649994
 21
57.982468
  0
LINE
  8
0
 10
118.649979
 20
58.265312
 11
124.649979
 21
58.265312
  0
LINE
  8
0
 10
135.649994
 20
57.982468
 11
135.649994
 21
63.922165
  0
LINE
  8
0
 10
124.649979
 20
57.982468
 11
124.649979
 21
63.922169
  0
LINE
  8
0
 10
133.649994
 20
50.769978
 11
133.649994
 21
56.568256
  0
LINE
  8
0
 10
126.649994
 20
50.769981
 11
126.649994
 21
56.568256
  0
LINE
  8
0
 10
135.649994
 20
58.265312
 11
140.649994
 21
58.265312
  0
LINE
  8
0
 10
131.650024
 20
53.598404
 11
131.650024
 21
50.769981
  0
LINE
  8
0
 10
128.649979
 20
53.598412
 11
128.649979
 21
50.769981
  0
LINE
  8
0
 10
126.649994
 20
50.769981
 11
128.649979
 21
50.769981
  0
LINE
  8
0
 10
131.649994
 20
50.769981
 11
133.649994
 21
50.769981
  0
LINE
  8
0
 10
140.649994
 20
52.820587
 11
140.649994
 21
63.922165
  0
LINE
  8
0
 10
118.649979
 20
63.922169
 11
124.649979
 21
63.922169
  0
LINE
  8
0
 10
124.649979
 20
63.639324
 11
125.149994
 21
63.639324
  0
LINE
  8
0
 10
135.149979
 20
63.639324
 11
135.649994
 21
63.639324
  0
LINE
  8
0
 10
135.649994
 20
63.922169
 11
140.649994
 21
63.922169
  0
LINE
  8
0
 10
118.649979
 20
52.820587
 11
126.649994
 21
52.820587
  0
LINE
  8
0
 10
128.649979
 20
52.396324
 11
131.649979
 21
52.396324
  0
LINE
  8
0
 10
128.649979
 20
51.335670
 11
131.649994
 21
51.335670
  0
LINE
  8
0
 10
128.649979
 20
52.820587
 11
131.649979
 21
52.820587
  0
LINE
  8
0
 10
133.649994
 20
52.820587
 11
140.649994
 21
52.820587
  0
LINE
  8
0
 10
133.649994
 20
52.396324
 11
140.199982
 21
52.396324
  0
LINE
  8
0
 10
133.649994
 20
51.335670
 11
140.199982
 21
51.335670
  0
LINE
  8
0
 10
140.199982
 20
51.335670
 11
140.199982
 21
52.820587
  0
LINE
  8
0
 10
125.650002
 20
51.689182
 11
126.649986
 21
52.396282
  0
LINE
  8
0
 10
125.649979
 20
50.628540
 11
126.649971
 21
51.335636
  0
LINE
  8
0
 10
119.199997
 20
50.628540
 11
125.649994
 21
50.628540
  0
LINE
  8
0
 10
118.699997
 20
51.689194
 11
125.649994
 21
51.689194
  0
LINE
  8
0
 10
125.649994
 20
50.628540
 11
125.649994
 21
51.689194
  0
LINE
  8
0
 10
104.199974
 20
40.330059
 11
105.699974
 21
40.330059
  0
LINE
  8
0
 10
102.699974
 20
41.401554
 11
105.699974
 21
41.401554
  0
LINE
  8
0
 10
102.699974
 20
48.472630
 11
105.699974
 21
48.472630
  0
LINE
  8
0
 10
102.699974
 20
38.324860
 11
102.699974
 21
48.472630
  0
LINE
  8
0
 10
104.199974
 20
39.472145
 11
104.199974
 21
40.330059
  0
LINE
  8
0
 10
105.699974
 20
37.264198
 11
105.699974
 21
41.401554
  0
LINE
  8
0
 10
109.699974
 20
37.264198
 11
109.699974
 21
41.401554
  0
LINE
  8
0
 10
109.699974
 20
40.330059
 11
116.199966
 21
40.330059
  0
LINE
  8
0
 10
105.699974
 20
40.169243
 11
109.699974
 21
40.169243
  0
LINE
  8
0
 10
105.699974
 20
49.361633
 11
109.699974
 21
49.361633
  0
LINE
  8
0
 10
109.699974
 20
48.472630
 11
117.699966
 21
48.472630
  0
LINE
  8
0
 10
109.699974
 20
41.401554
 11
117.699966
 21
41.401554
  0
LINE
  8
0
 10
105.699974
 20
48.472630
 11
105.699974
 21
49.361633
  0
LINE
  8
0
 10
109.699974
 20
48.472630
 11
109.699974
 21
49.361633
  0
LINE
  8
0
 10
105.699974
 20
37.264198
 11
109.699974
 21
37.264198
  0
LINE
  8
0
 10
102.699974
 20
38.324856
 11
105.699974
 21
38.324856
  0
LINE
  8
0
 10
102.699974
 20
39.472145
 11
105.699974
 21
39.472145
  0
LINE
  8
0
 10
109.699974
 20
38.324856
 11
109.999962
 21
38.324856
  0
LINE
  8
0
 10
109.699974
 20
39.472145
 11
109.999962
 21
39.472145
  0
LINE
  8
0
 10
118.649979
 20
52.820587
 11
118.649979
 21
63.922169
  0
LINE
  8
0
 10
119.199997
 20
50.628540
 11
119.199997
 21
39.087582
  0
LINE
  8
0
 10
117.699997
 20
57.760273
 11
117.699997
 21
39.087582
  0
LINE
  8
0
 10
116.199997
 20
40.330059
 11
116.199997
 21
-52.500004
  0
LINE
  8
0
 10
109.999992
 20
40.330059
 11
109.999992
 21
-52.500004
  0
LINE
  8
0
 10
120.699997
 20
50.628540
 11
120.699997
 21
12.000000
  0
LINE
  8
0
 10
162.699997
 20
56.972420
 11
162.699997
 21
38.000065
  0
LINE
  8
0
 10
172.649979
 20
57.797421
 11
174.149979
 21
57.797421
  0
LINE
  8
0
 10
143.149979
 20
61.472424
 11
143.149979
 21
56.472424
  0
LINE
  8
0
 10
140.649994
 20
61.472420
 11
143.149979
 21
61.472420
  0
LINE
  8
0
 10
143.149979
 20
60.972420
 11
169.649979
 21
60.972420
  0
LINE
  8
0
 10
143.149979
 20
56.972420
 11
169.649979
 21
56.972420
  0
LINE
  8
0
 10
140.649994
 20
56.472420
 11
143.149979
 21
56.472420
  0
LINE
  8
0
 10
169.649979
 20
60.972420
 11
169.649979
 21
56.972420
  0
LINE
  8
0
 10
169.649979
 20
58.672421
 11
172.649979
 21
58.672421
  0
LINE
  8
0
 10
169.649979
 20
59.272419
 11
172.649979
 21
59.272419
  0
LINE
  8
0
 10
169.649979
 20
57.672421
 11
172.649979
 21
57.672421
  0
LINE
  8
0
 10
169.649979
 20
60.272419
 11
172.649979
 21
60.272419
  0
LINE
  8
0
 10
172.649979
 20
60.272419
 11
172.649979
 21
59.272419
  0
LINE
  8
0
 10
172.649979
 20
58.672421
 11
172.649979
 21
57.672421
  0
LINE
  8
0
 10
172.649979
 20
60.147419
 11
174.149979
 21
60.147419
  0
LINE
  8
0
 10
172.649979
 20
60.022419
 11
174.149979
 21
60.022419
  0
LINE
  8
0
 10
172.649979
 20
59.897419
 11
174.149979
 21
59.897419
  0
LINE
  8
0
 10
172.649979
 20
59.772419
 11
174.149979
 21
59.772419
  0
LINE
  8
0
 10
172.649979
 20
59.647419
 11
174.149979
 21
59.647419
  0
LINE
  8
0
 10
172.649979
 20
59.522419
 11
174.149979
 21
59.522419
  0
LINE
  8
0
 10
172.649979
 20
59.397419
 11
174.149979
 21
59.397419
  0
LINE
  8
0
 10
172.649979
 20
58.547421
 11
174.149979
 21
58.547421
  0
LINE
  8
0
 10
172.649979
 20
58.422421
 11
174.149979
 21
58.422421
  0
LINE
  8
0
 10
172.649979
 20
58.297421
 11
174.149979
 21
58.297421
  0
LINE
  8
0
 10
172.649979
 20
58.172421
 11
174.149979
 21
58.172421
  0
LINE
  8
0
 10
172.649979
 20
58.047421
 11
174.149979
 21
58.047421
  0
LINE
  8
0
 10
172.649979
 20
57.922421
 11
174.149979
 21
57.922421
  0
LINE
  8
0
 10
146.499985
 20
48.396252
 11
133.999985
 21
48.396252
  0
LINE
  8
0
 10
148.679016
 20
52.047726
 11
147.699982
 21
52.047726
  0
LINE
  8
0
 10
146.499985
 20
38.000065
 11
162.699997
 21
38.000065
  0
LINE
  8
0
 10
118.500000
 20
12.000000
 11
118.500000
 21
-18.199997
  0
LINE
  8
0
 10
97.500000
 20
59.000000
 11
97.500000
 21
-51.000000
  0
LINE
  8
0
 10
100.199997
 20
-45.000000
 11
109.999992
 21
-45.000000
  0
LINE
  8
0
 10
102.000000
 20
-25.000000
 11
109.999992
 21
-25.000000
  0
LINE
  8
0
 10
116.199997
 20
-18.500000
 11
118.199997
 21
-18.500000
  0
LINE
  8
0
 10
118.500000
 20
-8.500000
 11
121.949997
 21
-8.500000
  0
LINE
  8
0
 10
102.000000
 20
33.000000
 11
109.999992
 21
33.000000
  0
LINE
  8
0
 10
100.199997
 20
53.000000
 11
109.999992
 21
53.000000
  0
LINE
  8
0
 10
118.199989
 20
-18.499977
 11
118.499985
 21
-18.199978
  0
LINE
  8
0
 10
122.000000
 20
14.761001
 11
122.000000
 21
-8.449995
  0
LINE
  8
0
 10
122.000000
 20
-8.450000
 11
122.999985
 21
-8.450000
  0
LINE
  8
0
 10
121.950005
 20
-8.499981
 11
122.000000
 21
-8.449981
  0
LINE
  8
0
 10
97.499901
 20
-50.999950
 11
100.199905
 21
-44.999950
  0
LINE
  8
0
 10
97.499901
 20
58.999950
 11
100.199905
 21
52.999950
  0
LINE
  8
0
 10
102.000000
 20
48.299999
 11
102.000000
 21
33.000000
  0
LINE
  8
0
 10
102.000000
 20
-25.000000
 11
102.000000
 21
-40.299999
  0
LINE
  8
0
 10
102.000000
 20
19.302853
 11
102.000000
 21
-11.302854
  0
LINE
  8
0
 10
133.999985
 20
48.396252
 11
133.999985
 21
44.800060
  0
CIRCLE
  8
0
 10
132.300491
 20
48.301670
 40
0.010000
  0
ARC
  8
0
 10
136.499985
 20
41.353085
 40
2.000000
 50
90.000000
 51
180.000000
  0
ARC
  8
0
 10
144.499985
 20
41.353085
 40
2.000000
 50
0.000000
 51
90.000000
  0
ARC
  8
0
 10
141.299988
 20
48.547714
 40
9.000011
 50
343.398499
 51
16.601488
  0
ARC
  8
0
 10
148.679016
 20
46.347725
 40
1.299999
 50
270.000000
 51
343.398346
  0
ARC
  8
0
 10
167.337479
 20
80.355629
 40
0.362520
 50
256.036285
 51
103.963715
  0
ARC
  8
0
 10
159.629272
 20
83.364700
 40
8.070709
 50
340.776794
 51
19.223194
  0
ARC
  8
0
 10
161.569244
 20
88.327431
 40
6.130752
 50
337.910889
 51
22.089111
  0
CIRCLE
  8
0
 10
141.699997
 20
55.619877
 40
0.010000
  0
CIRCLE
  8
0
 10
151.599487
 20
62.301678
 40
0.010000
  0
CIRCLE
  8
0
 10
131.300491
 20
48.301670
 40
0.010000
  0
ARC
  8
0
 10
163.049988
 20
52.035046
 40
4.100002
 50
300.000031
 51
0.000000
  0
ARC
  8
0
 10
163.049988
 20
52.133636
 40
4.100006
 50
0.000000
 51
59.999969
  0
ARC
  8
0
 10
151.949829
 20
66.933578
 40
14.450156
 50
335.510315
 51
24.489733
  0
ARC
  8
0
 10
126.449982
 20
57.068256
 40
0.500000
 50
180.000000
 51
270.000000
  0
ARC
  8
0
 10
133.849991
 20
57.068256
 40
0.500000
 50
270.000000
 51
0.000000
  0
ARC
  8
0
 10
134.649979
 20
58.482464
 40
0.500000
 50
270.000000
 51
0.000000
  0
ARC
  8
0
 10
125.649994
 20
58.482468
 40
0.500000
 50
180.000000
 51
270.000000
  0
ARC
  8
0
 10
125.649994
 20
67.881958
 40
0.500000
 50
90.000000
 51
180.000000
  0
ARC
  8
0
 10
134.649979
 20
67.881958
 40
0.500000
 50
0.000000
 51
90.000000
  0
ARC
  8
0
 10
133.849991
 20
68.730499
 40
0.500000
 50
0.000000
 51
90.000000
  0
ARC
  8
0
 10
126.449982
 20
68.730499
 40
0.500000
 50
90.000000
 51
180.000000
  0
ARC
  8
0
 10
133.849991
 20
61.866520
 40
0.500000
 50
0.000000
 51
90.000000
  0
ARC
  8
0
 10
126.449982
 20
61.866520
 40
0.500000
 50
90.000000
 51
180.000000
  0
ARC
  8
0
 10
117.699997
 20
39.087582
 40
1.500000
 50
180.000000
 51
0.000000
  0
ARC
  8
0
 10
118.699997
 20
50.689194
 40
1.000000
 50
90.000000
 51
180.000000
  0
ARC
  8
0
 10
118.699997
 20
57.760273
 40
1.000000
 50
92.867035
 51
180.000000
  0
ARC
  8
0
 10
136.499985
 20
46.396252
 40
2.000000
 50
90.000000
 51
180.000000
  0
ARC
  8
0
 10
144.499985
 20
46.396252
 40
2.000000
 50
0.000000
 51
90.000000
  0
ARC
  8
0
 10
148.679016
 20
50.747726
 40
1.299995
 50
16.601656
 51
90.000000
  0
ARC
  8
0
 10
152.896774
 20
56.333332
 40
7.053181
 50
345.945862
 51
14.158781
  0
ARC
  8
0
 10
151.053528
 20
55.655685
 40
9.008548
 50
15.470261
 51
51.440815
  0
ARC
  8
0
 10
145.957382
 20
48.195610
 40
18.030878
 50
53.554520
 51
126.550179
  0
ARC
  8
0
 10
140.847610
 20
55.646362
 40
9.008554
 50
128.663864
 51
164.634415
  0
ARC
  8
0
 10
139.003128
 20
56.320637
 40
7.053181
 50
165.945862
 51
194.158783
  0
ARC
  8
0
 10
140.846375
 20
56.998283
 40
9.008548
 50
195.470261
 51
231.440811
  0
ARC
  8
0
 10
145.942520
 20
64.458359
 40
18.030878
 50
233.554520
 51
306.550171
  0
ARC
  8
0
 10
151.052292
 20
57.007607
 40
9.008554
 50
308.663879
 51
344.634430
  0
ARC
  8
0
 10
152.896774
 20
56.333332
 40
7.053181
 50
345.945862
 51
14.158781
  0
ARC
  8
0
 10
151.053528
 20
55.655685
 40
9.008548
 50
15.470261
 51
51.440815
  0
ARC
  8
0
 10
145.957382
 20
48.195610
 40
18.030878
 50
53.554520
 51
126.550179
  0
ARC
  8
0
 10
140.847610
 20
55.646362
 40
9.008554
 50
128.663864
 51
164.634415
  0
ARC
  8
0
 10
139.003128
 20
56.320637
 40
7.053181
 50
165.945862
 51
194.158783
  0
ARC
  8
0
 10
140.846375
 20
56.998283
 40
9.008548
 50
195.470261
 51
231.440811
  0
ARC
  8
0
 10
145.942520
 20
64.458359
 40
18.030878
 50
233.554520
 51
306.550171
  0
ARC
  8
0
 10
151.052292
 20
57.007607
 40
9.008554
 50
308.663879
 51
344.634430
  0
ARC
  8
0
 10
152.896774
 20
56.333332
 40
7.053181
 50
345.945862
 51
14.158781
  0
ARC
  8
0
 10
151.053528
 20
55.655685
 40
9.008548
 50
15.470261
 51
51.440815
  0
ARC
  8
0
 10
145.957382
 20
48.195610
 40
18.030878
 50
53.554520
 51
126.550179
  0
ARC
  8
0
 10
140.847610
 20
55.646362
 40
9.008554
 50
128.663864
 51
164.634415
  0
ARC
  8
0
 10
139.003128
 20
56.320637
 40
7.053181
 50
165.945862
 51
194.158783
  0
ARC
  8
0
 10
140.846375
 20
56.998283
 40
9.008548
 50
195.470261
 51
231.440811
  0
ARC
  8
0
 10
145.942520
 20
64.458359
 40
18.030878
 50
233.554520
 51
306.550171
  0
ARC
  8
0
 10
151.052292
 20
57.007607
 40
9.008554
 50
308.663879
 51
344.634430
  0
ARC
  8
0
 10
152.896774
 20
56.333332
 40
7.053181
 50
345.945862
 51
14.158781
  0
ARC
  8
0
 10
151.053528
 20
55.655685
 40
9.008548
 50
15.470261
 51
51.440815
  0
ARC
  8
0
 10
145.957382
 20
48.195610
 40
18.030878
 50
53.554520
 51
126.550179
  0
ARC
  8
0
 10
140.847610
 20
55.646362
 40
9.008554
 50
128.663864
 51
164.634415
  0
ARC
  8
0
 10
139.003128
 20
56.320637
 40
7.053181
 50
165.945862
 51
194.158783
  0
ARC
  8
0
 10
140.846375
 20
56.998283
 40
9.008548
 50
195.470261
 51
231.440811
  0
ARC
  8
0
 10
145.942520
 20
64.458359
 40
18.030878
 50
233.554520
 51
306.550171
  0
ARC
  8
0
 10
151.052292
 20
57.007607
 40
9.008554
 50
308.663879
 51
344.634430
  0
ARC
  8
0
 10
147.096802
 20
56.331783
 40
7.053182
 50
345.933105
 51
14.146004
  0
ARC
  8
0
 10
145.253403
 20
55.654549
 40
9.008546
 50
15.457477
 51
51.428040
  0
ARC
  8
0
 10
140.155594
 20
48.195610
 40
18.030880
 50
53.541744
 51
126.537392
  0
ARC
  8
0
 10
135.047485
 20
55.647503
 40
9.008549
 50
128.651093
 51
164.621658
  0
ARC
  8
0
 10
133.203156
 20
56.322186
 40
7.053182
 50
165.933090
 51
194.146011
  0
ARC
  8
0
 10
135.046555
 20
56.999420
 40
9.008546
 50
195.457474
 51
231.428040
  0
ARC
  8
0
 10
140.144363
 20
64.458359
 40
18.030880
 50
233.541748
 51
306.537384
  0
ARC
  8
0
 10
145.252472
 20
57.006466
 40
9.008549
 50
308.651093
 51
344.621643
  0
ARC
  8
0
 10
147.096802
 20
56.331783
 40
7.053182
 50
345.933105
 51
14.146004
  0
ARC
  8
0
 10
145.253403
 20
55.654549
 40
9.008546
 50
15.457477
 51
51.428040
  0
ARC
  8
0
 10
140.155594
 20
48.195610
 40
18.030880
 50
53.541744
 51
126.537392
  0
ARC
  8
0
 10
135.047485
 20
55.647503
 40
9.008549
 50
128.651093
 51
164.621658
  0
ARC
  8
0
 10
133.203156
 20
56.322186
 40
7.053182
 50
165.933090
 51
194.146011
  0
ARC
  8
0
 10
135.046555
 20
56.999420
 40
9.008546
 50
195.457474
 51
231.428040
  0
ARC
  8
0
 10
140.144363
 20
64.458359
 40
18.030880
 50
233.541748
 51
306.537384
  0
ARC
  8
0
 10
145.252472
 20
57.006466
 40
9.008549
 50
308.651093
 51
344.621643
  0
ARC
  8
0
 10
135.457977
 20
-19.141397
 40
2.573867
 50
310.347626
 51
344.582153
  0
ARC
  8
0
 10
135.984787
 20
-19.334526
 40
2.015190
 50
345.893616
 51
14.106531
  0
ARC
  8
0
 10
135.457977
 20
-19.527657
 40
2.573860
 50
15.418009
 51
51.388546
  0
ARC
  8
0
 10
133.999985
 20
-21.657782
 40
5.151683
 50
53.502216
 51
126.497849
  0
ARC
  8
0
 10
132.541992
 20
-19.527662
 40
2.573865
 50
128.611511
 51
164.582153
  0
ARC
  8
0
 10
132.015182
 20
-19.334534
 40
2.015190
 50
165.893631
 51
194.106537
  0
ARC
  8
0
 10
132.541992
 20
-19.141403
 40
2.573860
 50
195.418015
 51
229.662064
  0
ARC
  8
0
 10
133.999985
 20
-17.475933
 40
4.121335
 50
298.856262
 51
306.497803
  0
ARC
  8
0
 10
135.166382
 20
-19.180027
 40
2.059090
 50
308.611328
 51
344.582062
  0
ARC
  8
0
 10
135.587830
 20
-19.334530
 40
1.612153
 50
345.893524
 51
14.106413
  0
ARC
  8
0
 10
135.166382
 20
-19.489035
 40
2.059087
 50
15.417927
 51
51.388664
  0
ARC
  8
0
 10
133.999985
 20
-21.193127
 40
4.121338
 50
53.502178
 51
126.497803
  0
ARC
  8
0
 10
132.833588
 20
-19.489033
 40
2.059090
 50
128.611343
 51
164.582077
  0
ARC
  8
0
 10
132.412140
 20
-19.334530
 40
1.612153
 50
165.893524
 51
194.106415
  0
ARC
  8
0
 10
132.833588
 20
-19.180025
 40
2.059087
 50
195.417923
 51
231.388657
  0
ARC
  8
0
 10
133.999985
 20
-17.475933
 40
4.121338
 50
233.502182
 51
241.139908
  0
ARC
  8
0
 10
129.499985
 20
10.348298
 40
4.404014
 50
270.072052
 51
281.370209
  0
ARC
  8
0
 10
129.399353
 20
10.689463
 40
4.758424
 50
281.748260
 51
314.152435
  0
ARC
  8
0
 10
128.289459
 20
11.633636
 40
6.210527
 50
315.431702
 51
0.000009
  0
ARC
  8
0
 10
129.499985
 20
42.620163
 40
15.108604
 50
284.169678
 51
284.685455
  0
ARC
  8
0
 10
132.866608
 20
30.034384
 40
2.081542
 50
282.868591
 51
318.434967
  0
ARC
  8
0
 10
134.083069
 20
28.893274
 40
0.416917
 50
324.865814
 51
0.000000
  0
ARC
  8
0
 10
126.990089
 20
78.957550
 40
1.309897
 50
346.033295
 51
14.246116
  0
ARC
  8
0
 10
126.647972
 20
78.831184
 40
1.673029
 50
15.557496
 51
51.527977
  0
ARC
  8
0
 10
125.703674
 20
77.444336
 40
3.348569
 50
53.641628
 51
126.638000
  0
ARC
  8
0
 10
124.752625
 20
78.826553
 40
1.673041
 50
128.751663
 51
164.722061
  0
ARC
  8
0
 10
124.409889
 20
78.951248
 40
1.309905
 50
166.033356
 51
194.246109
  0
ARC
  8
0
 10
124.752007
 20
79.077614
 40
1.673029
 50
195.557495
 51
231.527985
  0
ARC
  8
0
 10
125.696304
 20
80.464462
 40
3.348569
 50
233.641632
 51
306.638000
  0
ARC
  8
0
 10
126.647354
 20
79.082245
 40
1.673041
 50
308.751648
 51
344.721985
  0
ARC
  8
0
 10
152.678650
 20
62.769711
 40
1.120840
 50
345.972839
 51
14.027163
  0
ARC
  8
0
 10
152.392212
 20
62.665298
 40
1.424401
 50
15.309274
 51
51.197750
  0
ARC
  8
0
 10
151.599487
 20
61.513687
 40
2.820528
 50
53.307991
 51
126.692009
  0
ARC
  8
0
 10
150.806763
 20
62.665298
 40
1.424400
 50
128.802246
 51
164.690720
  0
ARC
  8
0
 10
150.520325
 20
62.769711
 40
1.120840
 50
165.972839
 51
194.027161
  0
ARC
  8
0
 10
150.806763
 20
62.874123
 40
1.424401
 50
195.309280
 51
231.197754
  0
ARC
  8
0
 10
151.599487
 20
64.025734
 40
2.820528
 50
233.307999
 51
306.692017
  0
ARC
  8
0
 10
152.392212
 20
62.874123
 40
1.424400
 50
308.802246
 51
344.690735
  0
ARC
  8
0
 10
152.472900
 20
62.562397
 40
0.887593
 50
345.896881
 51
14.103133
  0
ARC
  8
0
 10
152.241074
 20
62.477428
 40
1.133433
 50
15.413457
 51
51.381031
  0
ARC
  8
0
 10
151.599487
 20
61.540279
 40
2.267612
 50
53.494598
 51
126.505402
  0
ARC
  8
0
 10
150.957901
 20
62.477428
 40
1.133423
 50
128.618973
 51
164.586548
  0
ARC
  8
0
 10
150.726074
 20
62.562397
 40
0.887593
 50
165.896866
 51
194.103134
  0
ARC
  8
0
 10
150.957901
 20
62.647366
 40
1.133433
 50
195.413452
 51
231.381027
  0
ARC
  8
0
 10
151.599487
 20
63.584515
 40
2.267612
 50
233.494598
 51
306.505402
  0
ARC
  8
0
 10
152.241074
 20
62.647366
 40
1.133423
 50
308.618958
 51
344.586548
  0
ARC
  8
0
 10
152.032272
 20
62.427246
 40
0.438711
 50
346.129547
 51
14.353788
  0
ARC
  8
0
 10
151.917587
 20
62.384632
 40
0.560530
 50
15.667629
 51
51.643940
  0
ARC
  8
0
 10
151.601624
 20
61.918629
 40
1.122797
 50
53.757435
 51
126.725693
  0
ARC
  8
0
 10
151.281754
 20
62.381954
 40
0.560546
 50
128.840302
 51
164.815979
  0
ARC
  8
0
 10
151.166702
 20
62.423599
 40
0.438711
 50
166.129532
 51
194.353790
  0
ARC
  8
0
 10
151.281387
 20
62.466213
 40
0.560530
 50
195.667633
 51
231.643936
  0
ARC
  8
0
 10
151.597351
 20
62.932217
 40
1.122797
 50
233.757431
 51
306.725677
  0
ARC
  8
0
 10
151.917221
 20
62.468891
 40
0.560546
 50
308.840302
 51
344.815979
  0
ARC
  8
0
 10
152.889572
 20
63.326984
 40
1.309921
 50
0.000000
 51
14.106173
  0
ARC
  8
0
 10
152.547150
 20
63.201454
 40
1.673045
 50
15.417580
 51
51.387932
  0
ARC
  8
0
 10
151.599487
 20
61.816933
 40
3.348554
 50
53.501736
 51
126.498260
  0
ARC
  8
0
 10
150.651825
 20
63.201454
 40
1.673042
 50
128.612061
 51
164.582413
  0
ARC
  8
0
 10
150.309402
 20
63.326984
 40
1.309916
 50
165.893829
 51
179.892548
  0
ARC
  8
0
 10
151.599487
 20
64.554192
 40
3.348553
 50
280.597809
 51
306.498260
  0
ARC
  8
0
 10
152.547150
 20
63.169670
 40
1.673042
 50
308.612061
 51
344.582428
  0
ARC
  8
0
 10
152.889572
 20
63.044140
 40
1.309916
 50
345.893829
 51
14.106173
  0
ARC
  8
0
 10
152.547150
 20
62.918610
 40
1.673045
 50
15.417580
 51
51.387932
  0
ARC
  8
0
 10
151.599487
 20
61.534088
 40
3.348554
 50
53.501736
 51
126.498260
  0
ARC
  8
0
 10
150.651825
 20
62.918610
 40
1.673042
 50
128.612061
 51
164.582413
  0
ARC
  8
0
 10
150.309402
 20
63.044140
 40
1.309916
 50
165.893829
 51
194.106171
  0
ARC
  8
0
 10
150.651825
 20
63.169670
 40
1.673045
 50
195.417587
 51
231.387939
  0
ARC
  8
0
 10
151.599487
 20
64.554192
 40
3.348554
 50
233.501740
 51
259.390778
  0
ARC
  8
0
 10
146.096802
 20
56.326984
 40
7.053176
 50
345.893555
 51
14.106441
  0
ARC
  8
0
 10
144.252930
 20
55.651024
 40
9.008553
 50
15.417896
 51
51.388451
  0
ARC
  8
0
 10
139.149979
 20
48.195610
 40
18.030876
 50
53.502182
 51
126.497818
  0
ARC
  8
0
 10
134.047028
 20
55.651024
 40
9.008556
 50
128.611557
 51
164.582108
  0
ARC
  8
0
 10
132.203156
 20
56.326984
 40
7.053176
 50
165.893555
 51
194.106445
  0
ARC
  8
0
 10
134.047028
 20
57.002945
 40
9.008553
 50
195.417892
 51
231.388443
  0
ARC
  8
0
 10
139.149979
 20
64.458359
 40
18.030876
 50
233.502182
 51
306.497833
  0
ARC
  8
0
 10
144.252930
 20
57.002945
 40
9.008556
 50
308.611542
 51
344.582092
  0
ARC
  8
0
 10
146.096802
 20
56.326984
 40
7.053176
 50
345.893555
 51
14.106441
  0
ARC
  8
0
 10
144.252930
 20
55.651024
 40
9.008553
 50
15.417896
 51
51.388451
  0
ARC
  8
0
 10
139.149979
 20
48.195610
 40
18.030876
 50
53.502182
 51
126.497818
  0
ARC
  8
0
 10
134.047028
 20
55.651024
 40
9.008556
 50
128.611557
 51
164.582108
  0
ARC
  8
0
 10
132.203156
 20
56.326984
 40
7.053176
 50
165.893555
 51
194.106445
  0
ARC
  8
0
 10
134.047028
 20
57.002945
 40
9.008553
 50
195.417892
 51
231.388443
  0
ARC
  8
0
 10
139.149979
 20
64.458359
 40
18.030876
 50
233.502182
 51
306.497833
  0
ARC
  8
0
 10
144.252930
 20
57.002945
 40
9.008556
 50
308.611542
 51
344.582092
  0
ARC
  8
0
 10
141.699997
 20
49.609818
 40
18.030872
 50
89.959755
 51
111.203773
  0
ARC
  8
0
 10
153.584290
 20
64.741196
 40
2.015198
 50
0.000000
 51
14.106426
  0
ARC
  8
0
 10
153.057480
 20
64.548065
 40
2.573859
 50
15.417927
 51
51.388519
  0
ARC
  8
0
 10
151.599487
 20
62.417950
 40
5.151674
 50
53.502140
 51
90.767090
  0
ARC
  8
0
 10
141.699997
 20
62.968513
 40
11.591275
 50
301.043243
 51
306.497772
  0
ARC
  8
0
 10
144.980469
 20
58.175743
 40
5.791207
 50
308.611481
 51
344.582062
  0
ARC
  8
0
 10
146.165817
 20
57.741196
 40
4.534176
 50
345.893524
 51
350.228027
  0
ARC
  8
0
 10
141.699997
 20
48.195610
 40
18.030880
 50
89.959755
 51
111.203773
  0
ARC
  8
0
 10
153.584290
 20
63.326988
 40
2.015198
 50
0.000000
 51
14.106531
  0
ARC
  8
0
 10
153.057480
 20
63.133858
 40
2.573860
 50
15.418009
 51
51.388519
  0
ARC
  8
0
 10
151.599487
 20
61.003742
 40
5.151674
 50
53.502140
 51
90.767090
  0
ARC
  8
0
 10
141.699997
 20
64.458366
 40
18.030880
 50
298.339294
 51
306.497803
  0
ARC
  8
0
 10
146.802948
 20
57.002949
 40
9.008556
 50
308.611542
 51
344.582092
  0
ARC
  8
0
 10
148.646820
 20
56.326988
 40
7.053176
 50
345.893555
 51
5.246239
  0
ARC
  8
0
 10
141.699997
 20
51.099670
 40
11.591275
 50
58.075741
 51
95.198891
  0
ARC
  8
0
 10
130.894287
 20
53.598412
 40
0.755692
 50
0.000289
 51
14.106391
  0
ARC
  8
0
 10
130.696732
 20
53.525986
 40
0.965201
 50
15.417976
 51
51.388996
  0
ARC
  8
0
 10
130.149979
 20
52.727184
 40
1.931883
 50
53.502392
 51
126.497612
  0
ARC
  8
0
 10
129.603226
 20
53.525986
 40
0.965195
 50
128.611008
 51
164.582031
  0
ARC
  8
0
 10
129.405670
 20
53.598412
 40
0.755698
 50
165.893616
 51
180.000000
  0
ARC
  8
0
 10
108.519684
 20
44.937103
 40
2.130286
 50
3.762459
 51
11.774199
  0
ARC
  8
0
 10
108.302116
 20
44.870632
 40
2.356931
 50
12.276846
 51
45.306488
  0
ARC
  8
0
 10
107.699982
 20
44.137524
 40
3.302731
 50
46.825668
 51
133.175827
  0
ARC
  8
0
 10
107.097839
 20
44.870617
 40
2.356934
 50
134.695221
 51
167.724686
  0
ARC
  8
0
 10
106.880264
 20
44.937080
 40
2.130284
 50
168.227249
 51
183.762665
  0
ARC
  8
0
 10
122.368668
 20
61.093735
 40
0.425081
 50
345.893433
 51
14.106079
  0
ARC
  8
0
 10
122.257545
 20
61.052998
 40
0.542922
 50
15.417571
 51
51.388226
  0
ARC
  8
0
 10
121.949997
 20
60.603676
 40
1.086682
 50
53.501877
 51
126.497444
  0
ARC
  8
0
 10
121.642448
 20
61.053001
 40
0.542925
 50
128.610641
 51
164.581650
  0
ARC
  8
0
 10
121.531326
 20
61.093742
 40
0.425081
 50
165.893417
 51
194.106079
  0
ARC
  8
0
 10
121.642448
 20
61.134480
 40
0.542922
 50
195.417572
 51
231.388229
  0
ARC
  8
0
 10
121.949997
 20
61.583801
 40
1.086682
 50
233.501877
 51
306.497437
  0
ARC
  8
0
 10
122.257545
 20
61.134476
 40
0.542925
 50
308.610657
 51
344.581665
  0
ARC
  8
0
 10
106.236191
 20
44.937080
 40
1.486214
 50
174.645615
 51
194.106720
  0
ARC
  8
0
 10
106.624718
 20
45.079514
 40
1.898232
 50
195.418106
 51
231.388641
  0
ARC
  8
0
 10
107.699966
 20
46.650467
 40
3.799348
 50
233.502380
 51
306.498199
  0
ARC
  8
0
 10
108.775230
 20
45.079525
 40
1.898233
 50
308.611938
 51
344.582520
  0
ARC
  8
0
 10
109.163757
 20
44.937096
 40
1.486214
 50
345.893921
 51
5.331062
  0
ARC
  8
0
 10
107.699928
 20
41.535580
 40
4.532875
 50
65.111511
 51
114.901886
  0
ARC
  8
0
 10
122.694298
 20
61.093739
 40
0.755691
 50
345.893463
 51
14.106531
  0
ARC
  8
0
 10
122.496735
 20
61.021313
 40
0.965201
 50
15.417976
 51
51.388287
  0
ARC
  8
0
 10
121.949989
 20
60.222515
 40
1.931884
 50
53.502144
 51
126.497856
  0
ARC
  8
0
 10
121.403244
 20
61.021317
 40
0.965201
 50
128.611847
 51
164.582245
  0
ARC
  8
0
 10
121.205681
 20
61.093739
 40
0.755691
 50
165.893463
 51
194.106537
  0
ARC
  8
0
 10
121.403244
 20
61.166164
 40
0.965201
 50
195.417969
 51
231.388290
  0
ARC
  8
0
 10
121.949989
 20
61.964962
 40
1.931884
 50
233.502136
 51
306.497864
  0
ARC
  8
0
 10
122.496735
 20
61.166161
 40
0.965201
 50
308.611847
 51
344.582245
  0
ARC
  8
0
 10
130.969696
 20
65.760651
 40
2.130294
 50
3.762753
 51
11.773612
  0
ARC
  8
0
 10
130.752136
 20
65.694183
 40
2.356934
 50
12.276262
 51
45.305832
  0
ARC
  8
0
 10
130.149994
 20
64.961082
 40
3.302735
 50
46.825008
 51
133.175171
  0
ARC
  8
0
 10
129.547852
 20
65.694183
 40
2.356923
 50
134.694427
 51
167.724106
  0
ARC
  8
0
 10
129.330292
 20
65.760651
 40
2.130295
 50
168.226791
 51
183.762955
  0
ARC
  8
0
 10
128.686203
 20
65.760643
 40
1.486199
 50
174.645554
 51
194.106369
  0
ARC
  8
0
 10
129.074738
 20
65.903076
 40
1.898229
 50
195.417770
 51
231.388382
  0
ARC
  8
0
 10
130.149994
 20
67.474022
 40
3.799348
 50
233.502106
 51
306.497894
  0
ARC
  8
0
 10
131.225250
 20
65.903076
 40
1.898234
 50
308.611603
 51
344.582062
  0
ARC
  8
0
 10
131.613785
 20
65.760643
 40
1.486209
 50
345.893433
 51
5.331355
  0
ARC
  8
0
 10
130.149963
 20
62.359135
 40
4.532875
 50
65.111618
 51
114.901802
  0
ARC
  8
0
 10
141.699997
 20
61.554306
 40
11.591271
 50
305.019348
 51
306.497772
  0
ARC
  8
0
 10
144.980469
 20
56.761536
 40
5.791207
 50
308.611481
 51
344.582062
  0
ARC
  8
0
 10
146.165817
 20
56.326988
 40
4.534176
 50
345.893524
 51
8.190700
  0
POLYLINE
  8
0
 66
     1
  0
VERTEX
  8
0
 10
100.199997
 20
53.000000
  0
VERTEX
  8
0
 10
100.301788
 20
52.720554
  0
VERTEX
  8
0
 10
100.429504
 20
52.374657
  0
VERTEX
  8
0
 10
100.642761
 20
51.806187
  0
VERTEX
  8
0
 10
100.865997
 20
51.217632
  0
VERTEX
  8
0
 10
101.110291
 20
50.573605
  0
VERTEX
  8
0
 10
101.369995
 20
49.895317
  0
VERTEX
  8
0
 10
101.682167
 20
49.096542
  0
VERTEX
  8
0
 10
102.000000
 20
48.299999
  0
SEQEND
  0
POLYLINE
  8
0
 66
     1
  0
VERTEX
  8
0
 10
100.199997
 20
-45.000000
  0
VERTEX
  8
0
 10
100.301788
 20
-44.720554
  0
VERTEX
  8
0
 10
100.429504
 20
-44.374657
  0
VERTEX
  8
0
 10
100.642761
 20
-43.806187
  0
VERTEX
  8
0
 10
100.865997
 20
-43.217632
  0
VERTEX
  8
0
 10
101.110291
 20
-42.573605
  0
VERTEX
  8
0
 10
101.369995
 20
-41.895317
  0
VERTEX
  8
0
 10
101.682167
 20
-41.096542
  0
VERTEX
  8
0
 10
102.000000
 20
-40.299999
  0
SEQEND
  0
POLYLINE
  8
0
 66
     1
  0
VERTEX
  8
0
 10
102.000000
 20
-11.302854
  0
VERTEX
  8
0
 10
101.748276
 20
-11.971636
  0
VERTEX
  8
0
 10
101.513321
 20
-12.646605
  0
VERTEX
  8
0
 10
101.275497
 20
-13.382919
  0
VERTEX
  8
0
 10
101.015953
 20
-14.249454
  0
VERTEX
  8
0
 10
100.785843
 20
-15.123968
  0
VERTEX
  8
0
 10
100.591492
 20
-16.027548
  0
VERTEX
  8
0
 10
100.437599
 20
-16.997131
  0
VERTEX
  8
0
 10
100.330650
 20
-17.973124
  0
VERTEX
  8
0
 10
100.263000
 20
-18.920111
  0
VERTEX
  8
0
 10
100.227821
 20
-19.816029
  0
VERTEX
  8
0
 10
100.218727
 20
-20.715286
  0
VERTEX
  8
0
 10
100.236000
 20
-21.564739
  0
VERTEX
  8
0
 10
100.284676
 20
-22.286821
  0
VERTEX
  8
0
 10
100.405289
 20
-22.991222
  0
VERTEX
  8
0
 10
100.640999
 20
-23.630854
  0
VERTEX
  8
0
 10
101.225037
 20
-24.401867
  0
VERTEX
  8
0
 10
102.000000
 20
-25.000000
  0
SEQEND
  0
POLYLINE
  8
0
 66
     1
  0
VERTEX
  8
0
 10
102.000000
 20
33.000000
  0
VERTEX
  8
0
 10
101.230080
 20
32.411564
  0
VERTEX
  8
0
 10
100.640999
 20
31.630854
  0
VERTEX
  8
0
 10
100.400085
 20
31.000088
  0
VERTEX
  8
0
 10
100.283226
 20
30.321791
  0
VERTEX
  8
0
 10
100.236000
 20
29.564739
  0
VERTEX
  8
0
 10
100.216644
 20
28.684381
  0
VERTEX
  8
0
 10
100.225975
 20
27.815292
  0
VERTEX
  8
0
 10
100.263000
 20
26.920111
  0
VERTEX
  8
0
 10
100.332954
 20
25.946964
  0
VERTEX
  8
0
 10
100.440605
 20
24.974241
  0
VERTEX
  8
0
 10
100.591492
 20
24.027548
  0
VERTEX
  8
0
 10
100.789230
 20
23.118336
  0
VERTEX
  8
0
 10
101.026428
 20
22.218571
  0
VERTEX
  8
0
 10
101.275497
 20
21.382919
  0
VERTEX
  8
0
 10
101.501610
 20
20.684029
  0
VERTEX
  8
0
 10
101.742416
 20
19.990347
  0
VERTEX
  8
0
 10
102.000000
 20
19.302853
  0
SEQEND
  0
POINT
  8
0
 10
291.000000
 20
180.000000
  0
POINT
  8
0
 10
361.750000
 20
180.000000
  0
LINE
  8
0
 10
282.868286
 20
200.859650
 11
283.127106
 21
201.825577
  0
LINE
  8
0
 10
267.311920
 20
181.060654
 11
291.353546
 21
205.102295
  0
LINE
  8
0
 10
292.060669
 20
156.311920
 11
316.102295
 21
180.353546
  0
LINE
  8
0
 10
316.102295
 20
186.010406
 11
306.980621
 21
195.132080
  0
LINE
  8
0
 10
248.503021
 20
150.938065
 11
258.119537
 21
160.554565
  0
LINE
  8
0
 10
251.646912
 20
124.544304
 11
260.645935
 21
135.268921
  0
LINE
  8
0
 10
258.119537
 20
160.554565
 11
264.788849
 21
170.079330
  0
LINE
  8
0
 10
261.938049
 20
137.503021
 11
271.554565
 21
147.119537
  0
LINE
  8
0
 10
271.554565
 20
147.119537
 11
281.079346
 21
153.788849
  0
LINE
  8
0
 10
235.544312
 20
140.646912
 11
245.189087
 21
148.739838
  0
LINE
  8
0
 10
316.102295
 20
180.353546
 11
316.102295
 21
186.010406
  0
LINE
  8
0
 10
297.010406
 20
205.102295
 11
291.353546
 21
205.102295
  0
LINE
  8
0
 10
290.292908
 20
167.272079
 11
278.272064
 21
179.292892
  0
LINE
  8
0
 10
278.272064
 20
180.707108
 11
290.292908
 21
192.727921
  0
LINE
  8
0
 10
303.727936
 20
180.707108
 11
298.141785
 21
186.293243
  0
LINE
  8
0
 10
291.707092
 20
167.272079
 11
303.727936
 21
179.292892
  0
LINE
  8
0
 10
290.292908
 20
166.564972
 11
277.564972
 21
179.292892
  0
LINE
  8
0
 10
277.564972
 20
180.707108
 11
290.292908
 21
193.435028
  0
LINE
  8
0
 10
304.435028
 20
180.707108
 11
298.495331
 21
186.646805
  0
LINE
  8
0
 10
291.707092
 20
166.564972
 11
304.435028
 21
179.292892
  0
LINE
  8
0
 10
297.293243
 20
187.141785
 11
306.132080
 21
195.980606
  0
LINE
  8
0
 10
298.141785
 20
186.293243
 11
306.980621
 21
195.132080
  0
LINE
  8
0
 10
297.293243
 20
187.141785
 11
291.707092
 21
192.727921
  0
LINE
  8
0
 10
297.646790
 20
187.495331
 11
291.707092
 21
193.435028
  0
LINE
  8
0
 10
306.132080
 20
195.980606
 11
292.060669
 21
210.052032
  0
LINE
  8
0
 10
299.556000
 20
187.707458
 11
298.707458
 21
188.556000
  0
LINE
  8
0
 10
305.212860
 20
193.364319
 11
304.364319
 21
194.212845
  0
LINE
  8
0
 10
283.127106
 20
201.825577
 11
291.094727
 21
209.793213
  0
LINE
  8
0
 10
282.868286
 20
200.859650
 11
292.060669
 21
210.052032
  0
LINE
  8
0
 10
292.060669
 20
210.052017
 11
291.094727
 21
209.793198
  0
LINE
  8
0
 10
284.989594
 20
198.738327
 11
282.868286
 21
200.859650
  0
LINE
  8
0
 10
232.421371
 20
244.235535
 11
243.664368
 21
232.992538
  0
LINE
  8
0
 10
226.764496
 20
238.578674
 11
238.007507
 21
227.335693
  0
LINE
  8
0
 10
231.077820
 20
234.265320
 11
236.734680
 21
239.922180
  0
LINE
  8
0
 10
238.007492
 20
226.769989
 11
244.230026
 21
232.992523
  0
LINE
  8
0
 10
237.300400
 20
239.922180
 11
244.230042
 21
232.992523
  0
LINE
  8
0
 10
231.077820
 20
233.699646
 11
238.007477
 21
226.769989
  0
LINE
  8
0
 10
236.522568
 20
228.820587
 11
242.179428
 21
234.477448
  0
LINE
  8
0
 10
229.946442
 20
232.568268
 11
231.360657
 21
233.982483
  0
LINE
  8
0
 10
225.915970
 20
237.305862
 11
226.976624
 21
238.366531
  0
LINE
  8
0
 10
237.017502
 20
239.639343
 11
238.431717
 21
241.053543
  0
LINE
  8
0
 10
234.401260
 20
245.084076
 11
238.431763
 21
241.053574
  0
LINE
  8
0
 10
225.915955
 20
236.598785
 11
229.946472
 21
232.568283
  0
LINE
  8
0
 10
232.633484
 20
244.023376
 11
233.694138
 21
245.084045
  0
LINE
  8
0
 10
237.300385
 20
228.749832
 11
236.593277
 21
228.749832
  0
LINE
  8
0
 10
242.250168
 20
233.699600
 11
242.250168
 21
234.406708
  0
LINE
  8
0
 10
238.007507
 20
227.335693
 11
243.664352
 21
232.992538
  0
LINE
  8
0
 10
236.946838
 20
228.396362
 11
242.603668
 21
234.053192
  0
LINE
  8
0
 10
254.830765
 20
225.361664
 11
255.909943
 21
224.282486
  0
LINE
  8
0
 10
243.310791
 20
234.760315
 11
254.740768
 21
223.330338
  0
LINE
  8
0
 10
242.886520
 20
234.336044
 11
243.310791
 21
234.760300
  0
LINE
  8
0
 10
243.947205
 20
233.275391
 11
244.371460
 21
233.699646
  0
LINE
  8
0
 10
237.300385
 20
226.628586
 11
237.724655
 21
227.052841
  0
LINE
  8
0
 10
236.239716
 20
227.689240
 11
236.663986
 21
228.113495
  0
LINE
  8
0
 10
231.714203
 20
244.235535
 11
226.764450
 21
239.285782
  0
LINE
  8
0
 10
240.835937
 20
235.820908
 11
235.179092
 21
230.164062
  0
LINE
  8
0
 10
226.764465
 20
121.421356
 11
238.007477
 21
132.664352
  0
LINE
  8
0
 10
232.421326
 20
115.764503
 11
243.664307
 21
127.007492
  0
LINE
  8
0
 10
236.734680
 20
120.077820
 11
231.077820
 21
125.734680
  0
LINE
  8
0
 10
244.230011
 20
127.007492
 11
238.007477
 21
133.230026
  0
LINE
  8
0
 10
231.077820
 20
126.300400
 11
238.007477
 21
133.230057
  0
LINE
  8
0
 10
237.300369
 20
120.077820
 11
244.230011
 21
127.007469
  0
LINE
  8
0
 10
242.179398
 20
125.522568
 11
236.522552
 21
131.179428
  0
LINE
  8
0
 10
238.431732
 20
118.946442
 11
237.017517
 21
120.360657
  0
LINE
  8
0
 10
233.694138
 20
114.915962
 11
232.633484
 21
115.976624
  0
LINE
  8
0
 10
231.360657
 20
126.017509
 11
229.946442
 21
127.431725
  0
LINE
  8
0
 10
225.915924
 20
123.401260
 11
229.946442
 21
127.431763
  0
LINE
  8
0
 10
234.401215
 20
114.915962
 11
238.431717
 21
118.946472
  0
LINE
  8
0
 10
226.976624
 20
121.633484
 11
225.915955
 21
122.694138
  0
LINE
  8
0
 10
242.250168
 20
126.300385
 11
242.250168
 21
125.593277
  0
LINE
  8
0
 10
237.300400
 20
131.250183
 11
236.593292
 21
131.250183
  0
LINE
  8
0
 10
243.664307
 20
127.007500
 11
238.007462
 21
132.664352
  0
LINE
  8
0
 10
242.603638
 20
125.946838
 11
236.946808
 21
131.603683
  0
LINE
  8
0
 10
236.663956
 20
131.886536
 11
236.239685
 21
132.310791
  0
LINE
  8
0
 10
237.724609
 20
132.947205
 11
237.300354
 21
133.371460
  0
LINE
  8
0
 10
244.371414
 20
126.300392
 11
243.947159
 21
126.724655
  0
LINE
  8
0
 10
243.310760
 20
125.239716
 11
242.886490
 21
125.663986
  0
LINE
  8
0
 10
226.764465
 20
120.714203
 11
231.714203
 21
115.764458
  0
LINE
  8
0
 10
235.179092
 20
129.835937
 11
240.835937
 21
124.179085
  0
LINE
  8
0
 10
236.239685
 20
132.310791
 11
238.532654
 21
134.603760
  0
LINE
  8
0
 10
243.310760
 20
125.239731
 11
245.603729
 21
127.532700
  0
LINE
  8
0
 10
256.999939
 20
194.199997
 11
225.237976
 21
225.961975
  0
LINE
  8
0
 10
225.237976
 20
134.038055
 11
256.999939
 21
165.800003
  0
LINE
  8
0
 10
225.237946
 20
134.038040
 11
195.999924
 21
163.276077
  0
LINE
  8
0
 10
195.999924
 20
196.723938
 11
225.237976
 21
225.961975
  0
LINE
  8
0
 10
256.999939
 20
165.800003
 11
256.999939
 21
194.199997
  0
LINE
  8
0
 10
195.999939
 20
163.250061
 11
195.999939
 21
196.749969
  0
LINE
  8
0
 10
234.430374
 20
219.597992
 11
243.834900
 21
229.002502
  0
LINE
  8
0
 10
242.915649
 20
211.112732
 11
252.320175
 21
220.517242
  0
LINE
  8
0
 10
235.190048
 20
140.985840
 11
235.102112
 21
141.073761
  0
LINE
  8
0
 10
242.331818
 20
148.127609
 11
242.243881
 21
148.215546
  0
LINE
  8
0
 10
245.001617
 20
228.825745
 11
245.796661
 21
229.620773
  0
LINE
  8
0
 10
252.143402
 20
221.683975
 11
252.938446
 21
222.479019
  0
LINE
  8
0
 10
252.529388
 20
221.297974
 11
244.615662
 21
229.211700
  0
LINE
  8
0
 10
235.190063
 20
140.985840
 11
242.331833
 21
148.127625
  0
LINE
  8
0
 10
245.796677
 20
229.620773
 11
252.938446
 21
222.478989
  0
LINE
  8
0
 10
252.320221
 20
220.517212
 11
252.529419
 21
221.297958
  0
LINE
  8
0
 10
243.834900
 20
229.002518
 11
244.615646
 21
229.211731
  0
LINE
  8
0
 10
252.320190
 20
220.517227
 11
243.834915
 21
229.002502
  0
LINE
  8
0
 10
214.292572
 20
170.161469
 11
214.996185
 21
175.891953
  0
LINE
  8
0
 10
204.367035
 20
171.380173
 11
205.070648
 21
177.110626
  0
LINE
  8
0
 10
214.292557
 20
170.161484
 11
208.978027
 21
167.905594
  0
LINE
  8
0
 10
210.385239
 20
179.366547
 11
205.070709
 21
177.110657
  0
LINE
  8
0
 10
208.977936
 20
167.905457
 11
204.367004
 21
171.380035
  0
LINE
  8
0
 10
214.996094
 20
175.891815
 11
210.385162
 21
179.366394
  0
LINE
  8
0
 10
212.051941
 20
172.841263
 11
207.189484
 21
173.438293
  0
LINE
  8
0
 10
212.173813
 20
173.833786
 11
207.311340
 21
174.430832
  0
LINE
  8
0
 10
215.451569
 20
186.162430
 11
212.741058
 21
191.260132
  0
LINE
  8
0
 10
206.622070
 20
181.467712
 11
203.911575
 21
186.565399
  0
LINE
  8
0
 10
215.451569
 20
186.162521
 11
212.392075
 21
181.266312
  0
LINE
  8
0
 10
206.971100
 20
191.461716
 11
203.911621
 21
186.565506
  0
LINE
  8
0
 10
212.392151
 20
181.266266
 11
206.622162
 21
181.467758
  0
LINE
  8
0
 10
212.741119
 20
191.260208
 11
206.971146
 21
191.461700
  0
LINE
  8
0
 10
212.079132
 20
187.072525
 11
207.753571
 21
184.772583
  0
LINE
  8
0
 10
211.609650
 20
187.955475
 11
207.284088
 21
185.655533
  0
LINE
  8
0
 10
256.415649
 20
173.461655
 11
256.415649
 21
186.538345
  0
LINE
  8
0
 10
229.415665
 20
173.461655
 11
229.415665
 21
186.538345
  0
LINE
  8
0
 10
240.196030
 20
162.066498
 11
232.717468
 21
168.999847
  0
LINE
  8
0
 10
245.635086
 20
162.066711
 11
253.113647
 21
169.000046
  0
LINE
  8
0
 10
253.113647
 20
190.999954
 11
245.635101
 21
197.933289
  0
LINE
  8
0
 10
240.196045
 20
197.933502
 11
232.717468
 21
191.000183
  0
LINE
  8
0
 10
228.773514
 20
134.745178
 11
248.572510
 21
154.544159
  0
LINE
  8
0
 10
248.572510
 20
205.455841
 11
228.773514
 21
225.254837
  0
LINE
  8
0
 10
283.000000
 20
141.594269
 11
283.000000
 21
154.930557
  0
LINE
  8
0
 10
283.000000
 20
201.351196
 11
283.000000
 21
218.405731
  0
LINE
  8
0
 10
225.199997
 20
134.049957
 11
195.999924
 21
163.250046
  0
LINE
  8
0
 10
225.199997
 20
134.050003
 11
225.213013
 21
134.063019
  0
LINE
  8
0
 10
225.213013
 20
225.936996
 11
225.199982
 21
225.950012
  0
LINE
  8
0
 10
195.999924
 20
196.749969
 11
225.199982
 21
225.950012
  0
LINE
  8
0
 10
228.773499
 20
134.745132
 11
227.359283
 21
136.159348
  0
LINE
  8
0
 10
248.572479
 20
154.544128
 11
247.158264
 21
155.958344
  0
LINE
  8
0
 10
227.359299
 20
223.840637
 11
228.773499
 21
225.254852
  0
LINE
  8
0
 10
247.158295
 20
204.041656
 11
248.572510
 21
205.455872
  0
LINE
  8
0
 10
229.410278
 20
134.816238
 11
234.501434
 21
139.907410
  0
LINE
  8
0
 10
233.370560
 20
135.877396
 11
233.440277
 21
135.947113
  0
LINE
  8
0
 10
234.501450
 20
139.907394
 11
234.218597
 21
140.190247
  0
LINE
  8
0
 10
229.410263
 20
134.816208
 11
229.127426
 21
135.099060
  0
LINE
  8
0
 10
243.410278
 20
148.816238
 11
248.501450
 21
153.907410
  0
LINE
  8
0
 10
247.370575
 20
149.877396
 11
247.440292
 21
149.947113
  0
LINE
  8
0
 10
248.501450
 20
153.907379
 11
248.218597
 21
154.190231
  0
LINE
  8
0
 10
243.410248
 20
148.816223
 11
243.127411
 21
149.099060
  0
LINE
  8
0
 10
248.501465
 20
206.092606
 11
243.410294
 21
211.183777
  0
LINE
  8
0
 10
247.440292
 20
210.052902
 11
247.370575
 21
210.122620
  0
LINE
  8
0
 10
243.410309
 20
211.183777
 11
243.127457
 21
210.900940
  0
LINE
  8
0
 10
248.501465
 20
206.092606
 11
248.218628
 21
205.809753
  0
LINE
  8
0
 10
234.501465
 20
220.092606
 11
229.410294
 21
225.183777
  0
LINE
  8
0
 10
233.440292
 20
224.052902
 11
233.370590
 21
224.122604
  0
LINE
  8
0
 10
229.410278
 20
225.183777
 11
229.127441
 21
224.900925
  0
LINE
  8
0
 10
234.501480
 20
220.092621
 11
234.218628
 21
219.809784
  0
LINE
  8
0
 10
238.532684
 20
134.603745
 11
245.603745
 21
127.532677
  0
LINE
  8
0
 10
247.866486
 20
141.109116
 11
252.109116
 21
136.866486
  0
LINE
  8
0
 10
238.532684
 20
134.603745
 11
245.038055
 21
141.109131
  0
LINE
  8
0
 10
245.603745
 20
127.532684
 11
252.109131
 21
134.038055
  0
LINE
  8
0
 10
244.352280
 20
135.452271
 11
248.552277
 21
135.452271
  0
LINE
  8
0
 10
246.452271
 20
137.552277
 11
246.452271
 21
133.352264
  0
LINE
  8
0
 10
236.239716
 20
227.689240
 11
239.380676
 21
224.548294
  0
LINE
  8
0
 10
228.066422
 20
158.401276
 11
228.066422
 21
152.101273
  0
LINE
  8
0
 10
224.916412
 20
155.251266
 11
231.216431
 21
155.251266
  0
LINE
  8
0
 10
242.915665
 20
166.154709
 11
241.915665
 21
165.577362
  0
LINE
  8
0
 10
241.915665
 20
165.577362
 11
241.915665
 21
164.422653
  0
LINE
  8
0
 10
242.915665
 20
163.845306
 11
241.915665
 21
164.422653
  0
LINE
  8
0
 10
243.915665
 20
164.422653
 11
242.915665
 21
163.845306
  0
LINE
  8
0
 10
243.915665
 20
165.577362
 11
243.915665
 21
164.422653
  0
LINE
  8
0
 10
242.915665
 20
166.154709
 11
243.915665
 21
165.577362
  0
LINE
  8
0
 10
275.618805
 20
214.600006
 11
273.309418
 21
218.599991
  0
LINE
  8
0
 10
273.309387
 20
218.600006
 11
268.690613
 21
218.600006
  0
LINE
  8
0
 10
266.381195
 20
214.600006
 11
268.690613
 21
218.600006
  0
LINE
  8
0
 10
268.690613
 20
210.599991
 11
266.381195
 21
214.599991
  0
LINE
  8
0
 10
273.309387
 20
210.600006
 11
268.690613
 21
210.600006
  0
LINE
  8
0
 10
275.618805
 20
214.600006
 11
273.309418
 21
210.599991
  0
LINE
  8
0
 10
242.915665
 20
196.154694
 11
241.915665
 21
195.577347
  0
LINE
  8
0
 10
241.915665
 20
195.577362
 11
241.915665
 21
194.422653
  0
LINE
  8
0
 10
242.915665
 20
193.845306
 11
241.915665
 21
194.422653
  0
LINE
  8
0
 10
243.915665
 20
194.422653
 11
242.915665
 21
193.845306
  0
LINE
  8
0
 10
243.915665
 20
195.577362
 11
243.915665
 21
194.422653
  0
LINE
  8
0
 10
242.915665
 20
196.154709
 11
243.915665
 21
195.577362
  0
LINE
  8
0
 10
231.216431
 20
204.748749
 11
224.916412
 21
204.748749
  0
LINE
  8
0
 10
228.066422
 20
207.898743
 11
228.066422
 21
201.598740
  0
LINE
  8
0
 10
266.839813
 20
137.194336
 11
267.440826
 21
138.235352
  0
LINE
  8
0
 10
265.973785
 20
137.694336
 11
266.574799
 21
138.735352
  0
LINE
  8
0
 10
266.839813
 20
222.805664
 11
267.440826
 21
221.764648
  0
LINE
  8
0
 10
265.973785
 20
222.305664
 11
266.574799
 21
221.264648
  0
LINE
  8
0
 10
275.601044
 20
145.369247
 11
273.716522
 21
148.633347
  0
LINE
  8
0
 10
268.672852
 20
141.369247
 11
267.622864
 21
143.187836
  0
LINE
  8
0
 10
273.291626
 20
141.369247
 11
268.672852
 21
141.369247
  0
LINE
  8
0
 10
275.601044
 20
145.369247
 11
273.291626
 21
141.369247
  0
LINE
  8
0
 10
283.755554
 20
244.441132
 11
283.036163
 21
241.756317
  0
LINE
  8
0
 10
298.244446
 20
244.441162
 11
298.963837
 21
241.756332
  0
LINE
  8
0
 10
283.755554
 20
115.558868
 11
283.036163
 21
118.243683
  0
LINE
  8
0
 10
298.244415
 20
115.558868
 11
298.963806
 21
118.243683
  0
LINE
  8
0
 10
340.500610
 20
142.224945
 11
343.185425
 21
141.505554
  0
LINE
  8
0
 10
348.464478
 20
156.018707
 11
350.429871
 21
154.053299
  0
LINE
  8
0
 10
348.464478
 20
203.981232
 11
350.429932
 21
205.946671
  0
LINE
  8
0
 10
340.500671
 20
217.775055
 11
343.185455
 21
218.494431
  0
LINE
  8
0
 10
347.000000
 20
159.554230
 11
347.000000
 21
172.500000
  0
LINE
  8
0
 10
336.706604
 20
218.274597
 11
325.494812
 21
224.747711
  0
LINE
  8
0
 10
280.706512
 20
121.279648
 11
269.494781
 21
127.752747
  0
LINE
  8
0
 10
301.293457
 20
121.279709
 11
312.504730
 21
127.752541
  0
LINE
  8
0
 10
290.326874
 20
168.369461
 11
279.369476
 21
179.326874
  0
LINE
  8
0
 10
291.673126
 20
168.369461
 11
302.630554
 21
179.326874
  0
LINE
  8
0
 10
279.369476
 20
180.673111
 11
290.326874
 21
191.630539
  0
LINE
  8
0
 10
302.630524
 20
180.673126
 11
291.673126
 21
191.630539
  0
LINE
  8
0
 10
291.673096
 20
191.630539
 11
292.027496
 21
192.407532
  0
LINE
  8
0
 10
290.326874
 20
191.630539
 11
289.972504
 21
192.407532
  0
LINE
  8
0
 10
278.592468
 20
181.027496
 11
279.369446
 21
180.673111
  0
LINE
  8
0
 10
278.592468
 20
178.972488
 11
279.369476
 21
179.326874
  0
LINE
  8
0
 10
289.972504
 20
167.592468
 11
290.326904
 21
168.369461
  0
LINE
  8
0
 10
292.027496
 20
167.592468
 11
291.673126
 21
168.369461
  0
LINE
  8
0
 10
303.407532
 20
178.972504
 11
302.630554
 21
179.326874
  0
LINE
  8
0
 10
302.630524
 20
180.673126
 11
303.407532
 21
181.027512
  0
LINE
  8
0
 10
269.495300
 20
232.247467
 11
280.706543
 21
238.720276
  0
LINE
  8
0
 10
312.505219
 20
232.247253
 11
301.293488
 21
238.720367
  0
LINE
  8
0
 10
347.000000
 20
187.500000
 11
347.000000
 21
200.445709
  0
LINE
  8
0
 10
325.495300
 20
135.252655
 11
336.706512
 21
141.725464
  0
ARC
  8
0
 10
291.000000
 20
180.000000
 40
67.999992
 50
215.360748
 51
220.783234
  0
ARC
  8
0
 10
252.501572
 20
178.682983
 40
15.000001
 50
324.999969
 51
9.120505
  0
ARC
  8
0
 10
289.682983
 20
141.501572
 40
14.999993
 50
80.879440
 51
124.999977
  0
ARC
  8
0
 10
265.473602
 20
133.967499
 40
5.000005
 50
135.000244
 51
164.913086
  0
ARC
  8
0
 10
244.967499
 20
154.473587
 40
4.999991
 50
303.912506
 51
314.999878
  0
ARC
  8
0
 10
278.979187
 20
180.000000
 40
1.000012
 50
135.000626
 51
224.999374
  0
ARC
  8
0
 10
291.000000
 20
167.979187
 40
0.999990
 50
225.000626
 51
314.999390
  0
ARC
  8
0
 10
303.020813
 20
180.000000
 40
1.000012
 50
315.000610
 51
44.999382
  0
ARC
  8
0
 10
291.000000
 20
192.020813
 40
0.999990
 50
45.000618
 51
134.999374
  0
ARC
  8
0
 10
303.727936
 20
180.000000
 40
0.999990
 50
314.999390
 51
45.000618
  0
ARC
  8
0
 10
291.000000
 20
192.727921
 40
0.999990
 50
45.000618
 51
134.999374
  0
ARC
  8
0
 10
278.272064
 20
180.000000
 40
0.999990
 50
134.999374
 51
225.000626
  0
ARC
  8
0
 10
291.000000
 20
167.272079
 40
0.999990
 50
225.000626
 51
314.999390
  0
ARC
  8
0
 10
291.000000
 20
180.000000
 40
68.000000
 50
229.216690
 51
234.639374
  0
CIRCLE
  8
0
 10
236.027588
 20
234.972412
 40
2.500000
  0
CIRCLE
  8
0
 10
236.027588
 20
234.972412
 40
2.000000
  0
ARC
  8
0
 10
227.118042
 20
238.932220
 40
0.499990
 50
135.000000
 51
225.001236
  0
ARC
  8
0
 10
232.067810
 20
243.881973
 40
0.500001
 50
45.001236
 51
135.000000
  0
ARC
  8
0
 10
234.047699
 20
244.730499
 40
0.500001
 50
44.998764
 51
135.000000
  0
ARC
  8
0
 10
226.269531
 20
236.952332
 40
0.499990
 50
135.000000
 51
225.001236
  0
ARC
  8
0
 10
231.122055
 20
239.877960
 40
3.519527
 50
94.156708
 51
175.843292
  0
ARC
  8
0
 10
275.272034
 20
195.727982
 40
36.000000
 50
124.597832
 51
127.016434
  0
CIRCLE
  8
0
 10
236.027573
 20
125.027596
 40
2.500000
  0
CIRCLE
  8
0
 10
236.027573
 20
125.027596
 40
2.000000
  0
ARC
  8
0
 10
232.067780
 20
116.118042
 40
0.499990
 50
225.000000
 51
315.000000
  0
ARC
  8
0
 10
227.118027
 20
121.067810
 40
0.500006
 50
135.000626
 51
224.999374
  0
ARC
  8
0
 10
226.269501
 20
123.047714
 40
0.499990
 50
135.000000
 51
225.001236
  0
ARC
  8
0
 10
234.047668
 20
115.269539
 40
0.499995
 50
225.000626
 51
315.000610
  0
ARC
  8
0
 10
231.122040
 20
120.122055
 40
3.519527
 50
184.156708
 51
265.843292
  0
CIRCLE
  8
0
 10
228.066422
 20
155.251266
 40
6.500000
  0
CIRCLE
  8
0
 10
228.066422
 20
204.748749
 40
6.500000
  0
CIRCLE
  8
0
 10
242.915665
 20
180.000000
 40
0.500000
  0
CIRCLE
  8
0
 10
242.915665
 20
180.000000
 40
11.250000
  0
ARC
  8
0
 10
228.773529
 20
154.544159
 40
14.999998
 50
295.326050
 51
334.673859
  0
ARC
  8
0
 10
239.380127
 20
216.062454
 40
14.999998
 50
25.326059
 51
64.673859
  0
CIRCLE
  8
0
 10
209.681641
 20
173.636047
 40
2.500000
  0
CIRCLE
  8
0
 10
209.681641
 20
173.636047
 40
2.250000
  0
CIRCLE
  8
0
 10
209.681641
 20
173.636047
 40
5.000000
  0
CIRCLE
  8
0
 10
209.681641
 20
186.363968
 40
2.500000
  0
CIRCLE
  8
0
 10
209.681641
 20
186.363968
 40
2.250000
  0
CIRCLE
  8
0
 10
209.681641
 20
186.363968
 40
5.000000
  0
ARC
  8
0
 10
242.915665
 20
165.000000
 40
3.999994
 50
227.166687
 51
312.833313
  0
ARC
  8
0
 10
242.915665
 20
195.000000
 40
4.000004
 50
47.166527
 51
132.833481
  0
ARC
  8
0
 10
242.915665
 20
180.000000
 40
15.000003
 50
132.833435
 51
154.158020
  0
ARC
  8
0
 10
242.915665
 20
180.000000
 40
15.000003
 50
312.833435
 51
334.158051
  0
ARC
  8
0
 10
242.915665
 20
195.000000
 40
4.000004
 50
47.166527
 51
90.000000
  0
ARC
  8
0
 10
242.915665
 20
180.000000
 40
14.999999
 50
205.841919
 51
227.166595
  0
ARC
  8
0
 10
242.915665
 20
180.000000
 40
14.999985
 50
25.841948
 51
47.166557
  0
ARC
  8
0
 10
291.000000
 20
180.000000
 40
51.000000
 50
113.876205
 51
140.871994
  0
ARC
  8
0
 10
274.000000
 20
141.594269
 40
8.999997
 50
246.123810
 51
0.000000
  0
ARC
  8
0
 10
274.000000
 20
218.405731
 40
9.000000
 50
0.000000
 51
113.876190
  0
ARC
  8
0
 10
245.231461
 20
217.232254
 40
8.000009
 50
288.428314
 51
320.871948
  0
CIRCLE
  8
0
 10
228.066422
 20
155.251266
 40
6.200000
  0
CIRCLE
  8
0
 10
228.066422
 20
204.748749
 40
6.200000
  0
ARC
  8
0
 10
230.471436
 20
138.776535
 40
4.100000
 50
255.000015
 51
315.000000
  0
ARC
  8
0
 10
230.541138
 20
138.846252
 40
4.100002
 50
315.000000
 51
14.999986
  0
ARC
  8
0
 10
244.471436
 20
152.776535
 40
4.100000
 50
255.000015
 51
315.000000
  0
ARC
  8
0
 10
244.541153
 20
152.846252
 40
4.100002
 50
315.000000
 51
14.999986
  0
ARC
  8
0
 10
244.541168
 20
207.153763
 40
4.100000
 50
345.000000
 51
44.999847
  0
ARC
  8
0
 10
244.471451
 20
207.223480
 40
4.099991
 50
44.999847
 51
104.999985
  0
ARC
  8
0
 10
230.541153
 20
221.153763
 40
4.100000
 50
345.000000
 51
45.000000
  0
ARC
  8
0
 10
230.471436
 20
221.223480
 40
4.100002
 50
45.000000
 51
104.999985
  0
CIRCLE
  8
0
 10
242.915665
 20
180.000000
 40
11.800000
  0
ARC
  8
0
 10
246.452271
 20
139.694916
 40
2.000002
 50
45.000000
 51
135.000000
  0
ARC
  8
0
 10
250.694916
 20
135.452271
 40
2.000002
 50
315.000000
 51
45.000000
  0
CIRCLE
  8
0
 10
246.452271
 20
135.452271
 40
3.500000
  0
ARC
  8
0
 10
291.000000
 20
180.000000
 40
56.500000
 50
142.622147
 51
146.370392
  0
ARC
  8
0
 10
291.000000
 20
180.000000
 40
50.999996
 50
235.735458
 51
246.123795
  0
ARC
  8
0
 10
291.000000
 20
180.000000
 40
56.500004
 50
235.586334
 51
129.922928
  0
CIRCLE
  8
0
 10
311.000000
 20
214.641022
 40
5.500000
  0
ARC
  8
0
 10
271.000000
 20
145.399994
 40
7.999989
 50
219.089813
 51
42.834400
  0
ARC
  8
0
 10
271.000000
 20
145.399994
 40
6.999986
 50
218.241730
 51
43.962254
  0
ARC
  8
0
 10
271.000000
 20
145.399994
 40
9.199994
 50
219.862885
 51
236.884567
  0
CIRCLE
  8
0
 10
242.915665
 20
165.000000
 40
2.850000
  0
CIRCLE
  8
0
 10
271.000000
 20
214.600006
 40
8.000000
  0
CIRCLE
  8
0
 10
271.000000
 20
214.600006
 40
7.000000
  0
ARC
  8
0
 10
271.000000
 20
214.600006
 40
9.200000
 50
123.115440
 51
116.884552
  0
CIRCLE
  8
0
 10
242.915665
 20
195.000000
 40
2.850000
  0
ARC
  8
0
 10
271.000000
 20
145.399994
 40
9.199999
 50
243.115448
 51
41.807308
  0
ARC
  8
0
 10
291.000000
 20
180.000000
 40
22.500002
 50
111.089218
 51
173.942459
  0
CIRCLE
  8
0
 10
311.000031
 20
214.640991
 40
5.000000
  0
CIRCLE
  8
0
 10
311.000031
 20
214.640991
 40
4.250000
  0
ARC
  8
0
 10
291.000000
 20
242.500000
 40
7.499974
 50
15.000086
 51
164.999969
  0
ARC
  8
0
 10
291.000000
 20
117.500000
 40
7.500003
 50
195.000031
 51
344.999969
  0
ARC
  8
0
 10
345.126587
 20
148.750000
 40
7.499999
 50
255.000092
 51
44.999836
  0
ARC
  8
0
 10
345.126587
 20
211.249985
 40
7.500008
 50
315.000092
 51
104.999916
  0
ARC
  8
0
 10
278.206512
 20
243.050415
 40
4.999997
 50
300.000031
 51
344.999939
  0
ARC
  8
0
 10
278.206543
 20
116.949585
 40
4.999990
 50
14.999971
 51
59.999981
  0
ARC
  8
0
 10
303.793457
 20
116.949570
 40
4.999989
 50
119.999672
 51
164.999939
  0
ARC
  8
0
 10
339.206512
 20
137.395325
 40
4.999992
 50
74.999947
 51
120.000015
  0
ARC
  8
0
 10
352.000000
 20
159.554230
 40
5.000000
 50
180.000000
 51
225.000000
  0
ARC
  8
0
 10
352.000000
 20
200.445709
 40
4.999984
 50
135.000000
 51
180.000000
  0
ARC
  8
0
 10
339.206573
 20
222.604675
 40
5.000010
 50
240.000076
 51
284.999664
  0
ARC
  8
0
 10
303.793457
 20
243.050415
 40
4.999992
 50
195.000061
 51
239.999985
  0
ARC
  8
0
 10
291.000000
 20
180.000000
 40
70.749992
 50
216.991135
 51
220.947433
  0
ARC
  8
0
 10
291.000000
 20
180.000000
 40
12.450004
 50
175.266006
 51
184.733994
  0
ARC
  8
0
 10
291.000000
 20
180.000000
 40
11.649986
 50
176.687653
 51
183.312347
  0
ARC
  8
0
 10
291.000000
 20
180.000000
 40
11.650002
 50
266.687653
 51
273.312347
  0
ARC
  8
0
 10
291.000000
 20
180.000000
 40
11.649986
 50
356.687653
 51
3.312271
  0
ARC
  8
0
 10
291.000000
 20
180.000000
 40
11.650002
 50
86.687660
 51
93.312340
  0
ARC
  8
0
 10
291.000000
 20
180.000000
 40
12.450004
 50
265.265991
 51
274.734009
  0
ARC
  8
0
 10
291.000000
 20
180.000000
 40
12.450004
 50
355.265991
 51
4.734064
  0
ARC
  8
0
 10
291.000000
 20
180.000000
 40
12.450004
 50
85.266006
 51
94.734131
  0
ARC
  8
0
 10
291.000000
 20
180.000000
 40
70.750000
 50
229.052521
 51
130.947449
  0
ARC
  8
0
 10
291.000000
 20
180.000000
 40
70.750000
 50
139.052551
 51
143.145630
  0
ENDSEC
  0
EOF
