  0
SECTION
  2
HEADER
  0
ENDSEC
  0
SECTION
  2
TABLES
  0
TABLE
  2
LTYPE
 70
     4
  0
LTYPE
  2
CONTINUOUS
 70
    64
  3
Solid line
 72
    65
 73
     0
 40
0.000000
  0
LTYPE
  2
DASHED
 70
    64
  3
__ __ __ __ __ __ __ __ __ __ __ __ __ __ __
 72
    65
 73
     2
 40
3.500000
 49
2.000000
 49
-1.500000
  0
LTYPE
  2
CENTER
 70
    64
  3
____ _ ____ _ ____ _ ____ _ ____ _ ____ _ ____
 72
    65
 73
     4
 40
17.500000
 49
13.000000
 49
-1.500000
 49
1.500000
 49
-1.500000
  0
LTYPE
  2
PHANTOM
 70
    64
  3
_____ _ _ _____ _ _ _____ _ _ _____ _ _ ____  
 72
    65
 73
     6
 40
15.500000
 49
8.000000
 49
-1.500000
 49
1.500000
 49
-1.500000
 49
1.500000
 49
-1.500000
  0
LTYPE
  2
DASHED1
 70
    64
  3
__ __ __ __ __ __ __ __ __ __ __ __ __ __ __
 72
    65
 73
     2
 40
1.500000
 49
1.000000
 49
-0.500000
  0
LTYPE
  2
DASHED2
 70
    64
  3
__ __ __ __ __ __ __ __ __ __ __ __ __ __ __
 72
    65
 73
     2
 40
3.500000
 49
2.500000
 49
-1.000000
  0
LTYPE
  2
DASHED3
 70
    64
  3
__ __ __ __ __ __ __ __ __ __ __ __ __ __ __
 72
    65
 73
     2
 40
6.000000
 49
4.000000
 49
-2.000000
  0
LTYPE
  2
DASHED4
 70
    64
  3
__ __ __ __ __ __ __ __ __ __ __ __ __ __ __
 72
    65
 73
     2
 40
12.000000
 49
10.000000
 49
-2.000000
  0
LTYPE
  2
DASHED5
 70
    64
  3
__ __ __ __ __ __ __ __ __ __ __ __ __ __ __
 72
    65
 73
     2
 40
17.000000
 49
15.000000
 49
-2.000000
  0
LTYPE
  2
DASHED6
 70
    64
  3
__ __ __ __ __ __ __ __ __ __ __ __ __ __ __
 72
    65
 73
     2
 40
29.000000
 49
27.000000
 49
-2.000000
  0
LTYPE
  2
PHANTOM1
 70
    64
  3
_____ _ _ _____ _ _ _____ _ _ _____ _ _ ____  
 72
    65
 73
     6
 40
31.000000
 49
25.000000
 49
-1.500000
 49
1.000000
 49
-1.000000
 49
1.000000
 49
-1.500000
  0
LTYPE
  2
PHANTOM2
 70
    64
  3
_____ _ _ _____ _ _ _____ _ _ _____ _ _ ____  
 72
    65
 73
     6
 40
36.000000
 49
27.000000
 49
-1.500000
 49
2.500000
 49
-1.000000
 49
2.500000
 49
-1.500000
  0
LTYPE
  2
PHANTOM3
 70
    64
  3
_____ _ _ _____ _ _ _____ _ _ _____ _ _ ____  
 72
    65
 73
     6
 40
78.000000
 49
64.000000
 49
-2.000000
 49
4.000000
 49
-2.000000
 49
4.000000
 49
-2.000000
  0
LTYPE
  2
CENTER1
 70
    64
  3
____ _ ____ _ ____ _ ____ _ ____ _ ____ _ ____
 72
    65
 73
     4
 40
19.000000
 49
14.000000
 49
-1.000000
 49
3.000000
 49
-1.000000
  0
LTYPE
  2
CENTER2
 70
    64
  3
____ _ ____ _ ____ _ ____ _ ____ _ ____ _ ____
 72
    65
 73
     4
 40
28.500000
 49
25.000000
 49
-1.000000
 49
1.500000
 49
-1.000000
  0
LTYPE
  2
CENTER3
 70
    64
  3
____ _ ____ _ ____ _ ____ _ ____ _ ____ _ ____
 72
    65
 73
     4
 40
31.500000
 49
27.000000
 49
-1.000000
 49
2.500000
 49
-1.000000
  0
LTYPE
  2
CENTER4
 70
    64
  3
____ _ ____ _ ____ _ ____ _ ____ _ ____ _ ____
 72
    65
 73
     4
 40
50.000000
 49
45.000000
 49
-1.000000
 49
3.000000
 49
-1.000000
  0
LTYPE
  2
CENTER5
 70
    64
  3
____ _ ____ _ ____ _ ____ _ ____ _ ____ _ ____
 72
    65
 73
     4
 40
100.000000
 49
92.000000
 49
-2.000000
 49
4.000000
 49
-2.000000
  0
LTYPE
  2
SBK1
 70
    64
  3
______ _ _ _ ______ _ _ _ ______ _ _ _ _____  
 72
    65
 73
     8
 40
60.500000
 49
45.000000
 49
-2.000000
 49
2.500000
 49
-2.000000
 49
2.500000
 49
-2.000000
 49
2.500000
 49
-2.000000
  0
LTYPE
  2
SBK2
 70
    64
  3
______ _ _ _ ______ _ _ _ ______ _ _ _ _____  
 72
    65
 73
     8
 40
84.000000
 49
64.000000
 49
-2.000000
 49
4.000000
 49
-2.000000
 49
4.000000
 49
-2.000000
 49
4.000000
 49
-2.000000
  0
LTYPE
  2
STCH
 70
    64
  3
__ __ __ __ __ __ __ __ __ __ __ __ __ __ __
 72
    65
 73
     2
 40
3.000000
 49
1.000000
 49
-2.000000
  0
LTYPE
  2
MTCH
 70
    64
  3
_____ _ _ _____ _ _ _____ _ _ _____ _ _ ____  
 72
    65
 73
     6
 40
80.000000
 49
66.000000
 49
-2.000000
 49
4.000000
 49
-2.000000
 49
4.000000
 49
-2.000000
  0
ENDTAB
  0
TABLE
  2
LAYER
 70
     1
  0
LAYER
  2
0
 70
     0
 62
     7
  6
CONTINUOUS
  0
ENDTAB
  0
TABLE
  2
STYLE
 70
     1
  0
STYLE
  2
STANDARD
 70
     0
 40
0.000000
 41
1.000000
 50
0.000000
 71
     0
 42
0.200000
  3
txt
  4
BIGFONT
  0
ENDTAB
  0
TABLE
  2
VIEW
 70
     0
  0
ENDTAB
  0
ENDSEC
  0
SECTION
  2
BLOCKS
  0
ENDSEC
  0
SECTION
  2
ENTITIES
  0
LINE
  8
0
 10
-420.500000
 20
297.000000
 11
420.500000
 21
297.000000
  0
LINE
  8
0
 10
-420.500000
 20
-297.000000
 11
420.500000
 21
-297.000000
  0
LINE
  8
0
 10
420.500000
 20
297.000000
 11
420.500000
 21
-297.000000
  0
LINE
  8
0
 10
-420.500000
 20
297.000000
 11
-420.500000
 21
-297.000000
  0
LINE
  8
0
 10
399.799988
 20
276.250000
 11
399.799988
 21
-276.750000
  0
LINE
  8
0
 10
-399.250000
 20
276.250000
 11
-399.250000
 21
-276.750000
  0
LINE
  8
0
 10
-399.250000
 20
276.250000
 11
399.799988
 21
276.250000
  0
LINE
  8
0
 10
-399.250000
 20
-276.750000
 11
399.799988
 21
-276.750000
  0
LINE
  8
0
 10
-399.250000
 20
261.250000
 11
-299.250000
 21
261.250000
  0
LINE
  8
0
 10
-299.250000
 20
276.250000
 11
-299.250000
 21
261.250000
  0
LINE
  8
0
 10
299.799988
 20
-256.750000
 11
399.799988
 21
-256.750000
  0
LINE
  8
0
 10
299.799988
 20
-256.750000
 11
299.799988
 21
-276.750000
  0
LINE
  8
0
 10
-399.250000
 20
-261.750000
 11
115.274994
 21
-261.750000
  0
LINE
  8
0
 10
-399.250000
 20
-100.250000
 11
-249.725006
 21
-100.250000
  0
LINE
  8
0
 10
-399.250000
 20
-85.250000
 11
-249.725006
 21
-85.250000
  0
LINE
  8
0
 10
299.799988
 20
261.250000
 11
399.799988
 21
261.250000
  0
LINE
  8
0
 10
299.799988
 20
276.250000
 11
299.799988
 21
261.250000
  0
LINE
  8
0
 10
115.274994
 20
-85.250000
 11
399.799988
 21
-85.250000
  0
LINE
  8
0
 10
115.274994
 20
-100.250000
 11
399.799988
 21
-100.250000
  0
LINE
  8
0
 10
-199.725006
 20
76.250000
 11
-9.724976
 21
76.250000
  0
LINE
  8
0
 10
-249.725006
 20
-100.250000
 11
-249.725006
 21
26.250006
  0
LINE
  8
0
 10
-199.725021
 20
76.250015
 11
-249.725037
 21
26.250013
  0
LINE
  8
0
 10
-9.724977
 20
76.250000
 11
115.275002
 21
-48.749962
  0
LINE
  8
0
 10
115.274994
 20
-276.750000
 11
115.274994
 21
-48.749962
  0
LINE
  8
0
 10
-9.724976
 20
76.250000
 11
-9.724976
 21
276.250000
  0
TEXT
  8
0
 10
-394.856873
 20
264.350006
 40
6.000000
  1
ROTARY ACTUATER
 50
0.000000
 41
1.052631
 51
0.000000
  7
STANDARD
  0
TEXT
  8
0
 10
303.465027
 20
-271.149994
 40
6.000000
  1
ＫＯＧＡＮＥＩ，ＣＯＲＰ．
 50
0.000000
 41
0.902367
 51
15.000000
  7
STANDARD
  0
TEXT
  8
0
 10
157.293121
 20
-97.025002
 40
6.000000
  1
SWING ANGLE : 270 DEGREE
 50
0.000000
 41
1.052631
 51
0.000000
  7
STANDARD
  0
TEXT
  8
0
 10
-399.231873
 20
-97.025002
 40
6.000000
  1
SWING ANGLE : 90 DEGREE
 50
0.000000
 41
1.052632
 51
0.000000
  7
STANDARD
  0
TEXT
  8
0
 10
-272.094391
 20
-273.649994
 40
6.000000
  1
SWING ANGLE : 180 DEGREE
 50
0.000000
 41
1.052631
 51
0.000000
  7
STANDARD
  0
TEXT
  8
0
 10
181.498459
 20
-187.711563
 40
6.000000
  1
MODEL : RAK300-UK
 50
0.000000
 41
1.052632
 51
0.000000
  7
STANDARD
  0
TEXT
  8
0
 10
304.193115
 20
264.350006
 40
6.000000
  1
DATE: MAY ,1992
 50
0.000000
 41
1.052632
 51
0.000000
  7
STANDARD
  0
POINT
  8
0
 10
-335.000000
 20
185.000000
  0
POINT
  8
0
 10
-272.500000
 20
185.000000
  0
LINE
  8
0
 10
-330.500000
 20
139.038055
 11
-288.500000
 21
139.038055
  0
LINE
  8
0
 10
-330.500000
 20
230.961945
 11
-288.500000
 21
230.961945
  0
LINE
  8
0
 10
-335.000000
 20
137.594269
 11
-330.500000
 21
137.594269
  0
LINE
  8
0
 10
-335.000000
 20
232.405731
 11
-330.500000
 21
232.405731
  0
LINE
  8
0
 10
-335.000000
 20
232.405731
 11
-335.000000
 21
137.594269
  0
LINE
  8
0
 10
-330.500000
 20
232.405731
 11
-330.500000
 21
137.594269
  0
LINE
  8
0
 10
-288.500000
 20
230.961929
 11
-288.500000
 21
139.038040
  0
LINE
  8
0
 10
-283.500000
 20
194.013550
 11
-283.500000
 21
186.366959
  0
LINE
  8
0
 10
-276.500000
 20
193.563934
 11
-276.500000
 21
189.163940
  0
LINE
  8
0
 10
-286.500000
 20
203.723694
 11
-286.500000
 21
196.461639
  0
LINE
  8
0
 10
-272.500000
 20
196.049988
 11
-272.500000
 21
173.949982
  0
LINE
  8
0
 10
-288.500000
 20
172.905563
 11
-283.950012
 21
172.905563
  0
LINE
  8
0
 10
-288.500000
 20
176.380157
 11
-283.950012
 21
176.380157
  0
LINE
  8
0
 10
-288.500000
 20
182.110626
 11
-283.950012
 21
182.110626
  0
LINE
  8
0
 10
-288.500000
 20
184.366501
 11
-283.950012
 21
184.366501
  0
LINE
  8
0
 10
-288.500000
 20
186.467743
 11
-283.950012
 21
186.467743
  0
LINE
  8
0
 10
-288.500000
 20
186.266266
 11
-283.950012
 21
186.266266
  0
LINE
  8
0
 10
-288.500000
 20
191.565460
 11
-283.950012
 21
191.565460
  0
LINE
  8
0
 10
-288.500000
 20
196.461655
 11
-283.950012
 21
196.461655
  0
LINE
  8
0
 10
-283.500000
 20
193.863953
 11
-276.799988
 21
193.863953
  0
LINE
  8
0
 10
-283.500000
 20
188.863953
 11
-276.799988
 21
188.863953
  0
LINE
  8
0
 10
-283.500000
 20
181.136032
 11
-276.799988
 21
181.136032
  0
LINE
  8
0
 10
-283.500000
 20
176.136032
 11
-276.799988
 21
176.136032
  0
LINE
  8
0
 10
-276.500000
 20
180.836014
 11
-276.500000
 21
176.436020
  0
LINE
  8
0
 10
-283.500000
 20
183.238556
 11
-283.500000
 21
174.642853
  0
LINE
  8
0
 10
-276.799988
 20
176.136002
 11
-276.500000
 21
176.436005
  0
LINE
  8
0
 10
-276.799988
 20
181.136032
 11
-276.499969
 21
180.836044
  0
LINE
  8
0
 10
-276.499969
 20
189.163925
 11
-276.799988
 21
188.863922
  0
LINE
  8
0
 10
-276.799957
 20
193.863968
 11
-276.499969
 21
193.563965
  0
LINE
  8
0
 10
-276.799988
 20
176.136017
 11
-276.799988
 21
181.136017
  0
LINE
  8
0
 10
-276.799988
 20
188.863953
 11
-276.799988
 21
193.863953
  0
LINE
  8
0
 10
-276.549988
 20
176.386047
 11
-283.500000
 21
176.386047
  0
LINE
  8
0
 10
-276.550018
 20
180.886047
 11
-283.500000
 21
180.886047
  0
LINE
  8
0
 10
-276.549988
 20
189.113953
 11
-283.500000
 21
189.113953
  0
LINE
  8
0
 10
-276.549988
 20
193.613953
 11
-283.500000
 21
193.613953
  0
LINE
  8
0
 10
-283.950012
 20
173.750000
 11
-272.700012
 21
173.750000
  0
LINE
  8
0
 10
-284.323395
 20
196.250000
 11
-272.700012
 21
196.250000
  0
LINE
  8
0
 10
-272.699982
 20
173.749969
 11
-272.500000
 21
173.949982
  0
LINE
  8
0
 10
-272.500000
 20
196.049957
 11
-272.700012
 21
196.249954
  0
LINE
  8
0
 10
-286.500000
 20
172.905548
 11
-286.500000
 21
166.276276
  0
LINE
  8
0
 10
-286.500000
 20
186.266251
 11
-286.500000
 21
184.366486
  0
LINE
  8
0
 10
-330.500000
 20
168.276108
 11
-288.500000
 21
168.276108
  0
LINE
  8
0
 10
-330.500000
 20
201.723618
 11
-288.500000
 21
201.723618
  0
LINE
  8
0
 10
-330.500000
 20
202.000000
 11
-335.000000
 21
202.000000
  0
LINE
  8
0
 10
-330.500000
 20
168.000000
 11
-335.000000
 21
168.000000
  0
LINE
  8
0
 10
-286.100006
 20
154.261215
 11
-286.100006
 21
166.241272
  0
LINE
  8
0
 10
-286.100006
 20
154.261215
 11
-288.500000
 21
154.051254
  0
LINE
  8
0
 10
-286.099976
 20
166.241272
 11
-288.500000
 21
166.451248
  0
LINE
  8
0
 10
-286.099976
 20
203.758698
 11
-286.099976
 21
215.738754
  0
LINE
  8
0
 10
-286.100006
 20
203.758698
 11
-288.500000
 21
203.548721
  0
LINE
  8
0
 10
-286.099976
 20
215.738770
 11
-288.500000
 21
215.948730
  0
LINE
  8
0
 10
-286.100006
 20
166.399994
 11
-286.100006
 21
172.905563
  0
LINE
  8
0
 10
-284.049988
 20
169.950699
 11
-284.049988
 21
170.049286
  0
LINE
  8
0
 10
-286.100006
 20
166.399994
 11
-286.500000
 21
166.399994
  0
LINE
  8
0
 10
-286.100006
 20
196.461655
 11
-286.100006
 21
203.599991
  0
LINE
  8
0
 10
-284.049988
 20
199.950699
 11
-284.049988
 21
200.049286
  0
LINE
  8
0
 10
-286.100006
 20
203.600006
 11
-286.500000
 21
203.600006
  0
LINE
  8
0
 10
-341.600006
 20
170.713470
 11
-341.600006
 21
161.086517
  0
LINE
  8
0
 10
-341.200012
 20
170.899994
 11
-341.200012
 21
160.899994
  0
LINE
  8
0
 10
-341.200012
 20
170.899994
 11
-335.600006
 21
170.899994
  0
LINE
  8
0
 10
-341.200012
 20
160.899994
 11
-335.600006
 21
160.899994
  0
LINE
  8
0
 10
-341.600006
 20
170.713470
 11
-341.200012
 21
170.899994
  0
LINE
  8
0
 10
-341.600006
 20
161.086517
 11
-341.200012
 21
160.899994
  0
LINE
  8
0
 10
-341.200012
 20
168.899994
 11
-338.154724
 21
168.899994
  0
LINE
  8
0
 10
-341.200012
 20
166.899994
 11
-339.309418
 21
166.899994
  0
LINE
  8
0
 10
-341.200012
 20
164.899994
 11
-340.464111
 21
164.899994
  0
LINE
  8
0
 10
-341.600006
 20
208.913483
 11
-341.600006
 21
199.286530
  0
LINE
  8
0
 10
-341.200012
 20
209.100006
 11
-341.200012
 21
199.100006
  0
LINE
  8
0
 10
-341.199982
 20
209.100006
 11
-335.599976
 21
209.100006
  0
LINE
  8
0
 10
-341.199982
 20
199.100006
 11
-335.599976
 21
199.100006
  0
LINE
  8
0
 10
-341.600006
 20
208.913483
 11
-341.200012
 21
209.100006
  0
LINE
  8
0
 10
-341.600006
 20
199.286530
 11
-341.200012
 21
199.100006
  0
LINE
  8
0
 10
-341.199982
 20
207.100006
 11
-338.154694
 21
207.100006
  0
LINE
  8
0
 10
-341.199982
 20
205.100006
 11
-339.309387
 21
205.100006
  0
LINE
  8
0
 10
-341.199982
 20
203.100006
 11
-340.464111
 21
203.100006
  0
LINE
  8
0
 10
-341.600006
 20
228.713470
 11
-341.600006
 21
219.086517
  0
LINE
  8
0
 10
-341.199982
 20
228.899994
 11
-341.199982
 21
218.899994
  0
LINE
  8
0
 10
-341.199982
 20
228.899994
 11
-335.599976
 21
228.899994
  0
LINE
  8
0
 10
-341.199982
 20
218.899994
 11
-335.599976
 21
218.899994
  0
LINE
  8
0
 10
-341.600006
 20
228.713486
 11
-341.199982
 21
228.900009
  0
LINE
  8
0
 10
-341.599976
 20
219.086533
 11
-341.199982
 21
218.900009
  0
LINE
  8
0
 10
-341.199982
 20
226.899994
 11
-338.154694
 21
226.899994
  0
LINE
  8
0
 10
-341.199982
 20
224.899994
 11
-339.309387
 21
224.899994
  0
LINE
  8
0
 10
-341.199982
 20
222.899994
 11
-340.464111
 21
222.899994
  0
LINE
  8
0
 10
-341.600006
 20
150.913483
 11
-341.600006
 21
141.286530
  0
LINE
  8
0
 10
-341.200012
 20
151.100006
 11
-341.200012
 21
141.100006
  0
LINE
  8
0
 10
-341.200012
 20
151.100006
 11
-335.600006
 21
151.100006
  0
LINE
  8
0
 10
-341.200012
 20
141.100006
 11
-335.600006
 21
141.100006
  0
LINE
  8
0
 10
-341.600006
 20
150.913452
 11
-341.200012
 21
151.099976
  0
LINE
  8
0
 10
-341.600006
 20
141.286514
 11
-341.200012
 21
141.099991
  0
LINE
  8
0
 10
-341.200012
 20
149.100006
 11
-338.154724
 21
149.100006
  0
LINE
  8
0
 10
-341.200012
 20
147.100006
 11
-339.309418
 21
147.100006
  0
LINE
  8
0
 10
-341.200012
 20
145.100006
 11
-340.464111
 21
145.100006
  0
LINE
  8
0
 10
-335.600006
 20
229.149994
 11
-335.600006
 21
218.649994
  0
LINE
  8
0
 10
-335.600006
 20
140.850006
 11
-335.000000
 21
140.850006
  0
LINE
  8
0
 10
-335.600006
 20
151.350006
 11
-335.000000
 21
151.350006
  0
LINE
  8
0
 10
-335.600006
 20
160.649994
 11
-335.000000
 21
160.649994
  0
LINE
  8
0
 10
-335.600006
 20
171.149994
 11
-335.000000
 21
171.149994
  0
LINE
  8
0
 10
-335.599976
 20
198.850006
 11
-335.000000
 21
198.850006
  0
LINE
  8
0
 10
-335.599976
 20
209.350006
 11
-335.000000
 21
209.350006
  0
LINE
  8
0
 10
-335.599976
 20
218.649994
 11
-335.000000
 21
218.649994
  0
LINE
  8
0
 10
-335.599976
 20
229.149994
 11
-335.000000
 21
229.149994
  0
LINE
  8
0
 10
-335.600006
 20
171.149994
 11
-335.600006
 21
160.649994
  0
LINE
  8
0
 10
-335.600006
 20
151.350006
 11
-335.600006
 21
140.850006
  0
LINE
  8
0
 10
-335.600006
 20
209.350006
 11
-335.600006
 21
198.850006
  0
LINE
  8
0
 10
-313.500000
 20
240.397537
 11
-305.500000
 21
240.397537
  0
LINE
  8
0
 10
-313.500000
 20
132.088211
 11
-305.500000
 21
132.088211
  0
LINE
  8
0
 10
-315.500000
 20
238.397537
 11
-315.500000
 21
230.961945
  0
LINE
  8
0
 10
-303.500000
 20
238.397537
 11
-303.500000
 21
230.961945
  0
LINE
  8
0
 10
-315.500000
 20
139.038055
 11
-315.500000
 21
134.088211
  0
LINE
  8
0
 10
-303.500000
 20
139.038055
 11
-303.500000
 21
134.088211
  0
ARC
  8
0
 10
-287.078552
 20
174.642853
 40
3.578573
 50
330.956451
 51
29.043333
  0
ARC
  8
0
 10
-292.846802
 20
179.245377
 40
9.346787
 50
342.148712
 51
17.851290
  0
ARC
  8
0
 10
-285.138611
 20
183.238556
 40
1.638627
 50
316.500549
 51
43.499054
  0
ARC
  8
0
 10
-290.384155
 20
194.013550
 40
6.884148
 50
339.168732
 51
20.831264
  0
ARC
  8
0
 10
-290.943542
 20
189.016586
 40
7.443554
 50
339.975433
 51
20.024780
  0
ARC
  8
0
 10
-299.250183
 20
160.251251
 40
14.450173
 50
335.510315
 51
24.489626
  0
ARC
  8
0
 10
-299.250153
 20
209.748718
 40
14.450173
 50
335.510315
 51
24.489681
  0
ARC
  8
0
 10
-288.149994
 20
169.950699
 40
4.099995
 50
299.999847
 51
0.000000
  0
ARC
  8
0
 10
-288.149994
 20
170.049286
 40
4.100006
 50
0.000000
 51
44.159069
  0
ARC
  8
0
 10
-288.149994
 20
199.950699
 40
4.099995
 50
301.680756
 51
0.000000
  0
ARC
  8
0
 10
-288.149994
 20
200.049286
 40
4.100006
 50
0.000000
 51
60.000153
  0
CIRCLE
  8
0
 10
-323.500000
 20
185.000000
 40
2.700000
  0
ARC
  8
0
 10
-313.500000
 20
238.397537
 40
2.000000
 50
90.000000
 51
180.000000
  0
ARC
  8
0
 10
-313.500000
 20
134.088211
 40
2.000000
 50
180.000000
 51
270.000000
  0
ARC
  8
0
 10
-305.500000
 20
134.088211
 40
2.000000
 50
270.000000
 51
0.000000
  0
ARC
  8
0
 10
-305.500000
 20
238.397537
 40
2.000000
 50
0.000000
 51
90.000000
  0
ARC
  8
0
 10
-324.209900
 20
148.230438
 40
1.309888
 50
345.893188
 51
14.106174
  0
ARC
  8
0
 10
-324.552338
 20
148.104904
 40
1.673029
 50
15.417593
 51
51.387524
  0
ARC
  8
0
 10
-325.500000
 20
146.720383
 40
3.348563
 50
53.501526
 51
126.497902
  0
ARC
  8
0
 10
-326.447662
 20
148.104904
 40
1.673044
 50
128.611328
 51
164.581909
  0
ARC
  8
0
 10
-326.790100
 20
148.230438
 40
1.309888
 50
165.893173
 51
194.106171
  0
ARC
  8
0
 10
-326.447662
 20
148.355972
 40
1.673029
 50
195.417587
 51
231.387527
  0
ARC
  8
0
 10
-325.500000
 20
149.740494
 40
3.348563
 50
233.501526
 51
306.497894
  0
ARC
  8
0
 10
-324.552338
 20
148.355972
 40
1.673044
 50
308.611328
 51
344.581909
  0
ARC
  8
0
 10
-324.209930
 20
221.769562
 40
1.309918
 50
345.893494
 51
14.105849
  0
ARC
  8
0
 10
-324.552338
 20
221.644028
 40
1.673029
 50
15.417593
 51
51.388344
  0
ARC
  8
0
 10
-325.500000
 20
220.259521
 40
3.348532
 50
53.501789
 51
126.498055
  0
ARC
  8
0
 10
-326.447662
 20
221.644043
 40
1.673033
 50
128.611664
 51
164.582413
  0
ARC
  8
0
 10
-326.790070
 20
221.769562
 40
1.309918
 50
165.893509
 51
194.105850
  0
ARC
  8
0
 10
-326.447662
 20
221.895096
 40
1.673029
 50
195.417587
 51
231.388336
  0
ARC
  8
0
 10
-325.500000
 20
223.279602
 40
3.348532
 50
233.501785
 51
306.498047
  0
ARC
  8
0
 10
-324.552338
 20
221.895081
 40
1.673033
 50
308.611664
 51
344.582397
  0
ARC
  8
0
 10
-283.950012
 20
187.939301
 40
1.672821
 50
270.000000
 51
281.892426
  0
ARC
  8
0
 10
-283.638336
 20
186.497696
 40
0.198089
 50
279.604523
 51
311.583679
  0
ARC
  8
0
 10
-283.525726
 20
186.366989
 40
0.025698
 50
317.213684
 51
42.786308
  0
ARC
  8
0
 10
-283.638336
 20
186.236282
 40
0.198082
 50
48.416309
 51
80.395462
  0
ARC
  8
0
 10
-283.950012
 20
184.794678
 40
1.672822
 50
78.107574
 51
90.000000
  0
POINT
  8
0
 10
-335.000000
 20
20.000000
  0
POINT
  8
0
 10
-303.500000
 20
20.000000
  0
LINE
  8
0
 10
-335.000000
 20
28.000000
 11
-330.500000
 21
28.000000
  0
LINE
  8
0
 10
-330.500000
 20
54.000065
 11
-315.500000
 21
54.000065
  0
LINE
  8
0
 10
-330.500000
 20
85.762009
 11
-288.500000
 21
85.762009
  0
LINE
  8
0
 10
-330.500000
 20
115.000061
 11
-288.500000
 21
115.000061
  0
LINE
  8
0
 10
-288.500000
 20
106.632889
 11
-283.950012
 21
106.632889
  0
LINE
  8
0
 10
-288.500000
 20
102.021973
 11
-283.950012
 21
102.021973
  0
LINE
  8
0
 10
-288.500000
 20
96.707428
 11
-283.950012
 21
96.707428
  0
LINE
  8
0
 10
-288.500000
 20
96.003815
 11
-283.775055
 21
96.003815
  0
LINE
  8
0
 10
-283.500000
 20
103.818359
 11
-276.799988
 21
103.818359
  0
LINE
  8
0
 10
-283.500000
 20
98.818359
 11
-276.799988
 21
98.818359
  0
LINE
  8
0
 10
-288.500000
 20
54.584335
 11
-286.500000
 21
54.584335
  0
LINE
  8
0
 10
-285.255432
 20
79.334335
 11
-272.700012
 21
79.334335
  0
LINE
  8
0
 10
-286.500000
 20
56.834335
 11
-272.700012
 21
56.834335
  0
LINE
  8
0
 10
-335.000000
 20
115.000000
 11
-335.000000
 21
-26.000000
  0
LINE
  8
0
 10
-330.500000
 20
115.039062
 11
-330.500000
 21
28.000000
  0
LINE
  8
0
 10
-288.500000
 20
115.000061
 11
-288.500000
 21
54.000065
  0
LINE
  8
0
 10
-283.500000
 20
104.327438
 11
-283.500000
 21
96.355629
  0
LINE
  8
0
 10
-276.500000
 20
103.518372
 11
-276.500000
 21
99.118362
  0
LINE
  8
0
 10
-286.500000
 20
76.908562
 11
-286.500000
 21
54.584335
  0
LINE
  8
0
 10
-272.500000
 20
79.134346
 11
-272.500000
 21
57.034344
  0
LINE
  8
0
 10
-276.799957
 20
103.818413
 11
-276.499969
 21
103.518417
  0
LINE
  8
0
 10
-276.799988
 20
98.818390
 11
-276.500000
 21
99.118385
  0
LINE
  8
0
 10
-276.799988
 20
103.818367
 11
-276.799988
 21
98.818367
  0
LINE
  8
0
  6
CENTER
 10
-275.250000
 20
101.318359
 11
-289.750000
 21
101.318359
  0
LINE
  8
0
 10
-276.550018
 20
99.068359
 11
-283.500000
 21
99.068359
  0
LINE
  8
0
 10
-276.549988
 20
103.568359
 11
-283.500000
 21
103.568359
  0
LINE
  8
0
 10
-272.700073
 20
79.334290
 11
-272.500061
 21
79.134293
  0
LINE
  8
0
 10
-272.700012
 20
56.834343
 11
-272.500000
 21
57.034348
  0
LINE
  8
0
 10
-335.000000
 20
115.000000
 11
-330.500000
 21
115.000000
  0
LINE
  8
0
 10
-335.000000
 20
85.800003
 11
-330.500000
 21
85.800003
  0
LINE
  8
0
 10
-303.500000
 20
72.328728
 11
-303.500000
 21
72.237297
  0
LINE
  8
0
 10
-315.500000
 20
72.328720
 11
-315.500000
 21
72.237297
  0
LINE
  8
0
 10
-302.200500
 20
79.330345
 11
-302.200500
 21
79.040779
  0
LINE
  8
0
 10
-297.000488
 20
79.326981
 11
-297.000488
 21
79.044144
  0
LINE
  8
0
 10
-321.999512
 20
65.330330
 11
-321.999512
 21
65.040771
  0
LINE
  8
0
 10
-316.799500
 20
65.326973
 11
-316.799500
 21
65.044128
  0
LINE
  8
0
 10
-295.500000
 20
73.741432
 11
-295.600403
 21
80.769775
  0
LINE
  8
0
 10
-323.399597
 20
66.712608
 11
-323.500153
 21
73.752541
  0
LINE
  8
0
 10
-309.499634
 20
83.640671
 11
-299.448853
 21
83.567566
  0
LINE
  8
0
 10
-319.552002
 20
62.500603
 11
-315.500000
 21
62.471127
  0
LINE
  8
0
 10
-323.399567
 20
65.298416
 11
-323.500122
 21
72.338341
  0
LINE
  8
0
 10
-309.499634
 20
82.226440
 11
-299.448853
 21
82.153351
  0
LINE
  8
0
 10
-295.500061
 20
72.327209
 11
-295.600464
 21
79.355560
  0
LINE
  8
0
 10
-286.100006
 20
64.484337
 11
-286.100006
 21
71.684341
  0
LINE
  8
0
 10
-284.049988
 20
68.035042
 11
-284.049988
 21
68.133636
  0
LINE
  8
0
 10
-286.100006
 20
71.684341
 11
-286.500000
 21
71.684341
  0
LINE
  8
0
 10
-286.100006
 20
64.484337
 11
-286.500000
 21
64.484337
  0
LINE
  8
0
 10
-286.100006
 20
76.943558
 11
-286.100006
 21
88.923615
  0
LINE
  8
0
 10
-286.100006
 20
76.943565
 11
-288.500031
 21
76.733589
  0
LINE
  8
0
 10
-286.099976
 20
88.923637
 11
-288.500000
 21
89.133614
  0
LINE
  8
0
 10
-341.600006
 20
110.413475
 11
-341.600006
 21
100.786522
  0
LINE
  8
0
 10
-341.200012
 20
110.599998
 11
-341.200012
 21
100.599998
  0
LINE
  8
0
 10
-341.200012
 20
110.599998
 11
-335.600006
 21
110.599998
  0
LINE
  8
0
 10
-341.200012
 20
100.599998
 11
-335.600006
 21
100.599998
  0
LINE
  8
0
 10
-341.600037
 20
110.413490
 11
-341.200043
 21
110.600014
  0
LINE
  8
0
 10
-341.600006
 20
100.786537
 11
-341.200012
 21
100.600021
  0
LINE
  8
0
 10
-341.200012
 20
108.599998
 11
-338.154724
 21
108.599998
  0
LINE
  8
0
 10
-341.200012
 20
106.599998
 11
-339.309418
 21
106.599998
  0
LINE
  8
0
 10
-341.200012
 20
104.599998
 11
-340.464111
 21
104.599998
  0
LINE
  8
0
 10
-341.600006
 20
90.613480
 11
-341.600006
 21
80.986526
  0
LINE
  8
0
 10
-341.200012
 20
90.800003
 11
-341.200012
 21
80.800003
  0
LINE
  8
0
 10
-341.200012
 20
90.800003
 11
-335.600006
 21
90.800003
  0
LINE
  8
0
 10
-341.200012
 20
80.800003
 11
-335.600006
 21
80.800003
  0
LINE
  8
0
 10
-341.600006
 20
90.613487
 11
-341.200012
 21
90.800018
  0
LINE
  8
0
 10
-341.600006
 20
80.986565
 11
-341.199982
 21
80.800041
  0
LINE
  8
0
 10
-341.200012
 20
88.800003
 11
-338.154724
 21
88.800003
  0
LINE
  8
0
 10
-341.200012
 20
86.800003
 11
-339.309418
 21
86.800003
  0
LINE
  8
0
 10
-341.200012
 20
84.800003
 11
-340.464111
 21
84.800003
  0
LINE
  8
0
 10
-318.000000
 20
32.240784
 11
-318.000000
 21
47.681213
  0
LINE
  8
0
 10
-318.600006
 20
31.960999
 11
-318.600006
 21
47.960999
  0
LINE
  8
0
 10
-318.600006
 20
31.961000
 11
-328.000000
 21
31.961000
  0
LINE
  8
0
 10
-318.599976
 20
47.960999
 11
-328.000000
 21
47.960999
  0
LINE
  8
0
 10
-318.000000
 20
32.240776
 11
-318.600006
 21
31.960991
  0
LINE
  8
0
 10
-318.000000
 20
47.681217
 11
-318.600006
 21
47.960999
  0
LINE
  8
0
 10
-318.600006
 20
33.960999
 11
-324.495300
 21
33.960999
  0
LINE
  8
0
 10
-318.600006
 20
35.960999
 11
-323.340607
 21
35.960999
  0
LINE
  8
0
 10
-318.600006
 20
37.960999
 11
-322.185913
 21
37.960999
  0
LINE
  8
0
 10
-318.600006
 20
39.960999
 11
-321.031189
 21
39.960999
  0
LINE
  8
0
 10
-318.600006
 20
41.960999
 11
-319.876495
 21
41.960999
  0
LINE
  8
0
 10
-331.500000
 20
28.000000
 11
-331.500000
 21
-2.199997
  0
LINE
  8
0
 10
-334.600006
 20
-2.500000
 11
-331.799988
 21
-2.500000
  0
LINE
  8
0
 10
-331.500000
 20
7.500000
 11
-328.049988
 21
7.500000
  0
LINE
  8
0
 10
-331.800018
 20
-2.499979
 11
-331.500000
 21
-2.199980
  0
LINE
  8
0
 10
-328.000000
 20
30.761002
 11
-328.000000
 21
7.550005
  0
LINE
  8
0
 10
-328.000000
 20
7.550000
 11
-327.000000
 21
7.550000
  0
LINE
  8
0
 10
-328.049988
 20
7.500017
 11
-328.000000
 21
7.550016
  0
LINE
  8
0
 10
-335.600006
 20
110.849998
 11
-335.600006
 21
100.349998
  0
LINE
  8
0
 10
-328.000000
 20
49.160999
 11
-328.000000
 21
30.761002
  0
LINE
  8
0
 10
-328.000000
 20
49.160999
 11
-330.500000
 21
49.160999
  0
LINE
  8
0
 10
-328.000000
 20
30.761002
 11
-330.500000
 21
30.761002
  0
LINE
  8
0
 10
-335.600006
 20
91.050003
 11
-335.000000
 21
91.050003
  0
LINE
  8
0
 10
-335.600006
 20
80.550003
 11
-335.000000
 21
80.550003
  0
LINE
  8
0
 10
-335.600006
 20
110.849998
 11
-335.000000
 21
110.849998
  0
LINE
  8
0
 10
-335.600006
 20
100.349998
 11
-335.000000
 21
100.349998
  0
LINE
  8
0
 10
-335.600006
 20
91.050003
 11
-335.600006
 21
80.550003
  0
LINE
  8
0
 10
-330.500000
 20
38.517624
 11
-328.000000
 21
39.960999
  0
LINE
  8
0
 10
-330.500000
 20
39.672325
 11
-328.000000
 21
41.115700
  0
LINE
  8
0
 10
-303.500000
 20
73.397545
 11
-303.500000
 21
-31.355564
  0
LINE
  8
0
 10
-327.000000
 20
31.961000
 11
-327.000000
 21
-2.273861
  0
LINE
  8
0
 10
-315.500000
 20
73.397545
 11
-315.500000
 21
20.353563
  0
LINE
  8
0
 10
-313.500000
 20
75.397545
 11
-305.500000
 21
75.397545
  0
LINE
  8
0
 10
-313.500000
 20
61.296295
 11
-305.500000
 21
61.296295
  0
LINE
  8
0
 10
-313.500000
 20
51.550446
 11
-305.500000
 21
51.550446
  0
LINE
  8
0
 10
-315.500000
 20
21.435827
 11
-303.500000
 21
21.435827
  0
LINE
  8
0
 10
-315.500000
 20
-6.891668
 11
-303.500000
 21
-6.891668
  0
LINE
  8
0
 10
-313.500000
 20
-24.278366
 11
-305.500000
 21
-24.278366
  0
LINE
  8
0
 10
-313.500000
 20
-33.355564
 11
-305.500000
 21
-33.355564
  0
LINE
  8
0
 10
-327.000000
 20
-2.273861
 11
-320.499969
 21
-2.273861
  0
LINE
  8
0
 10
-315.500000
 20
46.990265
 11
-316.267883
 21
47.930706
  0
LINE
  8
0
 10
-318.600006
 20
47.930801
 11
-316.267914
 21
47.930801
  0
LINE
  8
0
 10
-318.000000
 20
43.688164
 11
-316.267944
 21
43.688164
  0
LINE
  8
0
 10
-316.267914
 20
43.688065
 11
-315.500000
 21
44.628559
  0
LINE
  8
0
 10
-318.000000
 20
45.102379
 11
-316.267914
 21
45.102379
  0
LINE
  8
0
 10
-315.690552
 20
44.395203
 11
-316.267883
 21
45.102280
  0
LINE
  8
0
 10
-316.267914
 20
47.930717
 11
-316.267914
 21
45.102287
  0
LINE
  8
0
 10
-315.500000
 20
-5.798904
 11
-315.500000
 21
-31.355564
  0
LINE
  8
0
 10
-303.500000
 20
54.000065
 11
-288.500000
 21
54.000065
  0
LINE
  8
0
 10
-327.000000
 20
22.474874
 11
-318.500000
 21
22.474874
  0
LINE
  8
0
 10
-327.000000
 20
16.818020
 11
-320.500000
 21
16.818020
  0
ARC
  8
0
 10
-283.862518
 20
96.355629
 40
0.362523
 50
256.033936
 51
103.966057
  0
ARC
  8
0
 10
-291.570740
 20
99.364700
 40
8.070724
 50
340.776855
 51
19.223158
  0
ARC
  8
0
 10
-289.630737
 20
104.327431
 40
6.130724
 50
337.910797
 51
22.089218
  0
CIRCLE
  8
0
 10
-309.500000
 20
71.619873
 40
0.010000
  0
CIRCLE
  8
0
 10
-299.600525
 20
78.301682
 40
0.010000
  0
CIRCLE
  8
0
 10
-319.399506
 20
64.301666
 40
0.010000
  0
ARC
  8
0
 10
-288.150024
 20
68.035049
 40
4.100010
 50
300.000214
 51
0.000000
  0
ARC
  8
0
 10
-288.150024
 20
68.133636
 40
4.100006
 50
0.000000
 51
59.999783
  0
ARC
  8
0
 10
-299.250183
 20
82.933578
 40
14.450170
 50
335.510345
 51
24.489708
  0
ARC
  8
0
 10
-334.600006
 20
-2.900000
 40
0.400000
 50
90.000000
 51
180.000000
  0
ARC
  8
0
 10
-305.500000
 20
59.296295
 40
2.000000
 50
0.000000
 51
90.000000
  0
ARC
  8
0
 10
-305.500000
 20
73.397545
 40
2.000000
 50
0.000000
 51
90.000000
  0
ARC
  8
0
 10
-313.500000
 20
59.296295
 40
2.000000
 50
90.000000
 51
180.000000
  0
ARC
  8
0
 10
-313.500000
 20
73.397545
 40
2.000000
 50
90.000000
 51
180.000000
  0
ARC
  8
0
 10
-313.500000
 20
-31.355564
 40
2.000000
 50
180.000000
 51
270.000000
  0
ARC
  8
0
 10
-305.500000
 20
-31.355564
 40
2.000000
 50
270.000000
 51
0.000000
  0
ARC
  8
0
 10
-324.209900
 20
94.957550
 40
1.309905
 50
346.033356
 51
14.246034
  0
ARC
  8
0
 10
-324.552032
 20
94.831184
 40
1.673051
 50
15.557285
 51
51.527569
  0
ARC
  8
0
 10
-325.496307
 20
93.444336
 40
3.348565
 50
53.641735
 51
126.638107
  0
ARC
  8
0
 10
-326.447357
 20
94.826553
 40
1.673046
 50
128.751862
 51
164.722122
  0
ARC
  8
0
 10
-326.790100
 20
94.951248
 40
1.309905
 50
166.033356
 51
194.246033
  0
ARC
  8
0
 10
-326.447968
 20
95.077614
 40
1.673051
 50
195.557281
 51
231.527573
  0
ARC
  8
0
 10
-325.503693
 20
96.464462
 40
3.348565
 50
233.641739
 51
306.638092
  0
ARC
  8
0
 10
-324.552643
 20
95.082245
 40
1.673046
 50
308.751862
 51
344.722137
  0
ARC
  8
0
 10
-309.500000
 20
66.979523
 40
8.918453
 50
70.004784
 51
109.995216
  0
ARC
  8
0
 10
-309.500000
 20
66.891586
 40
8.918449
 50
71.799934
 51
108.214508
  0
ARC
  8
0
 10
-298.521362
 20
78.769714
 40
1.120826
 50
345.972473
 51
14.027541
  0
ARC
  8
0
 10
-298.807800
 20
78.665298
 40
1.424388
 50
15.309731
 51
51.197750
  0
ARC
  8
0
 10
-299.600525
 20
77.513695
 40
2.820521
 50
53.307899
 51
126.692101
  0
ARC
  8
0
 10
-300.393250
 20
78.665298
 40
1.424400
 50
128.802246
 51
164.690262
  0
ARC
  8
0
 10
-300.679687
 20
78.769714
 40
1.120826
 50
165.972458
 51
194.027542
  0
ARC
  8
0
 10
-300.393250
 20
78.874130
 40
1.424388
 50
195.309738
 51
231.197754
  0
ARC
  8
0
 10
-299.600525
 20
80.025734
 40
2.820521
 50
233.307892
 51
306.692108
  0
ARC
  8
0
 10
-298.807800
 20
78.874130
 40
1.424400
 50
308.802246
 51
344.690277
  0
ARC
  8
0
 10
-298.727112
 20
78.562393
 40
0.887593
 50
345.896881
 51
14.103133
  0
ARC
  8
0
 10
-298.958923
 20
78.477425
 40
1.133418
 50
15.413661
 51
51.381634
  0
ARC
  8
0
 10
-299.600525
 20
77.540276
 40
2.267612
 50
53.494598
 51
126.505402
  0
ARC
  8
0
 10
-300.242126
 20
78.477425
 40
1.133413
 50
128.618362
 51
164.586334
  0
ARC
  8
0
 10
-300.473938
 20
78.562393
 40
0.887593
 50
165.896866
 51
194.103134
  0
ARC
  8
0
 10
-300.242126
 20
78.647362
 40
1.133418
 50
195.413666
 51
231.381638
  0
ARC
  8
0
 10
-299.600525
 20
79.584511
 40
2.267612
 50
233.494598
 51
306.505402
  0
ARC
  8
0
 10
-298.958923
 20
78.647362
 40
1.133413
 50
308.618378
 51
344.586334
  0
ARC
  8
0
 10
-299.167694
 20
78.427246
 40
0.438697
 50
346.129059
 51
14.353306
  0
ARC
  8
0
 10
-299.282410
 20
78.384636
 40
0.560557
 50
15.666036
 51
51.643700
  0
ARC
  8
0
 10
-299.598358
 20
77.918625
 40
1.122791
 50
53.758175
 51
126.725693
  0
ARC
  8
0
 10
-299.918243
 20
78.381950
 40
0.560536
 50
128.839081
 51
164.815201
  0
ARC
  8
0
 10
-300.033295
 20
78.423599
 40
0.438697
 50
166.129059
 51
194.353302
  0
ARC
  8
0
 10
-299.918579
 20
78.466209
 40
0.560557
 50
195.666031
 51
231.643692
  0
ARC
  8
0
 10
-299.602631
 20
78.932220
 40
1.122791
 50
233.758179
 51
306.725677
  0
ARC
  8
0
 10
-299.282745
 20
78.468895
 40
0.560536
 50
308.839081
 51
344.815186
  0
ARC
  8
0
 10
-318.320343
 20
64.769699
 40
1.120826
 50
345.972473
 51
14.027541
  0
ARC
  8
0
 10
-318.606781
 20
64.665283
 40
1.424388
 50
15.309731
 51
51.197750
  0
ARC
  8
0
 10
-319.399506
 20
63.513676
 40
2.820524
 50
53.307945
 51
126.692055
  0
ARC
  8
0
 10
-320.192230
 20
64.665283
 40
1.424400
 50
128.802246
 51
164.690262
  0
ARC
  8
0
 10
-320.478668
 20
64.769699
 40
1.120826
 50
165.972458
 51
194.027542
  0
ARC
  8
0
 10
-320.192230
 20
64.874115
 40
1.424388
 50
195.309738
 51
231.197845
  0
ARC
  8
0
 10
-319.399506
 20
66.025719
 40
2.820524
 50
233.307938
 51
306.692047
  0
ARC
  8
0
 10
-318.606781
 20
64.874115
 40
1.424403
 50
308.802155
 51
344.690277
  0
ARC
  8
0
 10
-318.526093
 20
64.562393
 40
0.887593
 50
345.896881
 51
14.103133
  0
ARC
  8
0
 10
-318.757904
 20
64.477425
 40
1.133418
 50
15.413661
 51
51.381634
  0
ARC
  8
0
 10
-319.399506
 20
63.540276
 40
2.267612
 50
53.494598
 51
126.505402
  0
ARC
  8
0
 10
-320.041107
 20
64.477425
 40
1.133413
 50
128.618362
 51
164.586334
  0
ARC
  8
0
 10
-320.272919
 20
64.562393
 40
0.887593
 50
165.896866
 51
194.103134
  0
ARC
  8
0
 10
-320.041107
 20
64.647362
 40
1.133418
 50
195.413666
 51
231.381638
  0
ARC
  8
0
 10
-319.399506
 20
65.584511
 40
2.267612
 50
233.494598
 51
306.505402
  0
ARC
  8
0
 10
-318.757904
 20
64.647362
 40
1.133413
 50
308.618378
 51
344.586334
  0
ARC
  8
0
 10
-318.966705
 20
64.427238
 40
0.438697
 50
346.129059
 51
14.353306
  0
ARC
  8
0
 10
-319.081421
 20
64.384628
 40
0.560557
 50
15.666036
 51
51.643700
  0
ARC
  8
0
 10
-319.397369
 20
63.918621
 40
1.122788
 50
53.758060
 51
126.725807
  0
ARC
  8
0
 10
-319.717255
 20
64.381943
 40
0.560536
 50
128.839081
 51
164.815201
  0
ARC
  8
0
 10
-319.832306
 20
64.423592
 40
0.438697
 50
166.129059
 51
194.353302
  0
ARC
  8
0
 10
-319.717590
 20
64.466202
 40
0.560557
 50
195.666031
 51
231.643692
  0
ARC
  8
0
 10
-319.401642
 20
64.932213
 40
1.122791
 50
233.758179
 51
306.725677
  0
ARC
  8
0
 10
-319.081757
 20
64.468887
 40
0.560536
 50
308.839081
 51
344.815186
  0
ARC
  8
0
 10
-318.109406
 20
65.326973
 40
1.309875
 50
0.000000
 51
14.106498
  0
ARC
  8
0
 10
-318.451843
 20
65.201447
 40
1.673029
 50
15.417593
 51
51.387363
  0
ARC
  8
0
 10
-319.399506
 20
63.816917
 40
3.348563
 50
53.501526
 51
126.498474
  0
ARC
  8
0
 10
-320.347168
 20
65.201447
 40
1.673046
 50
128.612640
 51
164.582413
  0
ARC
  8
0
 10
-320.689606
 20
65.326973
 40
1.309886
 50
165.893509
 51
179.892212
  0
ARC
  8
0
 10
-319.399506
 20
66.554184
 40
3.348567
 50
280.598297
 51
306.498444
  0
ARC
  8
0
 10
-318.451843
 20
65.169655
 40
1.673049
 50
308.612549
 51
344.582397
  0
ARC
  8
0
 10
-318.109406
 20
65.044128
 40
1.309886
 50
345.893494
 51
14.106498
  0
ARC
  8
0
 10
-318.451843
 20
64.918602
 40
1.673029
 50
15.417593
 51
51.387363
  0
ARC
  8
0
 10
-319.399506
 20
63.534073
 40
3.348563
 50
53.501526
 51
126.498474
  0
ARC
  8
0
 10
-320.347168
 20
64.918602
 40
1.673046
 50
128.612640
 51
164.582413
  0
ARC
  8
0
 10
-320.689606
 20
65.044128
 40
1.309886
 50
165.893509
 51
194.106491
  0
ARC
  8
0
 10
-320.347168
 20
65.169655
 40
1.673029
 50
195.417587
 51
231.387451
  0
ARC
  8
0
 10
-319.399506
 20
66.554184
 40
3.348566
 50
233.501572
 51
259.390564
  0
ARC
  8
0
 10
-298.310394
 20
79.326981
 40
1.309875
 50
0.000000
 51
14.106498
  0
ARC
  8
0
 10
-298.652832
 20
79.201454
 40
1.673029
 50
15.417593
 51
51.387363
  0
ARC
  8
0
 10
-299.600494
 20
77.816925
 40
3.348563
 50
53.501526
 51
126.498474
  0
ARC
  8
0
 10
-300.548157
 20
79.201454
 40
1.673046
 50
128.612640
 51
164.582413
  0
ARC
  8
0
 10
-300.890594
 20
79.326981
 40
1.309886
 50
165.893509
 51
179.892548
  0
ARC
  8
0
 10
-299.600494
 20
80.554199
 40
3.348563
 50
280.597229
 51
306.498474
  0
ARC
  8
0
 10
-298.652832
 20
79.169670
 40
1.673046
 50
308.612640
 51
344.582397
  0
ARC
  8
0
 10
-298.310394
 20
79.044144
 40
1.309886
 50
345.893494
 51
14.106498
  0
ARC
  8
0
 10
-298.652832
 20
78.918617
 40
1.673029
 50
15.417593
 51
51.387363
  0
ARC
  8
0
 10
-299.600494
 20
77.534088
 40
3.348563
 50
53.501526
 51
126.498474
  0
ARC
  8
0
 10
-300.548157
 20
78.918617
 40
1.673046
 50
128.612640
 51
164.582413
  0
ARC
  8
0
 10
-300.890594
 20
79.044144
 40
1.309886
 50
165.893509
 51
194.106491
  0
ARC
  8
0
 10
-300.548157
 20
79.169670
 40
1.673029
 50
195.417587
 51
231.387360
  0
ARC
  8
0
 10
-299.600494
 20
80.554199
 40
3.348563
 50
233.501526
 51
259.390533
  0
ARC
  8
0
 10
-302.553162
 20
72.326981
 40
7.053177
 50
345.893524
 51
14.106471
  0
ARC
  8
0
 10
-304.397034
 20
71.651024
 40
9.008553
 50
15.417896
 51
51.388573
  0
ARC
  8
0
 10
-309.500000
 20
64.195602
 40
18.030867
 50
53.502220
 51
126.497780
  0
ARC
  8
0
 10
-314.602966
 20
71.651024
 40
9.008532
 50
128.611435
 51
164.582108
  0
ARC
  8
0
 10
-316.446838
 20
72.326981
 40
7.053177
 50
165.893524
 51
194.106476
  0
ARC
  8
0
 10
-314.602966
 20
73.002937
 40
9.008553
 50
195.417892
 51
231.388565
  0
ARC
  8
0
 10
-309.500000
 20
80.458359
 40
18.030867
 50
233.502213
 51
306.497772
  0
ARC
  8
0
 10
-304.397034
 20
73.002937
 40
9.008532
 50
308.611420
 51
344.582092
  0
ARC
  8
0
 10
-302.553162
 20
72.326981
 40
7.053177
 50
345.893524
 51
14.106471
  0
ARC
  8
0
 10
-304.397034
 20
71.651024
 40
9.008553
 50
15.417896
 51
51.388573
  0
ARC
  8
0
 10
-309.500000
 20
64.195602
 40
18.030867
 50
53.502220
 51
126.497780
  0
ARC
  8
0
 10
-314.602966
 20
71.651024
 40
9.008532
 50
128.611435
 51
164.582108
  0
ARC
  8
0
 10
-316.446838
 20
72.326981
 40
7.053177
 50
165.893524
 51
194.106476
  0
ARC
  8
0
 10
-314.602966
 20
73.002937
 40
9.008553
 50
195.417892
 51
231.388565
  0
ARC
  8
0
 10
-309.500000
 20
80.458359
 40
18.030867
 50
233.502213
 51
306.497772
  0
ARC
  8
0
 10
-304.397034
 20
73.002937
 40
9.008532
 50
308.611420
 51
344.582092
  0
ARC
  8
0
 10
-309.500000
 20
65.609818
 40
18.030865
 50
89.959755
 51
126.497780
  0
ARC
  8
0
 10
-314.602966
 20
73.065239
 40
9.008532
 50
128.611435
 51
164.582108
  0
ARC
  8
0
 10
-316.446838
 20
73.741196
 40
7.053177
 50
165.893524
 51
179.909271
  0
ARC
  8
0
 10
-297.615723
 20
80.741196
 40
2.015198
 50
0.000000
 51
14.106320
  0
ARC
  8
0
 10
-298.142548
 20
80.548065
 40
2.573889
 50
15.417747
 51
51.388252
  0
ARC
  8
0
 10
-299.600525
 20
78.417953
 40
5.151671
 50
53.502113
 51
90.767090
  0
ARC
  8
0
 10
-313.965820
 20
73.741196
 40
4.534180
 50
188.972321
 51
194.106384
  0
ARC
  8
0
 10
-312.780457
 20
74.175743
 40
5.791235
 50
195.417816
 51
231.388290
  0
ARC
  8
0
 10
-309.500000
 20
78.968513
 40
11.591285
 50
233.502151
 51
238.961899
  0
ARC
  8
0
 10
-321.384308
 20
65.326973
 40
2.015214
 50
180.806732
 51
194.106323
  0
ARC
  8
0
 10
-320.857483
 20
65.520103
 40
2.573889
 50
195.417740
 51
231.388306
  0
ARC
  8
0
 10
-319.399506
 20
67.650215
 40
5.151674
 50
233.502136
 51
270.852631
  0
ARC
  8
0
 10
-309.500000
 20
64.195610
 40
18.030865
 50
89.959755
 51
126.497780
  0
ARC
  8
0
 10
-314.602966
 20
71.651031
 40
9.008532
 50
128.611435
 51
164.582108
  0
ARC
  8
0
 10
-316.446838
 20
72.326988
 40
7.053177
 50
165.893524
 51
179.909271
  0
ARC
  8
0
 10
-297.615723
 20
79.326988
 40
2.015198
 50
0.000000
 51
14.106320
  0
ARC
  8
0
 10
-298.142548
 20
79.133858
 40
2.573889
 50
15.417747
 51
51.388252
  0
ARC
  8
0
 10
-299.600525
 20
77.003746
 40
5.151671
 50
53.502113
 51
90.767090
  0
ARC
  8
0
 10
-309.500000
 20
80.458366
 40
18.030870
 50
289.359344
 51
306.497772
  0
ARC
  8
0
 10
-304.397034
 20
73.002945
 40
9.008532
 50
308.611420
 51
344.582092
  0
ARC
  8
0
 10
-302.553162
 20
72.326988
 40
7.053177
 50
345.893524
 51
1.740013
  0
ARC
  8
0
 10
-305.034180
 20
72.326988
 40
4.534180
 50
0.000000
 51
14.106391
  0
ARC
  8
0
 10
-306.219543
 20
71.892441
 40
5.791235
 50
15.417823
 51
51.388287
  0
ARC
  8
0
 10
-309.500000
 20
67.099670
 40
11.591285
 50
53.502159
 51
126.497841
  0
ARC
  8
0
 10
-312.780457
 20
71.892441
 40
5.791226
 50
128.611710
 51
164.582184
  0
ARC
  8
0
 10
-313.965820
 20
72.326988
 40
4.534190
 50
165.893616
 51
194.106384
  0
ARC
  8
0
 10
-312.780457
 20
72.761536
 40
5.791235
 50
195.417816
 51
231.388290
  0
ARC
  8
0
 10
-309.500000
 20
77.554306
 40
11.591285
 50
233.502151
 51
238.961899
  0
ARC
  8
0
 10
-318.000000
 20
41.680561
 40
8.371467
 50
72.683754
 51
126.497772
  0
ARC
  8
0
 10
-320.369232
 20
45.142002
 40
4.182532
 50
128.611389
 51
137.553055
  0
ARC
  8
0
 10
-318.000000
 20
42.537102
 40
7.256122
 50
69.928864
 51
126.497849
  0
ARC
  8
0
 10
-320.053589
 20
45.537373
 40
3.625274
 50
128.611404
 51
137.955872
  0
ARC
  8
0
 10
-318.500000
 20
41.906784
 40
3.863754
 50
277.449066
 51
306.497803
  0
ARC
  8
0
 10
-317.406525
 20
40.309196
 40
1.930403
 50
308.611847
 51
344.582336
  0
ARC
  8
0
 10
-317.011383
 20
40.164352
 40
1.511366
 50
345.893463
 51
0.000000
  0
ARC
  8
0
 10
-318.018951
 20
-5.809406
 40
2.518976
 50
359.747101
 51
14.106395
  0
ARC
  8
0
 10
-318.677490
 20
-6.050819
 40
3.217345
 50
15.417778
 51
51.388241
  0
ARC
  8
0
 10
-320.499969
 20
-8.713468
 40
6.439600
 50
53.502098
 51
90.000000
  0
ARC
  8
0
 10
-309.500000
 20
77.554306
 40
11.591289
 50
301.043213
 51
306.497833
  0
ARC
  8
0
 10
-306.219543
 20
72.761536
 40
5.791226
 50
308.611725
 51
344.582184
  0
ARC
  8
0
 10
-305.034180
 20
72.326988
 40
4.534190
 50
345.893616
 51
0.000000
  0
ARC
  8
0
 10
-309.500000
 20
78.968513
 40
11.591282
 50
301.043243
 51
306.497833
  0
ARC
  8
0
 10
-306.219543
 20
74.175743
 40
5.791226
 50
308.611725
 51
344.582184
  0
ARC
  8
0
 10
-305.034180
 20
73.741196
 40
4.534190
 50
345.893616
 51
351.018921
  0
ARC
  8
0
 10
-318.000000
 20
49.081688
 40
7.256123
 50
270.000000
 51
290.068848
  0
ARC
  8
0
 10
-318.000000
 20
49.231121
 40
8.371468
 50
270.000000
 51
287.317780
  0
ARC
  8
0
 10
-320.500000
 20
23.257629
 40
6.439610
 50
270.000000
 51
306.497864
  0
ARC
  8
0
 10
-318.677521
 20
20.594976
 40
3.217344
 50
308.611755
 51
344.582214
  0
ARC
  8
0
 10
-318.018982
 20
20.353563
 40
2.518984
 50
345.893585
 51
0.147505
  0
ARC
  8
0
 10
-318.500000
 20
26.338640
 40
3.863754
 50
270.000000
 51
306.497803
  0
ARC
  8
0
 10
-317.406525
 20
24.741056
 40
1.930406
 50
308.611786
 51
344.582245
  0
ARC
  8
0
 10
-317.011383
 20
24.596210
 40
1.511367
 50
345.893402
 51
359.999847
  0
POINT
  8
0
 10
-135.000000
 20
185.000000
  0
POINT
  8
0
 10
-64.250000
 20
185.000000
  0
LINE
  8
0
 10
-169.000061
 20
199.199997
 11
-200.762024
 21
230.961960
  0
LINE
  8
0
 10
-200.762024
 20
139.038055
 11
-169.000061
 21
170.800003
  0
LINE
  8
0
 10
-200.762039
 20
139.038055
 11
-230.000061
 21
168.276093
  0
LINE
  8
0
 10
-230.000061
 20
201.723923
 11
-200.762024
 21
230.961975
  0
LINE
  8
0
 10
-169.000061
 20
170.800003
 11
-169.000061
 21
199.199997
  0
LINE
  8
0
 10
-230.000061
 20
168.250061
 11
-230.000061
 21
201.749969
  0
LINE
  8
0
 10
-191.569626
 20
224.597992
 11
-182.165100
 21
234.002518
  0
LINE
  8
0
 10
-183.084351
 20
216.112717
 11
-173.679825
 21
225.517242
  0
LINE
  8
0
 10
-190.809952
 20
145.985840
 11
-190.897888
 21
146.073761
  0
LINE
  8
0
 10
-183.668182
 20
153.127609
 11
-183.756104
 21
153.215546
  0
LINE
  8
0
 10
-180.998383
 20
233.825745
 11
-180.203339
 21
234.620789
  0
LINE
  8
0
 10
-173.856598
 20
226.683960
 11
-173.061554
 21
227.479004
  0
LINE
  8
0
 10
-173.470612
 20
226.297974
 11
-181.384338
 21
234.211700
  0
LINE
  8
0
 10
-190.809937
 20
145.985840
 11
-183.668167
 21
153.127609
  0
LINE
  8
0
 10
-180.203323
 20
234.620773
 11
-173.061554
 21
227.478989
  0
LINE
  8
0
 10
-173.679794
 20
225.517212
 11
-173.470596
 21
226.297958
  0
LINE
  8
0
 10
-182.165100
 20
234.002518
 11
-181.384354
 21
234.211716
  0
LINE
  8
0
 10
-173.679810
 20
225.517227
 11
-182.165085
 21
234.002502
  0
LINE
  8
0
 10
-211.707428
 20
175.161469
 11
-211.003815
 21
180.891937
  0
LINE
  8
0
 10
-221.632935
 20
176.380157
 11
-220.929321
 21
182.110626
  0
LINE
  8
0
 10
-211.707443
 20
175.161484
 11
-217.021973
 21
172.905594
  0
LINE
  8
0
 10
-215.614746
 20
184.366531
 11
-220.929291
 21
182.110641
  0
LINE
  8
0
 10
-217.022034
 20
172.905518
 11
-221.632935
 21
176.380096
  0
LINE
  8
0
 10
-211.003876
 20
180.891876
 11
-215.614777
 21
184.366455
  0
LINE
  8
0
 10
-213.948059
 20
177.841263
 11
-218.810516
 21
178.438293
  0
LINE
  8
0
 10
-213.826187
 20
178.833801
 11
-218.688660
 21
179.430832
  0
LINE
  8
0
 10
-210.548370
 20
191.162460
 11
-213.258881
 21
196.260162
  0
LINE
  8
0
 10
-219.377884
 20
186.467743
 11
-222.088379
 21
191.565445
  0
LINE
  8
0
 10
-210.548416
 20
191.162506
 11
-213.607910
 21
186.266296
  0
LINE
  8
0
 10
-219.028870
 20
196.461700
 11
-222.088379
 21
191.565491
  0
LINE
  8
0
 10
-213.607849
 20
186.266266
 11
-219.377838
 21
186.467758
  0
LINE
  8
0
 10
-213.258881
 20
196.260193
 11
-219.028854
 21
196.461685
  0
LINE
  8
0
 10
-213.920868
 20
192.072479
 11
-218.246399
 21
189.772552
  0
LINE
  8
0
 10
-214.390335
 20
192.955429
 11
-218.715881
 21
190.655502
  0
LINE
  8
0
 10
-169.584335
 20
178.461655
 11
-169.584335
 21
191.538345
  0
LINE
  8
0
 10
-196.584335
 20
178.461655
 11
-196.584335
 21
191.538345
  0
LINE
  8
0
 10
-185.803894
 20
167.066589
 11
-193.282455
 21
173.999924
  0
LINE
  8
0
 10
-180.364883
 20
167.066696
 11
-172.886322
 21
174.000015
  0
LINE
  8
0
 10
-172.886322
 20
195.999985
 11
-180.364883
 21
202.933319
  0
LINE
  8
0
 10
-185.803894
 20
202.933426
 11
-193.282455
 21
196.000092
  0
LINE
  8
0
 10
-197.226486
 20
139.745178
 11
-177.427490
 21
159.544159
  0
LINE
  8
0
 10
-177.427490
 20
210.455856
 11
-197.226471
 21
230.254837
  0
LINE
  8
0
 10
-143.000000
 20
146.594269
 11
-143.000000
 21
154.318497
  0
LINE
  8
0
 10
-143.000000
 20
208.112701
 11
-143.000000
 21
223.405731
  0
LINE
  8
0
 10
-200.800018
 20
139.049988
 11
-230.000076
 21
168.250046
  0
LINE
  8
0
 10
-200.800003
 20
139.050003
 11
-200.786987
 21
139.063019
  0
LINE
  8
0
 10
-200.786987
 20
230.936996
 11
-200.800018
 21
230.950012
  0
LINE
  8
0
 10
-230.000076
 20
201.749969
 11
-200.800018
 21
230.950027
  0
LINE
  8
0
 10
-197.226501
 20
139.745148
 11
-198.640717
 21
141.159363
  0
LINE
  8
0
 10
-177.427505
 20
159.544144
 11
-178.841721
 21
160.958359
  0
LINE
  8
0
 10
-198.640701
 20
228.840637
 11
-197.226486
 21
230.254852
  0
LINE
  8
0
 10
-178.841705
 20
209.041656
 11
-177.427490
 21
210.455856
  0
LINE
  8
0
 10
-196.589722
 20
139.816238
 11
-191.498566
 21
144.907410
  0
LINE
  8
0
 10
-192.629440
 20
140.877396
 11
-192.559723
 21
140.947113
  0
LINE
  8
0
 10
-191.498566
 20
144.907394
 11
-191.781403
 21
145.190247
  0
LINE
  8
0
 10
-196.589737
 20
139.816223
 11
-196.872589
 21
140.099075
  0
LINE
  8
0
 10
-182.589722
 20
153.816238
 11
-177.498550
 21
158.907410
  0
LINE
  8
0
 10
-178.629425
 20
154.877396
 11
-178.559708
 21
154.947113
  0
LINE
  8
0
 10
-177.498566
 20
158.907394
 11
-177.781403
 21
159.190231
  0
LINE
  8
0
 10
-182.589737
 20
153.816223
 11
-182.872574
 21
154.099075
  0
LINE
  8
0
 10
-177.498535
 20
211.092606
 11
-182.589706
 21
216.183777
  0
LINE
  8
0
 10
-178.559708
 20
215.052902
 11
-178.629425
 21
215.122620
  0
LINE
  8
0
 10
-182.589706
 20
216.183777
 11
-182.872559
 21
215.900925
  0
LINE
  8
0
 10
-177.498535
 20
211.092606
 11
-177.781372
 21
210.809753
  0
LINE
  8
0
 10
-191.498535
 20
225.092606
 11
-196.589706
 21
230.183777
  0
LINE
  8
0
 10
-192.559708
 20
229.052902
 11
-192.629410
 21
229.122604
  0
LINE
  8
0
 10
-196.589722
 20
230.183777
 11
-196.872559
 21
229.900925
  0
LINE
  8
0
 10
-191.498535
 20
225.092606
 11
-191.781387
 21
224.809769
  0
LINE
  8
0
 10
-142.244446
 20
249.441132
 11
-142.963837
 21
246.756317
  0
LINE
  8
0
 10
-127.755554
 20
249.441162
 11
-127.036156
 21
246.756332
  0
LINE
  8
0
 10
-142.244431
 20
120.558868
 11
-142.963837
 21
123.243683
  0
LINE
  8
0
 10
-127.755577
 20
120.558868
 11
-127.036186
 21
123.243683
  0
LINE
  8
0
 10
-85.499397
 20
147.224945
 11
-82.814560
 21
146.505554
  0
LINE
  8
0
 10
-77.535530
 20
161.018707
 11
-75.570122
 21
159.053299
  0
LINE
  8
0
 10
-77.535522
 20
208.981232
 11
-75.570084
 21
210.946671
  0
LINE
  8
0
 10
-84.130157
 20
223.141922
 11
-82.814545
 21
223.494446
  0
LINE
  8
0
 10
-123.693352
 20
148.029602
 11
-125.907814
 21
156.294098
  0
LINE
  8
0
 10
-108.636055
 20
156.722931
 11
-114.686073
 21
162.772949
  0
LINE
  8
0
 10
-97.329369
 20
176.306641
 11
-105.593872
 21
178.521103
  0
LINE
  8
0
 10
-97.329369
 20
193.693298
 11
-105.124069
 21
191.604721
  0
LINE
  8
0
 10
-125.907753
 20
213.705902
 11
-123.693298
 21
221.970367
  0
LINE
  8
0
 10
-135.196671
 20
210.000000
 11
-130.737381
 21
210.000000
  0
LINE
  8
0
 10
-134.544159
 20
160.000000
 11
-130.737442
 21
160.000000
  0
LINE
  8
0
 10
-115.480637
 20
168.808456
 11
-111.218063
 21
176.191452
  0
LINE
  8
0
 10
-79.000000
 20
164.554230
 11
-79.000000
 21
205.445709
  0
LINE
  8
0
 10
-103.197212
 20
231.301971
 11
-124.706512
 21
243.720367
  0
LINE
  8
0
 10
-145.293488
 20
126.279640
 11
-167.925720
 21
139.346359
  0
LINE
  8
0
 10
-124.706543
 20
126.279716
 11
-89.293503
 21
146.725464
  0
LINE
  8
0
 10
-173.140320
 20
227.642868
 11
-145.293472
 21
243.720276
  0
LINE
  8
0
 10
-190.780106
 20
146.000000
 11
-189.879257
 21
146.000000
  0
LINE
  8
0
 10
-122.272072
 20
185.707108
 11
-134.292892
 21
197.727921
  0
LINE
  8
0
 10
-135.707108
 20
172.272079
 11
-147.727921
 21
184.292892
  0
LINE
  8
0
 10
-147.727921
 20
185.707108
 11
-135.707108
 21
197.727921
  0
LINE
  8
0
 10
-134.292892
 20
172.272079
 11
-122.272079
 21
184.292892
  0
LINE
  8
0
 10
-135.673111
 20
173.369461
 11
-146.630539
 21
184.326874
  0
LINE
  8
0
 10
-134.326874
 20
173.369461
 11
-123.369461
 21
184.326874
  0
LINE
  8
0
 10
-146.630539
 20
185.673111
 11
-135.673126
 21
196.630539
  0
LINE
  8
0
 10
-123.369461
 20
185.673126
 11
-134.326889
 21
196.630539
  0
LINE
  8
0
 10
-134.326889
 20
196.630539
 11
-133.972504
 21
197.407532
  0
LINE
  8
0
 10
-135.673126
 20
196.630539
 11
-136.027496
 21
197.407532
  0
LINE
  8
0
 10
-147.407532
 20
186.027496
 11
-146.630539
 21
185.673111
  0
LINE
  8
0
 10
-147.407532
 20
183.972488
 11
-146.630539
 21
184.326874
  0
LINE
  8
0
 10
-136.027481
 20
172.592468
 11
-135.673096
 21
173.369461
  0
LINE
  8
0
 10
-133.972488
 20
172.592468
 11
-134.326874
 21
173.369461
  0
LINE
  8
0
 10
-122.592468
 20
183.972504
 11
-123.369461
 21
184.326874
  0
LINE
  8
0
 10
-123.369461
 20
185.673126
 11
-122.592476
 21
186.027512
  0
LINE
  8
0
 10
-152.690598
 20
146.399994
 11
-156.715240
 21
146.399994
  0
LINE
  8
0
 10
-150.678284
 20
149.885437
 11
-152.690598
 21
146.399994
  0
LINE
  8
0
 10
-150.381195
 20
219.600006
 11
-152.690598
 21
223.600006
  0
LINE
  8
0
 10
-152.690598
 20
223.600006
 11
-157.309402
 21
223.600006
  0
LINE
  8
0
 10
-159.618805
 20
219.600006
 11
-157.309402
 21
223.600006
  0
LINE
  8
0
 10
-157.309402
 20
215.600006
 11
-159.618805
 21
219.600006
  0
LINE
  8
0
 10
-152.690598
 20
215.600006
 11
-157.309402
 21
215.600006
  0
LINE
  8
0
 10
-150.381195
 20
219.600006
 11
-152.690598
 21
215.599991
  0
LINE
  8
0
 10
-183.084335
 20
201.154709
 11
-184.084335
 21
200.577362
  0
LINE
  8
0
 10
-184.084335
 20
200.577362
 11
-184.084335
 21
199.422653
  0
LINE
  8
0
 10
-183.084335
 20
198.845306
 11
-184.084335
 21
199.422653
  0
LINE
  8
0
 10
-182.084335
 20
199.422653
 11
-183.084335
 21
198.845306
  0
LINE
  8
0
 10
-182.084335
 20
200.577362
 11
-182.084335
 21
199.422653
  0
LINE
  8
0
 10
-183.084335
 20
201.154709
 11
-182.084335
 21
200.577362
  0
LINE
  8
0
 10
-183.084335
 20
171.154709
 11
-184.084335
 21
170.577362
  0
LINE
  8
0
 10
-184.084335
 20
170.577362
 11
-184.084335
 21
169.422653
  0
LINE
  8
0
 10
-183.084335
 20
168.845306
 11
-184.084335
 21
169.422653
  0
LINE
  8
0
 10
-182.084335
 20
169.422653
 11
-183.084335
 21
168.845306
  0
LINE
  8
0
 10
-182.084335
 20
170.577362
 11
-182.084335
 21
169.422653
  0
LINE
  8
0
 10
-183.084335
 20
171.154709
 11
-182.084335
 21
170.577362
  0
LINE
  8
0
 10
-197.933578
 20
163.501266
 11
-197.933578
 21
157.001266
  0
LINE
  8
0
 10
-201.183578
 20
160.251266
 11
-194.683578
 21
160.251266
  0
LINE
  8
0
 10
-197.933578
 20
212.998749
 11
-197.933578
 21
206.498749
  0
LINE
  8
0
 10
-201.183578
 20
209.748749
 11
-194.683578
 21
209.748749
  0
LINE
  8
0
 10
-160.026215
 20
142.694336
 11
-159.425201
 21
143.735352
  0
LINE
  8
0
 10
-159.160187
 20
142.194336
 11
-158.559174
 21
143.235352
  0
LINE
  8
0
 10
-159.160187
 20
227.805664
 11
-158.559174
 21
226.764664
  0
LINE
  8
0
 10
-160.026215
 20
227.305664
 11
-159.425186
 21
226.264648
  0
LINE
  8
0
 10
-136.435822
 20
158.108337
 11
-108.108330
 21
186.435822
  0
LINE
  8
0
 10
-165.052032
 20
186.060654
 11
-150.980606
 21
200.132080
  0
LINE
  8
0
 10
-165.980377
 20
141.050766
 11
-136.435822
 21
158.108337
  0
LINE
  8
0
 10
-175.041855
 20
132.230225
 11
-167.015915
 21
140.256165
  0
LINE
  8
0
 10
-190.397552
 20
145.565109
 11
-179.672928
 21
154.564148
  0
LINE
  8
0
 10
-173.323578
 20
155.161697
 11
-162.009308
 21
166.475967
  0
LINE
  8
0
 10
-160.102295
 20
185.353546
 11
-160.102295
 21
191.010406
  0
LINE
  8
0
 10
-135.353546
 20
210.102295
 11
-141.010406
 21
210.102295
  0
LINE
  8
0
 10
-105.161697
 20
223.323578
 11
-116.475967
 21
212.009308
  0
LINE
  8
0
 10
-91.050766
 20
215.980377
 11
-108.108337
 21
186.435822
  0
LINE
  8
0
 10
-82.230225
 20
225.041855
 11
-90.256165
 21
217.015915
  0
LINE
  8
0
 10
-95.565109
 20
240.397552
 11
-104.564140
 21
229.672928
  0
LINE
  8
0
 10
-135.707108
 20
171.564972
 11
-148.435028
 21
184.292892
  0
LINE
  8
0
 10
-134.292892
 20
171.564972
 11
-121.564972
 21
184.292892
  0
LINE
  8
0
 10
-121.564972
 20
185.707108
 11
-134.292892
 21
198.435028
  0
LINE
  8
0
 10
-148.435028
 20
185.707108
 11
-142.495331
 21
191.646805
  0
LINE
  8
0
 10
-141.293243
 20
192.141785
 11
-150.132080
 21
200.980606
  0
LINE
  8
0
 10
-142.141785
 20
191.293243
 11
-150.980606
 21
200.132080
  0
LINE
  8
0
 10
-141.646805
 20
192.495331
 11
-135.707108
 21
198.435028
  0
LINE
  8
0
 10
-150.132080
 20
200.980606
 11
-141.010406
 21
210.102295
  0
LINE
  8
0
 10
-143.556000
 20
192.707458
 11
-142.707458
 21
193.556000
  0
LINE
  8
0
 10
-149.212845
 20
198.364319
 11
-148.364319
 21
199.212845
  0
LINE
  8
0
 10
-165.052017
 20
186.060669
 11
-164.793198
 21
185.094742
  0
LINE
  8
0
 10
-157.640564
 20
177.942078
 11
-164.793213
 21
185.094727
  0
LINE
  8
0
 10
-157.704834
 20
178.713455
 11
-165.052032
 21
186.060669
  0
CIRCLE
  8
0
 10
-197.933578
 20
160.251266
 40
6.500000
  0
CIRCLE
  8
0
 10
-197.933578
 20
209.748749
 40
6.500000
  0
CIRCLE
  8
0
 10
-183.084335
 20
185.000000
 40
0.500000
  0
CIRCLE
  8
0
 10
-183.084335
 20
185.000000
 40
11.250000
  0
ARC
  8
0
 10
-197.226471
 20
159.544159
 40
14.999998
 50
295.326050
 51
334.673859
  0
ARC
  8
0
 10
-186.619873
 20
221.062454
 40
14.999998
 50
25.326059
 51
64.673859
  0
CIRCLE
  8
0
 10
-216.318359
 20
178.636047
 40
2.500000
  0
CIRCLE
  8
0
 10
-216.318359
 20
178.636047
 40
2.250000
  0
CIRCLE
  8
0
 10
-216.318359
 20
178.636047
 40
5.000000
  0
CIRCLE
  8
0
 10
-216.318359
 20
191.363968
 40
2.500000
  0
CIRCLE
  8
0
 10
-216.318359
 20
191.363968
 40
2.250000
  0
CIRCLE
  8
0
 10
-216.318359
 20
191.363968
 40
5.000000
  0
ARC
  8
0
 10
-183.084335
 20
170.000000
 40
3.999994
 50
227.166687
 51
312.833313
  0
ARC
  8
0
 10
-183.084335
 20
200.000000
 40
4.000004
 50
47.166527
 51
132.833481
  0
ARC
  8
0
 10
-183.084335
 20
185.000000
 40
15.000003
 50
132.833435
 51
154.158020
  0
ARC
  8
0
 10
-183.084335
 20
185.000000
 40
15.000003
 50
312.833435
 51
334.158081
  0
ARC
  8
0
 10
-183.084335
 20
200.000000
 40
4.000004
 50
47.166527
 51
90.000000
  0
ARC
  8
0
 10
-183.084335
 20
185.000000
 40
14.999999
 50
205.841919
 51
227.166595
  0
ARC
  8
0
 10
-183.084335
 20
185.000000
 40
14.999999
 50
25.841923
 51
47.166557
  0
ARC
  8
0
 10
-135.000000
 20
185.000000
 40
22.500000
 50
278.130096
 51
351.869904
  0
ARC
  8
0
 10
-135.000000
 20
185.000000
 40
51.000000
 50
113.876205
 51
140.871994
  0
ARC
  8
0
 10
-135.000000
 20
185.000000
 40
50.999996
 50
236.267822
 51
246.123764
  0
ARC
  8
0
 10
-152.000000
 20
146.594269
 40
8.999997
 50
246.123810
 51
0.000000
  0
ARC
  8
0
 10
-152.000000
 20
223.405731
 40
9.000000
 50
0.000000
 51
113.876190
  0
ARC
  8
0
 10
-180.768539
 20
222.232254
 40
8.000009
 50
288.428314
 51
320.871948
  0
CIRCLE
  8
0
 10
-197.933578
 20
160.251266
 40
6.200000
  0
CIRCLE
  8
0
 10
-197.933578
 20
209.748749
 40
6.200000
  0
ARC
  8
0
 10
-195.528564
 20
143.776535
 40
4.100000
 50
255.000015
 51
315.000000
  0
ARC
  8
0
 10
-195.458862
 20
143.846252
 40
4.100002
 50
315.000000
 51
14.999986
  0
ARC
  8
0
 10
-181.528564
 20
157.776535
 40
4.100000
 50
255.000015
 51
283.015350
  0
ARC
  8
0
 10
-181.458847
 20
157.846252
 40
4.099998
 50
301.394257
 51
14.999986
  0
ARC
  8
0
 10
-181.458832
 20
212.153763
 40
4.100000
 50
345.000000
 51
44.999847
  0
ARC
  8
0
 10
-181.528549
 20
212.223480
 40
4.099991
 50
44.999847
 51
104.999985
  0
ARC
  8
0
 10
-195.458847
 20
226.153763
 40
4.100000
 50
345.000000
 51
45.000000
  0
ARC
  8
0
 10
-195.528564
 20
226.223480
 40
4.100002
 50
45.000000
 51
104.999985
  0
CIRCLE
  8
0
 10
-183.084335
 20
185.000000
 40
11.800000
  0
ARC
  8
0
 10
-135.000000
 20
185.000000
 40
45.000000
 50
70.119102
 51
102.675407
  0
CIRCLE
  8
0
 10
-115.000015
 20
150.358978
 40
5.000000
  0
CIRCLE
  8
0
 10
-95.000000
 20
184.999969
 40
5.000000
  0
ARC
  8
0
 10
-114.999969
 20
219.640991
 40
5.000004
 50
344.477997
 51
285.522064
  0
CIRCLE
  8
0
 10
-115.000015
 20
150.358978
 40
4.250000
  0
CIRCLE
  8
0
 10
-95.000000
 20
184.999969
 40
4.250000
  0
CIRCLE
  8
0
 10
-114.999969
 20
219.640991
 40
4.250000
  0
ARC
  8
0
 10
-115.000015
 20
150.358978
 40
9.000005
 50
195.000031
 51
44.999966
  0
ARC
  8
0
 10
-95.000000
 20
184.999969
 40
8.999996
 50
255.000015
 51
104.999992
  0
ARC
  8
0
 10
-114.999969
 20
219.640991
 40
9.000006
 50
16.076855
 51
164.999969
  0
ARC
  8
0
 10
-135.000015
 20
247.500000
 40
7.500003
 50
15.000026
 51
164.999969
  0
ARC
  8
0
 10
-135.000000
 20
122.500000
 40
7.500003
 50
195.000031
 51
344.999969
  0
ARC
  8
0
 10
-80.873413
 20
153.750000
 40
7.500001
 50
255.000031
 51
44.999916
  0
ARC
  8
0
 10
-80.873405
 20
216.249985
 40
7.499997
 50
315.000000
 51
104.999969
  0
ARC
  8
0
 10
-130.737442
 20
155.000000
 40
5.000000
 50
15.000033
 51
90.000000
  0
ARC
  8
0
 10
-111.150536
 20
166.308487
 40
4.999997
 50
149.999985
 51
225.000061
  0
ARC
  8
0
 10
-106.887970
 20
173.691467
 40
5.000007
 50
74.999992
 51
149.999985
  0
ARC
  8
0
 10
-130.737381
 20
215.000000
 40
5.000000
 50
270.000000
 51
344.999969
  0
ARC
  8
0
 10
-139.262527
 20
215.000000
 40
4.999997
 50
221.626144
 51
258.390381
  0
ARC
  8
0
 10
-135.000000
 20
185.000000
 40
44.999992
 50
257.324585
 51
289.880768
  0
ARC
  8
0
 10
-135.000000
 20
185.000000
 40
45.000008
 50
310.119110
 51
349.880737
  0
ARC
  8
0
 10
-135.000000
 20
185.000000
 40
45.000004
 50
10.119112
 51
29.895624
  0
ARC
  8
0
 10
-147.793488
 20
248.050415
 40
4.999997
 50
300.000031
 51
345.000000
  0
ARC
  8
0
 10
-147.793457
 20
121.949585
 40
4.999990
 50
14.999971
 51
59.999981
  0
ARC
  8
0
 10
-122.206528
 20
121.949570
 40
5.000004
 50
119.999977
 51
164.999969
  0
ARC
  8
0
 10
-86.793488
 20
142.395325
 40
4.999992
 50
74.999947
 51
120.000015
  0
ARC
  8
0
 10
-74.000000
 20
164.554230
 40
5.000000
 50
180.000000
 51
224.999878
  0
ARC
  8
0
 10
-74.000000
 20
205.445709
 40
4.999995
 50
135.000122
 51
180.000000
  0
ARC
  8
0
 10
-122.206551
 20
248.050415
 40
5.000000
 50
195.000031
 51
240.000061
  0
ARC
  8
0
 10
-180.789764
 20
228.999985
 40
4.999997
 50
300.000031
 51
300.000031
  0
ARC
  8
0
 10
-135.000000
 20
185.000000
 40
70.750008
 50
216.898590
 51
143.101379
  0
ARC
  8
0
 10
-135.000000
 20
185.000000
 40
11.650002
 50
176.687653
 51
183.312347
  0
ARC
  8
0
 10
-135.000000
 20
185.000000
 40
11.650001
 50
266.687744
 51
273.312347
  0
ARC
  8
0
 10
-135.000000
 20
185.000000
 40
11.650002
 50
356.687653
 51
3.312267
  0
ARC
  8
0
 10
-135.000000
 20
185.000000
 40
11.650002
 50
86.687660
 51
93.312340
  0
ARC
  8
0
 10
-135.000000
 20
185.000000
 40
55.000000
 50
234.418015
 51
35.581924
  0
CIRCLE
  8
0
 10
-155.000000
 20
219.600006
 40
8.000000
  0
ARC
  8
0
 10
-155.000000
 20
219.600006
 40
9.200000
 50
123.115440
 51
116.884552
  0
ARC
  8
0
 10
-155.000000
 20
150.399994
 40
9.199999
 50
243.115448
 51
13.541976
  0
CIRCLE
  8
0
 10
-155.000000
 20
219.600006
 40
7.000000
  0
CIRCLE
  8
0
 10
-183.084335
 20
200.000000
 40
2.850000
  0
CIRCLE
  8
0
 10
-183.084335
 20
170.000000
 40
2.850000
  0
ARC
  8
0
 10
-135.000000
 20
185.000000
 40
68.000000
 50
215.445312
 51
231.088318
  0
ARC
  8
0
 10
-163.480377
 20
136.720642
 40
4.999984
 50
120.000107
 51
135.000122
  0
ARC
  8
0
 10
-176.456070
 20
133.644440
 40
1.999997
 50
231.088348
 51
315.000000
  0
ARC
  8
0
 10
-176.859116
 20
158.697235
 40
5.000008
 50
235.753006
 51
315.000000
  0
ARC
  8
0
 10
-172.615906
 20
177.082565
 40
14.999994
 50
315.000000
 51
33.463108
  0
ARC
  8
0
 10
-86.720634
 20
213.480377
 40
5.000000
 50
134.999939
 51
149.999985
  0
ARC
  8
0
 10
-108.697235
 20
226.859116
 40
5.000005
 50
315.000000
 51
34.246998
  0
ARC
  8
0
 10
-83.644440
 20
226.456070
 40
2.000002
 50
315.000000
 51
38.911514
  0
ARC
  8
0
 10
-135.000000
 20
185.000000
 40
67.999992
 50
38.911655
 51
54.554691
  0
ARC
  8
0
 10
-127.082573
 20
222.615906
 40
14.999990
 50
236.536911
 51
315.000031
  0
ARC
  8
0
 10
-135.000000
 20
172.979187
 40
1.000001
 50
225.000000
 51
315.000000
  0
ARC
  8
0
 10
-122.979187
 20
185.000000
 40
1.000001
 50
315.000000
 51
45.000000
  0
ARC
  8
0
 10
-135.000000
 20
197.020813
 40
1.000001
 50
45.000000
 51
135.000000
  0
ARC
  8
0
 10
-135.000000
 20
172.272079
 40
1.000001
 50
225.000000
 51
315.000000
  0
ARC
  8
0
 10
-122.272079
 20
185.000000
 40
1.000001
 50
315.000000
 51
45.000000
  0
ARC
  8
0
 10
-135.000000
 20
197.727921
 40
1.000001
 50
45.000000
 51
135.000000
  0
ARC
  8
0
 10
-147.727921
 20
185.000000
 40
1.000001
 50
135.000000
 51
225.000000
  0
ARC
  8
0
 10
-135.000000
 20
185.000000
 40
55.000008
 50
55.634468
 51
145.509338
  0
ARC
  8
0
 10
-147.020813
 20
185.000000
 40
1.000001
 50
135.000000
 51
225.000000
  0
ARC
  8
0
 10
-135.000000
 20
185.000000
 40
12.450005
 50
265.265930
 51
274.734070
  0
ARC
  8
0
 10
-135.000000
 20
185.000000
 40
12.450003
 50
175.266083
 51
184.733994
  0
ARC
  8
0
 10
-135.000000
 20
185.000000
 40
12.450004
 50
85.266006
 51
94.734062
  0
ARC
  8
0
 10
-135.000000
 20
185.000000
 40
12.449996
 50
355.265991
 51
4.734066
  0
ARC
  8
0
 10
-155.000000
 20
150.399994
 40
9.199995
 50
226.457962
 51
236.884506
  0
ARC
  8
0
 10
-155.000000
 20
150.399994
 40
7.999992
 50
229.014694
 51
10.985427
  0
ARC
  8
0
 10
-155.000000
 20
150.399994
 40
6.999993
 50
231.860809
 51
8.139146
  0
POINT
  8
0
 10
-127.499939
 20
-29.999985
  0
POINT
  8
0
 10
-189.999939
 20
-29.999985
  0
LINE
  8
0
 10
-185.499954
 20
-75.961929
 11
-143.499954
 21
-75.961929
  0
LINE
  8
0
 10
-185.499924
 20
15.961952
 11
-143.499924
 21
15.961952
  0
LINE
  8
0
 10
-189.999939
 20
-77.405716
 11
-185.499954
 21
-77.405716
  0
LINE
  8
0
 10
-189.999939
 20
17.405739
 11
-185.499924
 21
17.405739
  0
LINE
  8
0
 10
-189.999939
 20
17.405739
 11
-189.999939
 21
-77.405716
  0
LINE
  8
0
 10
-185.499939
 20
17.405739
 11
-185.499939
 21
-77.405716
  0
LINE
  8
0
 10
-143.499939
 20
15.961941
 11
-143.499939
 21
-75.961945
  0
LINE
  8
0
 10
-138.499939
 20
-20.986439
 11
-138.499939
 21
-28.633030
  0
LINE
  8
0
 10
-131.499939
 20
-21.436049
 11
-131.499939
 21
-25.836042
  0
LINE
  8
0
 10
-141.499939
 20
-11.276287
 11
-141.499939
 21
-18.538342
  0
LINE
  8
0
 10
-127.499939
 20
-18.950005
 11
-127.499939
 21
-41.050003
  0
LINE
  8
0
 10
-143.499939
 20
-42.094421
 11
-138.949936
 21
-42.094421
  0
LINE
  8
0
 10
-143.499939
 20
-38.619835
 11
-138.949936
 21
-38.619835
  0
LINE
  8
0
 10
-143.499939
 20
-32.889366
 11
-138.949936
 21
-32.889366
  0
LINE
  8
0
 10
-143.499939
 20
-30.633484
 11
-138.949936
 21
-30.633484
  0
LINE
  8
0
 10
-143.499939
 20
-28.532234
 11
-138.949936
 21
-28.532234
  0
LINE
  8
0
 10
-143.499939
 20
-28.733727
 11
-138.949936
 21
-28.733727
  0
LINE
  8
0
 10
-143.499939
 20
-23.434532
 11
-138.949936
 21
-23.434532
  0
LINE
  8
0
 10
-143.499939
 20
-18.538330
 11
-138.949936
 21
-18.538330
  0
LINE
  8
0
 10
-138.499939
 20
-21.136032
 11
-131.799942
 21
-21.136032
  0
LINE
  8
0
 10
-138.499939
 20
-26.136032
 11
-131.799942
 21
-26.136032
  0
LINE
  8
0
 10
-138.499939
 20
-33.863953
 11
-131.799942
 21
-33.863953
  0
LINE
  8
0
 10
-138.499939
 20
-38.863953
 11
-131.799942
 21
-38.863953
  0
LINE
  8
0
 10
-131.499939
 20
-34.163967
 11
-131.499939
 21
-38.563965
  0
LINE
  8
0
 10
-138.499939
 20
-31.761433
 11
-138.499939
 21
-40.357140
  0
LINE
  8
0
 10
-131.799927
 20
-38.863991
 11
-131.499924
 21
-38.563984
  0
LINE
  8
0
 10
-131.799911
 20
-33.863949
 11
-131.499924
 21
-34.163944
  0
LINE
  8
0
 10
-131.499908
 20
-25.836067
 11
-131.799911
 21
-26.136072
  0
LINE
  8
0
 10
-131.799896
 20
-21.136005
 11
-131.499893
 21
-21.436012
  0
LINE
  8
0
 10
-131.799942
 20
-38.863968
 11
-131.799942
 21
-33.863964
  0
LINE
  8
0
 10
-131.799942
 20
-26.136038
 11
-131.799942
 21
-21.136038
  0
LINE
  8
0
 10
-131.549911
 20
-38.613945
 11
-138.499939
 21
-38.613945
  0
LINE
  8
0
 10
-131.549957
 20
-34.113945
 11
-138.499939
 21
-34.113945
  0
LINE
  8
0
 10
-131.549927
 20
-25.886024
 11
-138.499939
 21
-25.886024
  0
LINE
  8
0
 10
-131.549942
 20
-21.386024
 11
-138.499939
 21
-21.386024
  0
LINE
  8
0
 10
-138.949936
 20
-41.249992
 11
-127.699936
 21
-41.249992
  0
LINE
  8
0
 10
-139.323334
 20
-18.749992
 11
-127.699936
 21
-18.749992
  0
LINE
  8
0
 10
-127.699928
 20
-41.250011
 11
-127.499924
 21
-41.050007
  0
LINE
  8
0
 10
-127.499954
 20
-18.950027
 11
-127.699951
 21
-18.750031
  0
LINE
  8
0
 10
-141.499939
 20
-42.094433
 11
-141.499939
 21
-48.723709
  0
LINE
  8
0
 10
-141.499939
 20
-28.733738
 11
-141.499939
 21
-30.633495
  0
LINE
  8
0
 10
-185.499939
 20
-46.723877
 11
-143.499939
 21
-46.723877
  0
LINE
  8
0
 10
-185.499939
 20
-13.276367
 11
-143.499939
 21
-13.276367
  0
LINE
  8
0
 10
-185.499939
 20
-12.999985
 11
-189.999939
 21
-12.999985
  0
LINE
  8
0
 10
-185.499939
 20
-46.999985
 11
-189.999939
 21
-46.999985
  0
LINE
  8
0
 10
-141.099945
 20
-60.738766
 11
-141.099945
 21
-48.758709
  0
LINE
  8
0
 10
-141.099945
 20
-60.738762
 11
-143.499954
 21
-60.948738
  0
LINE
  8
0
 10
-141.099930
 20
-48.758713
 11
-143.499939
 21
-48.548737
  0
LINE
  8
0
 10
-141.099930
 20
-11.241291
 11
-141.099930
 21
0.738766
  0
LINE
  8
0
 10
-141.099945
 20
-11.241285
 11
-143.499939
 21
-11.451258
  0
LINE
  8
0
 10
-141.099930
 20
0.738777
 11
-143.499939
 21
0.948751
  0
LINE
  8
0
 10
-141.099945
 20
-48.599991
 11
-141.099945
 21
-42.094425
  0
LINE
  8
0
 10
-139.049942
 20
-45.049286
 11
-139.049942
 21
-44.950691
  0
LINE
  8
0
 10
-141.099945
 20
-48.599983
 11
-141.499939
 21
-48.599983
  0
LINE
  8
0
 10
-141.099945
 20
-18.538334
 11
-141.099945
 21
-11.399988
  0
LINE
  8
0
 10
-139.049942
 20
-15.049284
 11
-139.049942
 21
-14.950693
  0
LINE
  8
0
 10
-141.099945
 20
-11.399984
 11
-141.499939
 21
-11.399984
  0
LINE
  8
0
 10
-196.599945
 20
-44.286507
 11
-196.599945
 21
-53.913460
  0
LINE
  8
0
 10
-196.199951
 20
-44.099983
 11
-196.199951
 21
-54.099983
  0
LINE
  8
0
 10
-196.199951
 20
-44.099983
 11
-190.599945
 21
-44.099983
  0
LINE
  8
0
 10
-196.199951
 20
-54.099983
 11
-190.599945
 21
-54.099983
  0
LINE
  8
0
 10
-196.599945
 20
-44.286507
 11
-196.199936
 21
-44.099983
  0
LINE
  8
0
 10
-196.599945
 20
-53.913467
 11
-196.199951
 21
-54.099991
  0
LINE
  8
0
 10
-196.199951
 20
-46.099983
 11
-193.154648
 21
-46.099983
  0
LINE
  8
0
 10
-196.199951
 20
-48.099983
 11
-194.309357
 21
-48.099983
  0
LINE
  8
0
 10
-196.199951
 20
-50.099983
 11
-195.464050
 21
-50.099983
  0
LINE
  8
0
 10
-196.599945
 20
-6.086508
 11
-196.599945
 21
-15.713461
  0
LINE
  8
0
 10
-196.199951
 20
-5.899984
 11
-196.199951
 21
-15.899984
  0
LINE
  8
0
 10
-196.199921
 20
-5.899986
 11
-190.599930
 21
-5.899986
  0
LINE
  8
0
 10
-196.199921
 20
-15.899986
 11
-190.599930
 21
-15.899986
  0
LINE
  8
0
 10
-196.599945
 20
-6.086500
 11
-196.199936
 21
-5.899977
  0
LINE
  8
0
 10
-196.599930
 20
-15.713461
 11
-196.199936
 21
-15.899981
  0
LINE
  8
0
 10
-196.199921
 20
-7.899986
 11
-193.154633
 21
-7.899986
  0
LINE
  8
0
 10
-196.199921
 20
-9.899986
 11
-194.309326
 21
-9.899986
  0
LINE
  8
0
 10
-196.199921
 20
-11.899986
 11
-195.464035
 21
-11.899986
  0
LINE
  8
0
 10
-196.599945
 20
13.713493
 11
-196.599945
 21
4.086540
  0
LINE
  8
0
 10
-196.199921
 20
13.900017
 11
-196.199921
 21
3.900017
  0
LINE
  8
0
 10
-196.199921
 20
13.900017
 11
-190.599930
 21
13.900017
  0
LINE
  8
0
 10
-196.199921
 20
3.900017
 11
-190.599930
 21
3.900017
  0
LINE
  8
0
 10
-196.599945
 20
13.713509
 11
-196.199936
 21
13.900032
  0
LINE
  8
0
 10
-196.599915
 20
4.086555
 11
-196.199921
 21
3.900032
  0
LINE
  8
0
 10
-196.199921
 20
11.900017
 11
-193.154633
 21
11.900017
  0
LINE
  8
0
 10
-196.199921
 20
9.900017
 11
-194.309326
 21
9.900017
  0
LINE
  8
0
 10
-196.199921
 20
7.900017
 11
-195.464035
 21
7.900017
  0
LINE
  8
0
 10
-196.599945
 20
-64.086510
 11
-196.599945
 21
-73.713463
  0
LINE
  8
0
 10
-196.199951
 20
-63.899986
 11
-196.199951
 21
-73.899986
  0
LINE
  8
0
 10
-196.199951
 20
-63.899986
 11
-190.599945
 21
-63.899986
  0
LINE
  8
0
 10
-196.199951
 20
-73.899986
 11
-190.599945
 21
-73.899986
  0
LINE
  8
0
 10
-196.599945
 20
-64.086533
 11
-196.199936
 21
-63.900013
  0
LINE
  8
0
 10
-196.599960
 20
-73.713470
 11
-196.199966
 21
-73.899994
  0
LINE
  8
0
 10
-196.199951
 20
-65.899986
 11
-193.154648
 21
-65.899986
  0
LINE
  8
0
 10
-196.199951
 20
-67.899986
 11
-194.309357
 21
-67.899986
  0
LINE
  8
0
 10
-196.199951
 20
-69.899986
 11
-195.464050
 21
-69.899986
  0
LINE
  8
0
 10
-190.599945
 20
14.150017
 11
-190.599945
 21
3.650017
  0
LINE
  8
0
 10
-190.599945
 20
-74.149986
 11
-189.999939
 21
-74.149986
  0
LINE
  8
0
 10
-190.599945
 20
-63.649986
 11
-189.999939
 21
-63.649986
  0
LINE
  8
0
 10
-190.599945
 20
-54.349983
 11
-189.999939
 21
-54.349983
  0
LINE
  8
0
 10
-190.599945
 20
-43.849983
 11
-189.999939
 21
-43.849983
  0
LINE
  8
0
 10
-190.599930
 20
-16.149986
 11
-189.999939
 21
-16.149986
  0
LINE
  8
0
 10
-190.599930
 20
-5.649986
 11
-189.999939
 21
-5.649986
  0
LINE
  8
0
 10
-190.599930
 20
3.650017
 11
-189.999939
 21
3.650017
  0
LINE
  8
0
 10
-190.599930
 20
14.150017
 11
-189.999939
 21
14.150017
  0
LINE
  8
0
 10
-190.599945
 20
-43.849983
 11
-190.599945
 21
-54.349983
  0
LINE
  8
0
 10
-190.599945
 20
-63.649986
 11
-190.599945
 21
-74.149986
  0
LINE
  8
0
 10
-190.599945
 20
-5.649986
 11
-190.599945
 21
-16.149986
  0
LINE
  8
0
 10
-168.499939
 20
-85.397507
 11
-160.499939
 21
-85.397507
  0
LINE
  8
0
 10
-170.499939
 20
-75.961929
 11
-170.499939
 21
-83.397507
  0
LINE
  8
0
 10
-158.499939
 20
-75.961929
 11
-158.499939
 21
-83.397507
  0
ARC
  8
0
 10
-142.078491
 20
-40.357140
 40
3.578571
 50
330.956512
 51
29.043665
  0
ARC
  8
0
 10
-147.846741
 20
-35.754608
 40
9.346802
 50
342.148743
 51
17.851284
  0
ARC
  8
0
 10
-140.138565
 20
-31.761433
 40
1.638633
 50
316.501129
 51
43.498928
  0
ARC
  8
0
 10
-145.384109
 20
-20.986439
 40
6.884173
 50
339.168884
 51
20.831175
  0
ARC
  8
0
 10
-145.943466
 20
-25.983393
 40
7.443544
 50
339.975311
 51
20.024738
  0
ARC
  8
0
 10
-154.250107
 20
-54.748734
 40
14.450163
 50
335.510254
 51
24.489677
  0
ARC
  8
0
 10
-154.250092
 20
-5.251261
 40
14.450162
 50
335.510284
 51
24.489653
  0
ARC
  8
0
 10
-143.149933
 20
-45.049286
 40
4.099999
 50
300.000061
 51
0.000000
  0
ARC
  8
0
 10
-143.149933
 20
-44.950691
 40
4.100006
 50
359.999939
 51
44.158955
  0
ARC
  8
0
 10
-143.149933
 20
-15.049284
 40
4.099999
 50
301.680725
 51
359.999969
  0
ARC
  8
0
 10
-143.149933
 20
-14.950693
 40
4.100006
 50
359.999969
 51
59.999954
  0
CIRCLE
  8
0
 10
-178.499939
 20
-29.999985
 40
2.700000
  0
ARC
  8
0
 10
-168.499939
 20
-83.397507
 40
2.000000
 50
180.000000
 51
270.000000
  0
ARC
  8
0
 10
-160.499939
 20
-83.397507
 40
2.000000
 50
270.000000
 51
0.000000
  0
ARC
  8
0
 10
-179.209854
 20
-66.769554
 40
1.309918
 50
345.893494
 51
14.105849
  0
ARC
  8
0
 10
-179.552277
 20
-66.895088
 40
1.673044
 50
15.417454
 51
51.387932
  0
ARC
  8
0
 10
-180.499939
 20
-68.279610
 40
3.348554
 50
53.501736
 51
126.498184
  0
ARC
  8
0
 10
-181.447601
 20
-66.895081
 40
1.673042
 50
128.612061
 51
164.582291
  0
ARC
  8
0
 10
-181.790024
 20
-66.769554
 40
1.309918
 50
165.893509
 51
194.105850
  0
ARC
  8
0
 10
-181.447601
 20
-66.644020
 40
1.673044
 50
195.417450
 51
231.387939
  0
ARC
  8
0
 10
-180.499939
 20
-65.259499
 40
3.348554
 50
233.501740
 51
306.498199
  0
ARC
  8
0
 10
-179.552277
 20
-66.644028
 40
1.673042
 50
308.612061
 51
344.582306
  0
ARC
  8
0
 10
-179.209854
 20
6.769581
 40
1.309902
 50
345.893494
 51
14.106194
  0
ARC
  8
0
 10
-179.552277
 20
6.644053
 40
1.673029
 50
15.417514
 51
51.387810
  0
ARC
  8
0
 10
-180.499939
 20
5.259550
 40
3.348535
 50
53.501495
 51
126.498177
  0
ARC
  8
0
 10
-181.447601
 20
6.644059
 40
1.673033
 50
128.611633
 51
164.582153
  0
ARC
  8
0
 10
-181.790024
 20
6.769588
 40
1.309902
 50
165.893478
 51
194.106201
  0
ARC
  8
0
 10
-181.447601
 20
6.895116
 40
1.673029
 50
195.417511
 51
231.387817
  0
ARC
  8
0
 10
-180.499939
 20
8.279619
 40
3.348535
 50
233.501495
 51
306.498169
  0
ARC
  8
0
 10
-179.552277
 20
6.895111
 40
1.673033
 50
308.611633
 51
344.582153
  0
ARC
  8
0
 10
-138.949936
 20
-27.060684
 40
1.672815
 50
270.000000
 51
281.891937
  0
ARC
  8
0
 10
-138.638260
 20
-28.502287
 40
0.198085
 50
279.600281
 51
311.587738
  0
ARC
  8
0
 10
-138.525635
 20
-28.632992
 40
0.025697
 50
317.216827
 51
42.783188
  0
ARC
  8
0
 10
-138.638260
 20
-28.763697
 40
0.198089
 50
48.412277
 51
80.399727
  0
ARC
  8
0
 10
-138.949936
 20
-30.205299
 40
1.672815
 50
78.108055
 51
90.000000
  0
POINT
  8
0
 10
-158.499893
 20
-194.999924
  0
POINT
  8
0
 10
-189.999893
 20
-194.999924
  0
LINE
  8
0
 10
-189.999893
 20
-186.999924
 11
-185.499893
 21
-186.999924
  0
LINE
  8
0
 10
-185.499893
 20
-160.999863
 11
-170.499893
 21
-160.999863
  0
LINE
  8
0
 10
-185.499893
 20
-129.237915
 11
-143.499893
 21
-129.237915
  0
LINE
  8
0
 10
-185.499893
 20
-99.999863
 11
-143.499893
 21
-99.999863
  0
LINE
  8
0
 10
-143.499893
 20
-108.367035
 11
-138.949905
 21
-108.367035
  0
LINE
  8
0
 10
-143.499893
 20
-112.977951
 11
-138.949905
 21
-112.977951
  0
LINE
  8
0
 10
-143.499893
 20
-118.292496
 11
-138.949905
 21
-118.292496
  0
LINE
  8
0
 10
-143.499893
 20
-118.996109
 11
-138.774948
 21
-118.996109
  0
LINE
  8
0
 10
-138.499893
 20
-111.181564
 11
-131.799896
 21
-111.181564
  0
LINE
  8
0
 10
-138.499893
 20
-116.181564
 11
-131.799896
 21
-116.181564
  0
LINE
  8
0
 10
-143.499893
 20
-160.415588
 11
-141.499893
 21
-160.415588
  0
LINE
  8
0
 10
-140.255325
 20
-135.665588
 11
-127.699905
 21
-135.665588
  0
LINE
  8
0
 10
-141.499893
 20
-158.165588
 11
-127.699890
 21
-158.165588
  0
LINE
  8
0
 10
-189.999893
 20
-99.999924
 11
-189.999893
 21
-240.999924
  0
LINE
  8
0
 10
-185.499893
 20
-99.960861
 11
-185.499893
 21
-186.999924
  0
LINE
  8
0
 10
-143.499893
 20
-99.999863
 11
-143.499893
 21
-160.999863
  0
LINE
  8
0
 10
-138.499893
 20
-110.672485
 11
-138.499893
 21
-118.644295
  0
LINE
  8
0
 10
-131.499893
 20
-111.481552
 11
-131.499893
 21
-115.881561
  0
LINE
  8
0
 10
-141.499893
 20
-138.091370
 11
-141.499893
 21
-160.415588
  0
LINE
  8
0
 10
-127.499893
 20
-135.865570
 11
-127.499893
 21
-157.965576
  0
LINE
  8
0
 10
-131.799866
 20
-111.181503
 11
-131.499847
 21
-111.481499
  0
LINE
  8
0
 10
-131.799881
 20
-116.181534
 11
-131.499893
 21
-115.881538
  0
LINE
  8
0
 10
-131.799896
 20
-111.181557
 11
-131.799896
 21
-116.181557
  0
LINE
  8
0
 10
-131.549911
 20
-115.931564
 11
-138.499893
 21
-115.931564
  0
LINE
  8
0
 10
-131.549866
 20
-111.431564
 11
-138.499893
 21
-111.431564
  0
LINE
  8
0
 10
-127.699966
 20
-135.665634
 11
-127.499962
 21
-135.865631
  0
LINE
  8
0
 10
-127.699905
 20
-158.165588
 11
-127.499893
 21
-157.965576
  0
LINE
  8
0
 10
-189.999908
 20
-99.999924
 11
-185.499893
 21
-99.999924
  0
LINE
  8
0
 10
-189.999908
 20
-129.199921
 11
-185.499893
 21
-129.199921
  0
LINE
  8
0
 10
-158.499893
 20
-142.671204
 11
-158.499893
 21
-142.762634
  0
LINE
  8
0
 10
-170.499893
 20
-142.671204
 11
-170.499893
 21
-142.762634
  0
LINE
  8
0
 10
-157.200394
 20
-135.669586
 11
-157.200394
 21
-135.959137
  0
LINE
  8
0
 10
-152.000397
 20
-135.672943
 11
-152.000397
 21
-135.955780
  0
LINE
  8
0
 10
-176.999390
 20
-149.669586
 11
-176.999390
 21
-149.959152
  0
LINE
  8
0
 10
-171.799393
 20
-149.672943
 11
-171.799393
 21
-149.955795
  0
LINE
  8
0
 10
-150.499908
 20
-141.258484
 11
-150.600311
 21
-134.230148
  0
LINE
  8
0
 10
-178.399475
 20
-148.287323
 11
-178.500046
 21
-141.247375
  0
LINE
  8
0
 10
-164.499542
 20
-131.359268
 11
-154.448730
 21
-131.432373
  0
LINE
  8
0
 10
-174.551880
 20
-152.499329
 11
-170.499893
 21
-152.528809
  0
LINE
  8
0
 10
-178.399460
 20
-149.701508
 11
-178.500031
 21
-142.661591
  0
LINE
  8
0
 10
-164.499542
 20
-132.773499
 11
-154.448746
 21
-132.846588
  0
LINE
  8
0
 10
-150.499969
 20
-142.672714
 11
-150.600372
 21
-135.644363
  0
LINE
  8
0
 10
-141.099899
 20
-150.515594
 11
-141.099899
 21
-143.315582
  0
LINE
  8
0
 10
-139.049896
 20
-146.964874
 11
-139.049896
 21
-146.866287
  0
LINE
  8
0
 10
-141.099899
 20
-143.315582
 11
-141.499893
 21
-143.315582
  0
LINE
  8
0
 10
-141.099899
 20
-150.515594
 11
-141.499893
 21
-150.515594
  0
LINE
  8
0
 10
-141.099899
 20
-138.056366
 11
-141.099899
 21
-126.076309
  0
LINE
  8
0
 10
-141.099915
 20
-138.056351
 11
-143.499924
 21
-138.266327
  0
LINE
  8
0
 10
-141.099869
 20
-126.076286
 11
-143.499878
 21
-125.866310
  0
LINE
  8
0
 10
-196.599899
 20
-104.586449
 11
-196.599899
 21
-114.213402
  0
LINE
  8
0
 10
-196.199890
 20
-104.399925
 11
-196.199890
 21
-114.399925
  0
LINE
  8
0
 10
-196.199890
 20
-104.399925
 11
-190.599899
 21
-104.399925
  0
LINE
  8
0
 10
-196.199890
 20
-114.399925
 11
-190.599899
 21
-114.399925
  0
LINE
  8
0
 10
-196.599930
 20
-104.586433
 11
-196.199936
 21
-104.399910
  0
LINE
  8
0
 10
-196.599884
 20
-114.213387
 11
-196.199890
 21
-114.399902
  0
LINE
  8
0
 10
-196.199890
 20
-106.399925
 11
-193.154602
 21
-106.399925
  0
LINE
  8
0
 10
-196.199890
 20
-108.399925
 11
-194.309296
 21
-108.399925
  0
LINE
  8
0
 10
-196.199890
 20
-110.399925
 11
-195.464005
 21
-110.399925
  0
LINE
  8
0
 10
-196.599899
 20
-124.386444
 11
-196.599899
 21
-134.013397
  0
LINE
  8
0
 10
-196.199890
 20
-124.199921
 11
-196.199890
 21
-134.199921
  0
LINE
  8
0
 10
-196.199890
 20
-124.199921
 11
-190.599899
 21
-124.199921
  0
LINE
  8
0
 10
-196.199890
 20
-134.199921
 11
-190.599899
 21
-134.199921
  0
LINE
  8
0
 10
-196.599915
 20
-124.386436
 11
-196.199905
 21
-124.199905
  0
LINE
  8
0
 10
-196.599884
 20
-134.013367
 11
-196.199890
 21
-134.199890
  0
LINE
  8
0
 10
-196.199890
 20
-126.199921
 11
-193.154602
 21
-126.199921
  0
LINE
  8
0
 10
-196.199890
 20
-128.199921
 11
-194.309296
 21
-128.199921
  0
LINE
  8
0
 10
-196.199890
 20
-130.199921
 11
-195.464005
 21
-130.199921
  0
LINE
  8
0
 10
-172.999893
 20
-182.759140
 11
-172.999893
 21
-167.318710
  0
LINE
  8
0
 10
-173.599899
 20
-183.038925
 11
-173.599899
 21
-167.038925
  0
LINE
  8
0
 10
-173.599899
 20
-183.038925
 11
-182.999893
 21
-183.038925
  0
LINE
  8
0
 10
-173.599884
 20
-167.038925
 11
-182.999893
 21
-167.038925
  0
LINE
  8
0
 10
-172.999908
 20
-182.759140
 11
-173.599915
 21
-183.038940
  0
LINE
  8
0
 10
-172.999893
 20
-167.318710
 11
-173.599884
 21
-167.038925
  0
LINE
  8
0
 10
-173.599899
 20
-181.038925
 11
-179.495193
 21
-181.038925
  0
LINE
  8
0
 10
-173.599899
 20
-179.038925
 11
-178.340500
 21
-179.038925
  0
LINE
  8
0
 10
-173.599899
 20
-177.038925
 11
-177.185791
 21
-177.038925
  0
LINE
  8
0
 10
-173.599899
 20
-175.038925
 11
-176.031082
 21
-175.038925
  0
LINE
  8
0
 10
-173.599899
 20
-173.038925
 11
-174.876389
 21
-173.038925
  0
LINE
  8
0
 10
-173.599899
 20
-171.038925
 11
-173.721695
 21
-171.038925
  0
LINE
  8
0
 10
-186.499893
 20
-186.999924
 11
-186.499893
 21
-217.199921
  0
LINE
  8
0
 10
-189.599884
 20
-217.499924
 11
-186.799896
 21
-217.499924
  0
LINE
  8
0
 10
-186.499893
 20
-207.499924
 11
-183.049896
 21
-207.499924
  0
LINE
  8
0
 10
-186.799911
 20
-217.499908
 11
-186.499908
 21
-217.199905
  0
LINE
  8
0
 10
-182.999893
 20
-184.238922
 11
-182.999893
 21
-207.449921
  0
LINE
  8
0
 10
-182.999893
 20
-207.449921
 11
-181.999893
 21
-207.449921
  0
LINE
  8
0
 10
-183.049896
 20
-207.499908
 11
-182.999893
 21
-207.449905
  0
LINE
  8
0
 10
-181.999893
 20
-183.038925
 11
-181.999893
 21
-193.972427
  0
LINE
  8
0
 10
-181.999893
 20
-196.027420
 11
-181.999893
 21
-207.407440
  0
LINE
  8
0
 10
-190.599884
 20
-104.149925
 11
-190.599884
 21
-114.649925
  0
LINE
  8
0
 10
-182.999893
 20
-165.838928
 11
-182.999893
 21
-184.238922
  0
LINE
  8
0
 10
-182.999893
 20
-165.838928
 11
-185.499893
 21
-165.838928
  0
LINE
  8
0
 10
-182.999893
 20
-184.238922
 11
-185.499893
 21
-184.238922
  0
LINE
  8
0
 10
-190.599899
 20
-123.949921
 11
-189.999893
 21
-123.949921
  0
LINE
  8
0
 10
-190.599899
 20
-134.449921
 11
-189.999893
 21
-134.449921
  0
LINE
  8
0
 10
-190.599899
 20
-104.149925
 11
-189.999893
 21
-104.149925
  0
LINE
  8
0
 10
-190.599899
 20
-114.649925
 11
-189.999893
 21
-114.649925
  0
LINE
  8
0
 10
-190.599884
 20
-123.949921
 11
-190.599884
 21
-134.449921
  0
LINE
  8
0
 10
-185.499893
 20
-176.482300
 11
-182.999893
 21
-175.038925
  0
LINE
  8
0
 10
-185.499893
 20
-175.327591
 11
-182.999893
 21
-173.884216
  0
LINE
  8
0
 10
-158.499893
 20
-141.602386
 11
-158.499893
 21
-248.397446
  0
LINE
  8
0
 10
-170.499893
 20
-141.602386
 11
-170.499893
 21
-248.397446
  0
LINE
  8
0
 10
-181.999893
 20
-183.038925
 11
-181.999893
 21
-217.273788
  0
LINE
  8
0
 10
-168.499893
 20
-139.602386
 11
-160.499893
 21
-139.602386
  0
LINE
  8
0
 10
-168.499893
 20
-153.703629
 11
-160.499893
 21
-153.703629
  0
LINE
  8
0
 10
-168.499893
 20
-163.449478
 11
-160.499893
 21
-163.449478
  0
LINE
  8
0
 10
-168.499893
 20
-226.550339
 11
-160.499893
 21
-226.550339
  0
LINE
  8
0
 10
-168.499893
 20
-236.296173
 11
-160.499893
 21
-236.296173
  0
LINE
  8
0
 10
-168.499893
 20
-250.397446
 11
-160.499893
 21
-250.397446
  0
LINE
  8
0
 10
-172.999893
 20
-169.897629
 11
-170.499893
 21
-169.897629
  0
LINE
  8
0
 10
-181.999893
 20
-192.525055
 11
-173.499878
 21
-192.525055
  0
LINE
  8
0
 10
-181.999893
 20
-198.181900
 11
-173.499878
 21
-198.181900
  0
LINE
  8
0
 10
-181.999893
 20
-217.273788
 11
-173.493820
 21
-217.273788
  0
LINE
  8
0
 10
-158.499893
 20
-160.999863
 11
-143.499893
 21
-160.999863
  0
ARC
  8
0
 10
-138.862411
 20
-118.644295
 40
0.362520
 50
256.036285
 51
103.963715
  0
ARC
  8
0
 10
-146.570618
 20
-115.635223
 40
8.070709
 50
340.776794
 51
19.223194
  0
ARC
  8
0
 10
-144.630646
 20
-110.672493
 40
6.130752
 50
337.910889
 51
22.089111
  0
CIRCLE
  8
0
 10
-164.499893
 20
-143.380051
 40
0.010000
  0
CIRCLE
  8
0
 10
-154.600403
 20
-136.698242
 40
0.010000
  0
CIRCLE
  8
0
 10
-174.399399
 20
-150.698257
 40
0.010000
  0
ARC
  8
0
 10
-143.149902
 20
-146.964874
 40
4.100002
 50
300.000031
 51
0.000000
  0
ARC
  8
0
 10
-143.149902
 20
-146.866287
 40
4.100006
 50
0.000000
 51
59.999969
  0
ARC
  8
0
 10
-154.250061
 20
-132.066345
 40
14.450159
 50
335.510284
 51
24.489733
  0
ARC
  8
0
 10
-189.599884
 20
-217.899918
 40
0.399994
 50
90.000000
 51
180.000000
  0
ARC
  8
0
 10
-160.499893
 20
-155.703629
 40
2.000000
 50
0.000000
 51
90.000000
  0
ARC
  8
0
 10
-168.499893
 20
-155.703629
 40
2.000000
 50
90.000000
 51
180.000000
  0
ARC
  8
0
 10
-160.499893
 20
-141.602386
 40
2.000000
 50
0.000000
 51
90.000000
  0
ARC
  8
0
 10
-168.499893
 20
-141.602386
 40
2.000000
 50
90.000000
 51
180.000000
  0
ARC
  8
0
 10
-160.499893
 20
-234.296173
 40
2.000000
 50
270.000000
 51
0.000000
  0
ARC
  8
0
 10
-168.499893
 20
-234.296173
 40
2.000000
 50
180.000000
 51
270.000000
  0
ARC
  8
0
 10
-160.499893
 20
-248.397446
 40
2.000000
 50
270.000000
 51
0.000000
  0
ARC
  8
0
 10
-168.499893
 20
-248.397446
 40
2.000000
 50
180.000000
 51
270.000000
  0
ARC
  8
0
 10
-179.209808
 20
-120.042374
 40
1.309905
 50
346.033356
 51
14.246034
  0
ARC
  8
0
 10
-179.551926
 20
-120.168739
 40
1.673037
 50
15.557425
 51
51.527977
  0
ARC
  8
0
 10
-180.496216
 20
-121.555588
 40
3.348565
 50
53.641735
 51
126.638107
  0
ARC
  8
0
 10
-181.447281
 20
-120.173370
 40
1.673036
 50
128.751450
 51
164.721985
  0
ARC
  8
0
 10
-181.790009
 20
-120.048676
 40
1.309905
 50
166.033356
 51
194.246033
  0
ARC
  8
0
 10
-181.447891
 20
-119.922310
 40
1.673037
 50
195.557419
 51
231.527985
  0
ARC
  8
0
 10
-180.503601
 20
-118.535461
 40
3.348565
 50
233.641739
 51
306.638092
  0
ARC
  8
0
 10
-179.552536
 20
-119.917679
 40
1.673036
 50
308.751465
 51
344.721985
  0
ARC
  8
0
 10
-164.499893
 20
-148.020401
 40
8.918448
 50
70.004875
 51
109.995094
  0
ARC
  8
0
 10
-153.521240
 20
-136.230209
 40
1.120839
 50
345.973022
 51
14.026974
  0
ARC
  8
0
 10
-153.807678
 20
-136.334625
 40
1.424401
 50
15.309274
 51
51.197941
  0
ARC
  8
0
 10
-154.600403
 20
-137.486237
 40
2.820534
 50
53.308083
 51
126.691917
  0
ARC
  8
0
 10
-155.393127
 20
-136.334625
 40
1.424406
 50
128.802063
 51
164.690720
  0
ARC
  8
0
 10
-155.679565
 20
-136.230209
 40
1.120839
 50
165.973022
 51
194.026978
  0
ARC
  8
0
 10
-155.393127
 20
-136.125793
 40
1.424401
 50
195.309280
 51
231.197937
  0
ARC
  8
0
 10
-154.600403
 20
-134.974182
 40
2.820534
 50
233.308090
 51
306.691925
  0
ARC
  8
0
 10
-153.807678
 20
-136.125793
 40
1.424406
 50
308.802063
 51
344.690735
  0
ARC
  8
0
 10
-153.726990
 20
-136.437531
 40
0.887593
 50
345.896881
 51
14.103133
  0
ARC
  8
0
 10
-153.958817
 20
-136.522491
 40
1.133431
 50
15.413085
 51
51.381031
  0
ARC
  8
0
 10
-154.600403
 20
-137.459641
 40
2.267612
 50
53.494598
 51
126.505402
  0
ARC
  8
0
 10
-155.241989
 20
-136.522491
 40
1.133423
 50
128.618973
 51
164.586914
  0
ARC
  8
0
 10
-155.473816
 20
-136.437531
 40
0.887593
 50
165.896866
 51
194.103134
  0
ARC
  8
0
 10
-155.241989
 20
-136.352570
 40
1.133431
 50
195.413086
 51
231.381027
  0
ARC
  8
0
 10
-154.600403
 20
-135.415421
 40
2.267612
 50
233.494598
 51
306.505402
  0
ARC
  8
0
 10
-153.958817
 20
-136.352570
 40
1.133423
 50
308.618958
 51
344.586914
  0
ARC
  8
0
 10
-154.167618
 20
-136.572662
 40
0.438713
 50
346.128571
 51
14.352341
  0
ARC
  8
0
 10
-154.282303
 20
-136.615280
 40
0.560528
 50
15.666879
 51
51.644184
  0
ARC
  8
0
 10
-154.598267
 20
-137.081284
 40
1.122800
 50
53.757549
 51
126.725693
  0
ARC
  8
0
 10
-154.918137
 20
-136.617966
 40
0.560552
 50
128.839813
 51
164.815598
  0
ARC
  8
0
 10
-155.033188
 20
-136.576324
 40
0.438713
 50
166.128571
 51
194.352341
  0
ARC
  8
0
 10
-154.918503
 20
-136.533707
 40
0.560528
 50
195.666885
 51
231.644180
  0
ARC
  8
0
 10
-154.602539
 20
-136.067703
 40
1.122800
 50
233.757553
 51
306.725677
  0
ARC
  8
0
 10
-154.282669
 20
-136.531021
 40
0.560552
 50
308.839813
 51
344.815613
  0
ARC
  8
0
 10
-173.320236
 20
-150.230225
 40
1.120839
 50
345.973022
 51
14.026974
  0
ARC
  8
0
 10
-173.606674
 20
-150.334641
 40
1.424401
 50
15.309274
 51
51.197941
  0
ARC
  8
0
 10
-174.399399
 20
-151.486252
 40
2.820534
 50
53.308083
 51
126.691917
  0
ARC
  8
0
 10
-175.192123
 20
-150.334641
 40
1.424406
 50
128.802063
 51
164.690720
  0
ARC
  8
0
 10
-175.478561
 20
-150.230225
 40
1.120839
 50
165.973022
 51
194.026978
  0
ARC
  8
0
 10
-175.192123
 20
-150.125809
 40
1.424401
 50
195.309280
 51
231.197937
  0
ARC
  8
0
 10
-174.399399
 20
-148.974197
 40
2.820534
 50
233.308090
 51
306.691925
  0
ARC
  8
0
 10
-173.606674
 20
-150.125809
 40
1.424406
 50
308.802063
 51
344.690735
  0
ARC
  8
0
 10
-173.525986
 20
-150.437531
 40
0.887593
 50
345.896881
 51
14.103133
  0
ARC
  8
0
 10
-173.757812
 20
-150.522491
 40
1.133431
 50
15.413085
 51
51.381031
  0
ARC
  8
0
 10
-174.399399
 20
-151.459641
 40
2.267612
 50
53.494598
 51
126.505402
  0
ARC
  8
0
 10
-175.040985
 20
-150.522491
 40
1.133423
 50
128.618973
 51
164.586914
  0
ARC
  8
0
 10
-175.272812
 20
-150.437531
 40
0.887593
 50
165.896866
 51
194.103134
  0
ARC
  8
0
 10
-175.040985
 20
-150.352570
 40
1.133431
 50
195.413086
 51
231.381027
  0
ARC
  8
0
 10
-174.399399
 20
-149.415421
 40
2.267612
 50
233.494598
 51
306.505402
  0
ARC
  8
0
 10
-173.757812
 20
-150.352570
 40
1.133423
 50
308.618958
 51
344.586914
  0
ARC
  8
0
 10
-173.966599
 20
-150.572678
 40
0.438713
 50
346.128571
 51
14.352341
  0
ARC
  8
0
 10
-174.081284
 20
-150.615295
 40
0.560528
 50
15.666879
 51
51.644184
  0
ARC
  8
0
 10
-174.397247
 20
-151.081299
 40
1.122800
 50
53.757549
 51
126.725693
  0
ARC
  8
0
 10
-174.717117
 20
-150.617981
 40
0.560552
 50
128.839813
 51
164.815598
  0
ARC
  8
0
 10
-174.832169
 20
-150.576340
 40
0.438713
 50
166.128571
 51
194.352341
  0
ARC
  8
0
 10
-174.717484
 20
-150.533722
 40
0.560528
 50
195.666885
 51
231.644180
  0
ARC
  8
0
 10
-174.401520
 20
-150.067719
 40
1.122800
 50
233.757553
 51
306.725677
  0
ARC
  8
0
 10
-174.081650
 20
-150.531036
 40
0.560552
 50
308.839813
 51
344.815613
  0
ARC
  8
0
 10
-173.109299
 20
-149.672943
 40
1.309921
 50
0.000000
 51
14.106497
  0
ARC
  8
0
 10
-173.451721
 20
-149.798477
 40
1.673048
 50
15.417957
 51
51.387932
  0
ARC
  8
0
 10
-174.399384
 20
-151.182999
 40
3.348554
 50
53.501736
 51
126.498260
  0
ARC
  8
0
 10
-175.347046
 20
-149.798477
 40
1.673042
 50
128.612061
 51
164.582047
  0
ARC
  8
0
 10
-175.689468
 20
-149.672943
 40
1.309918
 50
165.893509
 51
179.892548
  0
ARC
  8
0
 10
-174.399384
 20
-148.445740
 40
3.348558
 50
280.597534
 51
306.498260
  0
ARC
  8
0
 10
-173.451721
 20
-149.830261
 40
1.673042
 50
308.612061
 51
344.582031
  0
ARC
  8
0
 10
-173.109299
 20
-149.955795
 40
1.309918
 50
345.893494
 51
14.106497
  0
ARC
  8
0
 10
-173.451721
 20
-150.081329
 40
1.673048
 50
15.417957
 51
51.387932
  0
ARC
  8
0
 10
-174.399384
 20
-151.465851
 40
3.348554
 50
53.501736
 51
126.498260
  0
ARC
  8
0
 10
-175.347046
 20
-150.081329
 40
1.673042
 50
128.612061
 51
164.582047
  0
ARC
  8
0
 10
-175.689468
 20
-149.955795
 40
1.309918
 50
165.893509
 51
194.106491
  0
ARC
  8
0
 10
-175.347046
 20
-149.830261
 40
1.673048
 50
195.417953
 51
231.387939
  0
ARC
  8
0
 10
-174.399384
 20
-148.445740
 40
3.348554
 50
233.501740
 51
259.390503
  0
ARC
  8
0
 10
-153.310318
 20
-135.672943
 40
1.309921
 50
0.000000
 51
14.106497
  0
ARC
  8
0
 10
-153.652740
 20
-135.798477
 40
1.673048
 50
15.417957
 51
51.387932
  0
ARC
  8
0
 10
-154.600403
 20
-137.182999
 40
3.348554
 50
53.501736
 51
126.498260
  0
ARC
  8
0
 10
-155.548065
 20
-135.798477
 40
1.673042
 50
128.612061
 51
164.582047
  0
ARC
  8
0
 10
-155.890488
 20
-135.672943
 40
1.309918
 50
165.893509
 51
179.892548
  0
ARC
  8
0
 10
-154.600403
 20
-134.445724
 40
3.348561
 50
280.597778
 51
306.498260
  0
ARC
  8
0
 10
-153.652740
 20
-135.830246
 40
1.673042
 50
308.612061
 51
344.582031
  0
ARC
  8
0
 10
-153.310318
 20
-135.955780
 40
1.309918
 50
345.893494
 51
14.106497
  0
ARC
  8
0
 10
-153.652740
 20
-136.081314
 40
1.673048
 50
15.417957
 51
51.387932
  0
ARC
  8
0
 10
-154.600403
 20
-137.465836
 40
3.348554
 50
53.501736
 51
126.498260
  0
ARC
  8
0
 10
-155.548065
 20
-136.081314
 40
1.673042
 50
128.612061
 51
164.582047
  0
ARC
  8
0
 10
-155.890488
 20
-135.955780
 40
1.309918
 50
165.893509
 51
194.106491
  0
ARC
  8
0
 10
-155.548065
 20
-135.830246
 40
1.673048
 50
195.417953
 51
231.387939
  0
ARC
  8
0
 10
-154.600403
 20
-134.445724
 40
3.348554
 50
233.501740
 51
259.390808
  0
ARC
  8
0
 10
-157.553070
 20
-142.672943
 40
7.053175
 50
345.893585
 51
14.106411
  0
ARC
  8
0
 10
-159.396942
 20
-143.348907
 40
9.008553
 50
15.417896
 51
51.388481
  0
ARC
  8
0
 10
-164.499893
 20
-150.804321
 40
18.030882
 50
53.502193
 51
126.497803
  0
ARC
  8
0
 10
-169.602844
 20
-143.348907
 40
9.008562
 50
128.611526
 51
164.582108
  0
ARC
  8
0
 10
-171.446716
 20
-142.672943
 40
7.053175
 50
165.893585
 51
194.106415
  0
ARC
  8
0
 10
-169.602844
 20
-141.996979
 40
9.008553
 50
195.417892
 51
231.388474
  0
ARC
  8
0
 10
-164.499893
 20
-134.541565
 40
18.030882
 50
233.502197
 51
306.497803
  0
ARC
  8
0
 10
-159.396942
 20
-141.996979
 40
9.008562
 50
308.611511
 51
344.582092
  0
ARC
  8
0
 10
-157.553070
 20
-142.672943
 40
7.053175
 50
345.893585
 51
14.106411
  0
ARC
  8
0
 10
-159.396942
 20
-143.348907
 40
9.008553
 50
15.417896
 51
51.388481
  0
ARC
  8
0
 10
-164.499893
 20
-150.804321
 40
18.030882
 50
53.502193
 51
126.497803
  0
ARC
  8
0
 10
-169.602844
 20
-143.348907
 40
9.008562
 50
128.611526
 51
164.582108
  0
ARC
  8
0
 10
-171.446716
 20
-142.672943
 40
7.053175
 50
165.893585
 51
194.106415
  0
ARC
  8
0
 10
-169.602844
 20
-141.996979
 40
9.008553
 50
195.417892
 51
231.388474
  0
ARC
  8
0
 10
-164.499893
 20
-134.541565
 40
18.030882
 50
233.502197
 51
306.497803
  0
ARC
  8
0
 10
-159.396942
 20
-141.996979
 40
9.008562
 50
308.611511
 51
344.582092
  0
ARC
  8
0
 10
-164.499893
 20
-149.390106
 40
18.030888
 50
89.959755
 51
126.497803
  0
ARC
  8
0
 10
-169.602844
 20
-141.934692
 40
9.008562
 50
128.611526
 51
164.582108
  0
ARC
  8
0
 10
-171.446716
 20
-141.258728
 40
7.053175
 50
165.893585
 51
179.909271
  0
ARC
  8
0
 10
-152.615601
 20
-134.258728
 40
2.015198
 50
0.000000
 51
14.106426
  0
ARC
  8
0
 10
-153.142410
 20
-134.451859
 40
2.573859
 50
15.417927
 51
51.388622
  0
ARC
  8
0
 10
-154.600403
 20
-136.581970
 40
5.151677
 50
53.502167
 51
90.767090
  0
ARC
  8
0
 10
-164.499893
 20
-136.031403
 40
11.591275
 50
301.043243
 51
306.497772
  0
ARC
  8
0
 10
-161.219421
 20
-140.824188
 40
5.791195
 50
308.611572
 51
344.582184
  0
ARC
  8
0
 10
-160.034073
 20
-141.258728
 40
4.534175
 50
345.893555
 51
14.106438
  0
ARC
  8
0
 10
-161.219421
 20
-141.693268
 40
5.791204
 50
15.417830
 51
51.388428
  0
ARC
  8
0
 10
-164.499893
 20
-146.486053
 40
11.591275
 50
53.502220
 51
126.497780
  0
ARC
  8
0
 10
-167.780365
 20
-141.693268
 40
5.791195
 50
128.611572
 51
164.582169
  0
ARC
  8
0
 10
-168.965714
 20
-141.258728
 40
4.534175
 50
165.893570
 51
188.972321
  0
ARC
  8
0
 10
-176.384201
 20
-149.672943
 40
2.015184
 50
180.806961
 51
194.106430
  0
ARC
  8
0
 10
-175.857391
 20
-149.479813
 40
2.573859
 50
195.417923
 51
231.388626
  0
ARC
  8
0
 10
-174.399399
 20
-147.349701
 40
5.151677
 50
233.502167
 51
270.852631
  0
ARC
  8
0
 10
-164.499893
 20
-150.804321
 40
18.030888
 50
89.959755
 51
126.497803
  0
ARC
  8
0
 10
-169.602844
 20
-143.348907
 40
9.008562
 50
128.611526
 51
164.582108
  0
ARC
  8
0
 10
-171.446716
 20
-142.672943
 40
7.053175
 50
165.893585
 51
179.909271
  0
ARC
  8
0
 10
-152.615601
 20
-135.672943
 40
2.015198
 50
0.000000
 51
14.106426
  0
ARC
  8
0
 10
-153.142410
 20
-135.866074
 40
2.573859
 50
15.417927
 51
51.388622
  0
ARC
  8
0
 10
-154.600403
 20
-137.996185
 40
5.151677
 50
53.502167
 51
90.767090
  0
ARC
  8
0
 10
-164.499893
 20
-134.541565
 40
18.030890
 50
289.359253
 51
306.497803
  0
ARC
  8
0
 10
-159.396942
 20
-141.996979
 40
9.008562
 50
308.611511
 51
344.582092
  0
ARC
  8
0
 10
-157.553070
 20
-142.672943
 40
7.053175
 50
345.893585
 51
1.740075
  0
ARC
  8
0
 10
-160.034073
 20
-142.672943
 40
4.534180
 50
0.000000
 51
14.106438
  0
ARC
  8
0
 10
-161.219421
 20
-143.107483
 40
5.791204
 50
15.417830
 51
51.388428
  0
ARC
  8
0
 10
-164.499893
 20
-147.900269
 40
11.591275
 50
53.502220
 51
126.497780
  0
ARC
  8
0
 10
-167.780365
 20
-143.107483
 40
5.791195
 50
128.611572
 51
164.582169
  0
ARC
  8
0
 10
-168.965714
 20
-142.672943
 40
4.534175
 50
165.893570
 51
194.106430
  0
ARC
  8
0
 10
-167.780365
 20
-142.238403
 40
5.791204
 50
195.417831
 51
231.388428
  0
ARC
  8
0
 10
-164.499893
 20
-137.445618
 40
11.591275
 50
233.502213
 51
238.961853
  0
ARC
  8
0
 10
-170.999893
 20
-169.342163
 40
5.151675
 50
247.269028
 51
275.563354
  0
ARC
  8
0
 10
-170.999893
 20
-169.806793
 40
4.121338
 50
241.126572
 51
276.956940
  0
ARC
  8
0
 10
-173.499878
 20
-188.661285
 40
3.863754
 50
270.000000
 51
306.497681
  0
ARC
  8
0
 10
-172.406387
 20
-190.258881
 40
1.930399
 50
308.611359
 51
344.582031
  0
ARC
  8
0
 10
-172.011276
 20
-190.403717
 40
1.511400
 50
345.893036
 51
0.000000
  0
ARC
  8
0
 10
-172.011246
 20
-219.395096
 40
1.511383
 50
0.000000
 51
14.106531
  0
ARC
  8
0
 10
-172.406372
 20
-219.539948
 40
1.930403
 50
15.417976
 51
51.388287
  0
ARC
  8
0
 10
-173.499863
 20
-221.137543
 40
3.863769
 50
53.502144
 51
90.000000
  0
ARC
  8
0
 10
-172.011276
 20
-200.303238
 40
1.511398
 50
0.000000
 51
14.106952
  0
ARC
  8
0
 10
-172.406387
 20
-200.448074
 40
1.930403
 50
15.417976
 51
51.388641
  0
ARC
  8
0
 10
-173.499878
 20
-202.045670
 40
3.863760
 50
53.502323
 51
90.000000
  0
ARC
  8
0
 10
-160.034073
 20
-141.258728
 40
4.534182
 50
351.018890
 51
14.106438
  0
ARC
  8
0
 10
-161.219421
 20
-141.693268
 40
5.791204
 50
15.417830
 51
51.388428
  0
ARC
  8
0
 10
-164.499893
 20
-146.486053
 40
11.591275
 50
53.502220
 51
126.497780
  0
ARC
  8
0
 10
-167.780365
 20
-141.693268
 40
5.791195
 50
128.611572
 51
164.582169
  0
ARC
  8
0
 10
-168.965714
 20
-141.258728
 40
4.534175
 50
165.893570
 51
188.972321
  0
ARC
  8
0
 10
-164.499893
 20
-137.445618
 40
11.591275
 50
301.043243
 51
306.497772
  0
ARC
  8
0
 10
-161.219421
 20
-142.238403
 40
5.791195
 50
308.611572
 51
344.582184
  0
ARC
  8
0
 10
-160.034073
 20
-142.672943
 40
4.534175
 50
345.893555
 51
0.000000
  0
POINT
  8
0
 10
-10.000034
 20
-30.000000
  0
POINT
  8
0
 10
60.749966
 20
-30.000000
  0
LINE
  8
0
 10
-44.000099
 20
-15.799998
 11
-75.762054
 21
15.961960
  0
LINE
  8
0
 10
-75.762070
 20
-75.961945
 11
-44.000099
 21
-44.199989
  0
LINE
  8
0
 10
-75.762070
 20
-75.961945
 11
-105.000107
 21
-46.723904
  0
LINE
  8
0
 10
-105.000107
 20
-13.276075
 11
-75.762054
 21
15.961967
  0
LINE
  8
0
 10
-44.000099
 20
-44.199989
 11
-44.000099
 21
-15.799997
  0
LINE
  8
0
 10
-105.000092
 20
-46.749947
 11
-105.000092
 21
-13.250038
  0
LINE
  8
0
 10
-66.569656
 20
9.597992
 11
-57.165134
 21
19.002514
  0
LINE
  8
0
 10
-58.084389
 20
1.112720
 11
-48.679863
 21
10.517242
  0
LINE
  8
0
 10
-65.809982
 20
-69.014160
 11
-65.897919
 21
-68.926231
  0
LINE
  8
0
 10
-58.668213
 20
-61.872391
 11
-58.756145
 21
-61.784458
  0
LINE
  8
0
 10
-55.998413
 20
18.825737
 11
-55.203369
 21
19.620781
  0
LINE
  8
0
 10
-48.856636
 20
11.683968
 11
-48.061596
 21
12.479012
  0
LINE
  8
0
 10
-48.470642
 20
11.297970
 11
-56.384377
 21
19.211704
  0
LINE
  8
0
 10
-65.809982
 20
-69.014160
 11
-58.668201
 21
-61.872383
  0
LINE
  8
0
 10
-55.203358
 20
19.620770
 11
-48.061581
 21
12.478992
  0
LINE
  8
0
 10
-48.679829
 20
10.517216
 11
-48.470627
 21
11.297962
  0
LINE
  8
0
 10
-57.165131
 20
19.002518
 11
-56.384384
 21
19.211720
  0
LINE
  8
0
 10
-48.679844
 20
10.517227
 11
-57.165119
 21
19.002506
  0
LINE
  8
0
 10
-86.707458
 20
-39.838535
 11
-86.003845
 21
-34.108059
  0
LINE
  8
0
 10
-96.632980
 20
-38.619835
 11
-95.929367
 21
-32.889374
  0
LINE
  8
0
 10
-86.707474
 20
-39.838520
 11
-92.022018
 21
-42.094410
  0
LINE
  8
0
 10
-90.614792
 20
-30.633469
 11
-95.929321
 21
-32.889355
  0
LINE
  8
0
 10
-92.022064
 20
-42.094482
 11
-96.632980
 21
-38.619907
  0
LINE
  8
0
 10
-86.003906
 20
-34.108116
 11
-90.614822
 21
-30.633541
  0
LINE
  8
0
 10
-88.948090
 20
-37.158745
 11
-93.810562
 21
-36.561707
  0
LINE
  8
0
 10
-88.826218
 20
-36.166206
 11
-93.688690
 21
-35.569168
  0
LINE
  8
0
 10
-85.548416
 20
-23.837540
 11
-88.258911
 21
-18.739832
  0
LINE
  8
0
 10
-94.377914
 20
-28.532251
 11
-97.088409
 21
-23.434559
  0
LINE
  8
0
 10
-85.548447
 20
-23.837492
 11
-88.607941
 21
-28.733698
  0
LINE
  8
0
 10
-94.028915
 20
-18.538288
 11
-97.088394
 21
-23.434496
  0
LINE
  8
0
 10
-88.607895
 20
-28.733740
 11
-94.377884
 21
-28.532246
  0
LINE
  8
0
 10
-88.258911
 20
-18.739803
 11
-94.028885
 21
-18.538311
  0
LINE
  8
0
 10
-88.920898
 20
-22.927519
 11
-93.246445
 21
-25.227453
  0
LINE
  8
0
 10
-89.390366
 20
-22.044567
 11
-93.715912
 21
-24.344501
  0
LINE
  8
0
 10
-44.584370
 20
-36.538345
 11
-44.584370
 21
-23.461647
  0
LINE
  8
0
 10
-71.584373
 20
-36.538345
 11
-71.584373
 21
-23.461647
  0
LINE
  8
0
 10
-60.803936
 20
-47.933411
 11
-68.282501
 21
-41.000076
  0
LINE
  8
0
 10
-55.364918
 20
-47.933311
 11
-47.886360
 21
-40.999977
  0
LINE
  8
0
 10
-47.886356
 20
-19.000013
 11
-55.364914
 21
-12.066681
  0
LINE
  8
0
 10
-60.803928
 20
-12.066568
 11
-68.282494
 21
-18.999905
  0
LINE
  8
0
 10
-72.226517
 20
-75.254829
 11
-52.427528
 21
-55.455845
  0
LINE
  8
0
 10
-52.427528
 20
-4.544149
 11
-72.226509
 21
15.254837
  0
LINE
  8
0
 10
-18.000034
 20
-68.405731
 11
-18.000034
 21
-60.681496
  0
LINE
  8
0
 10
-18.000034
 20
-6.887300
 11
-18.000034
 21
8.405727
  0
LINE
  8
0
 10
-75.800049
 20
-75.950027
 11
-105.000107
 21
-46.749954
  0
LINE
  8
0
 10
-75.800034
 20
-75.949997
 11
-75.787033
 21
-75.936981
  0
LINE
  8
0
 10
-75.787018
 20
15.936996
 11
-75.800049
 21
15.950016
  0
LINE
  8
0
 10
-105.000107
 20
-13.250029
 11
-75.800049
 21
15.950020
  0
LINE
  8
0
 10
-72.226540
 20
-75.254852
 11
-73.640755
 21
-73.840637
  0
LINE
  8
0
 10
-52.427540
 20
-55.455856
 11
-53.841755
 21
-54.041641
  0
LINE
  8
0
 10
-73.640732
 20
13.840641
 11
-72.226524
 21
15.254852
  0
LINE
  8
0
 10
-53.841740
 20
-5.958349
 11
-52.427525
 21
-4.544136
  0
LINE
  8
0
 10
-71.589767
 20
-75.183762
 11
-66.498596
 21
-70.092598
  0
LINE
  8
0
 10
-67.629471
 20
-74.122604
 11
-67.559753
 21
-74.052887
  0
LINE
  8
0
 10
-66.498596
 20
-70.092606
 11
-66.781433
 21
-69.809753
  0
LINE
  8
0
 10
-71.589775
 20
-75.183777
 11
-71.872620
 21
-74.900925
  0
LINE
  8
0
 10
-57.589756
 20
-61.183762
 11
-52.498589
 21
-56.092598
  0
LINE
  8
0
 10
-52.498596
 20
-56.092606
 11
-52.781441
 21
-55.809765
  0
LINE
  8
0
 10
-57.589771
 20
-61.183777
 11
-57.872616
 21
-60.900932
  0
LINE
  8
0
 10
-52.498577
 20
-3.907398
 11
-57.589745
 21
1.183773
  0
LINE
  8
0
 10
-53.559738
 20
0.052896
 11
-53.629456
 21
0.122612
  0
LINE
  8
0
 10
-57.589741
 20
1.183773
 11
-57.872581
 21
0.900928
  0
LINE
  8
0
 10
-52.498566
 20
-3.907400
 11
-52.781410
 21
-4.190243
  0
LINE
  8
0
 10
-66.498581
 20
10.092606
 11
-71.589737
 21
15.183773
  0
LINE
  8
0
 10
-67.559738
 20
14.052898
 11
-67.629448
 21
14.122608
  0
LINE
  8
0
 10
-71.589752
 20
15.183773
 11
-71.872597
 21
14.900928
  0
LINE
  8
0
 10
-66.498566
 20
10.092609
 11
-66.781418
 21
9.809769
  0
LINE
  8
0
 10
-17.244476
 20
34.441139
 11
-17.963871
 21
31.756321
  0
LINE
  8
0
 10
-2.755590
 20
34.441154
 11
-2.036193
 21
31.756332
  0
LINE
  8
0
 10
-17.244471
 20
-94.441132
 11
-17.963865
 21
-91.756317
  0
LINE
  8
0
 10
-2.755612
 20
-94.441132
 11
-2.036220
 21
-91.756317
  0
LINE
  8
0
 10
47.464436
 20
-53.981293
 11
49.429844
 21
-55.946705
  0
LINE
  8
0
 10
47.464439
 20
-6.018768
 11
49.429882
 21
-4.053324
  0
LINE
  8
0
 10
39.500626
 20
7.775047
 11
42.185417
 21
8.494438
  0
LINE
  8
0
 10
1.306617
 20
-66.970398
 11
-0.081723
 21
-61.789055
  0
LINE
  8
0
 10
27.670597
 20
-38.693363
 11
19.406092
 21
-36.478897
  0
LINE
  8
0
 10
27.670597
 20
-21.306700
 11
19.406126
 21
-23.521158
  0
LINE
  8
0
 10
10.313921
 20
-7.773001
 11
16.363962
 21
-1.722956
  0
LINE
  8
0
 10
-0.907789
 20
-1.294096
 11
1.306666
 21
6.970371
  0
LINE
  8
0
 10
12.363171
 20
-41.265869
 11
13.781904
 21
-38.808548
  0
LINE
  8
0
 10
13.781902
 20
-21.191528
 11
9.519329
 21
-13.808538
  0
LINE
  8
0
 10
45.999966
 20
-50.445763
 11
45.999966
 21
-9.554295
  0
LINE
  8
0
 10
35.706562
 20
8.274605
 11
0.293453
 21
28.720364
  0
LINE
  8
0
 10
-20.293530
 20
-88.720360
 11
-42.925758
 21
-75.653641
  0
LINE
  8
0
 10
0.293424
 20
-88.720284
 11
22.925583
 21
-75.653595
  0
LINE
  8
0
 10
-48.140358
 20
12.642868
 11
-20.293503
 21
28.720268
  0
LINE
  8
0
 10
-65.780136
 20
-69.000000
 11
-64.879295
 21
-69.000000
  0
LINE
  8
0
 10
-27.690636
 20
-68.599998
 11
-31.715269
 21
-68.599998
  0
LINE
  8
0
 10
-25.678314
 20
-65.114555
 11
-27.690636
 21
-68.599998
  0
LINE
  8
0
 10
-25.381229
 20
4.599998
 11
-27.690630
 21
8.599998
  0
LINE
  8
0
 10
-27.690632
 20
8.599998
 11
-32.309433
 21
8.599998
  0
LINE
  8
0
 10
-34.618832
 20
4.599998
 11
-32.309433
 21
8.599998
  0
LINE
  8
0
 10
-32.309433
 20
0.599998
 11
-34.618835
 21
4.599998
  0
LINE
  8
0
 10
-27.690632
 20
0.599998
 11
-32.309433
 21
0.599998
  0
LINE
  8
0
 10
-25.381229
 20
4.599998
 11
-27.690632
 21
0.599997
  0
LINE
  8
0
 10
-58.084366
 20
-13.845291
 11
-59.084370
 21
-14.422642
  0
LINE
  8
0
 10
-59.084370
 20
-14.422643
 11
-59.084370
 21
-15.577343
  0
LINE
  8
0
 10
-58.084366
 20
-16.154694
 11
-59.084366
 21
-15.577342
  0
LINE
  8
0
 10
-57.084370
 20
-15.577343
 11
-58.084370
 21
-16.154694
  0
LINE
  8
0
 10
-57.084370
 20
-14.422644
 11
-57.084370
 21
-15.577344
  0
LINE
  8
0
 10
-58.084366
 20
-13.845293
 11
-57.084366
 21
-14.422644
  0
LINE
  8
0
 10
-58.084366
 20
-43.845291
 11
-59.084370
 21
-44.422646
  0
LINE
  8
0
 10
-59.084370
 20
-44.422646
 11
-59.084370
 21
-45.577343
  0
LINE
  8
0
 10
-58.084370
 20
-46.154694
 11
-59.084370
 21
-45.577343
  0
LINE
  8
0
 10
-57.084366
 20
-45.577343
 11
-58.084366
 21
-46.154694
  0
LINE
  8
0
 10
-57.084370
 20
-44.422646
 11
-57.084370
 21
-45.577347
  0
LINE
  8
0
 10
-58.084362
 20
-43.845284
 11
-57.084362
 21
-44.422634
  0
LINE
  8
0
 10
-72.933609
 20
-51.498734
 11
-72.933609
 21
-57.998734
  0
LINE
  8
0
 10
-76.183609
 20
-54.748734
 11
-69.683609
 21
-54.748734
  0
LINE
  8
0
 10
-72.933609
 20
-2.001257
 11
-72.933609
 21
-8.501257
  0
LINE
  8
0
 10
-76.183609
 20
-5.251257
 11
-69.683609
 21
-5.251257
  0
LINE
  8
0
 10
-35.026253
 20
-72.305656
 11
-34.425228
 21
-71.264656
  0
LINE
  8
0
 10
-34.160225
 20
-72.805656
 11
-33.559204
 21
-71.764656
  0
LINE
  8
0
 10
-34.160221
 20
12.805656
 11
-33.559200
 21
11.764660
  0
LINE
  8
0
 10
-35.026245
 20
12.305656
 11
-34.425224
 21
11.264656
  0
LINE
  8
0
 10
-35.102325
 20
-23.989594
 11
-25.980648
 21
-14.867915
  0
LINE
  8
0
 10
12.273829
 20
-27.525126
 11
-10.353589
 21
-4.897709
  0
LINE
  8
0
 10
-16.010443
 20
-4.897707
 11
-10.353589
 21
-4.897707
  0
LINE
  8
0
 10
12.273827
 20
-27.525127
 11
12.273827
 21
-33.181980
  0
LINE
  8
0
 10
-35.102325
 20
-29.646446
 11
-35.102325
 21
-23.989594
  0
LINE
  8
0
 10
-50.041893
 20
-82.769775
 11
-42.015945
 21
-74.743835
  0
LINE
  8
0
 10
-48.323616
 20
-59.838303
 11
-37.009346
 21
-48.524033
  0
LINE
  8
0
 10
-40.980415
 20
-73.949234
 11
-17.500053
 21
-60.392830
  0
LINE
  8
0
 10
-65.397583
 20
-69.434891
 11
-54.672958
 21
-60.435860
  0
LINE
  8
0
 10
20.980316
 20
-73.949257
 11
-2.500031
 21
-60.392838
  0
LINE
  8
0
 10
30.041786
 20
-82.769806
 11
22.015846
 21
-74.743851
  0
LINE
  8
0
 10
28.323528
 20
-59.838326
 11
16.156101
 21
-47.670883
  0
LINE
  8
0
 10
45.397484
 20
-69.434929
 11
34.672871
 21
-60.435890
  0
LINE
  8
0
 10
-17.141813
 20
-23.706749
 11
-25.980648
 21
-14.867915
  0
LINE
  8
0
 10
-16.293285
 20
-22.858221
 11
-25.132118
 21
-14.019387
  0
LINE
  8
0
 10
-25.132118
 20
-14.019387
 11
-11.060695
 21
0.052038
  0
LINE
  8
0
 10
-18.556026
 20
-22.292536
 11
-17.707499
 21
-21.444008
  0
LINE
  8
0
 10
-24.212879
 20
-16.635681
 11
-23.364353
 21
-15.787154
  0
LINE
  8
0
 10
-2.127126
 20
-8.174423
 11
-10.094769
 21
-0.206779
  0
LINE
  8
0
 10
-1.868308
 20
-9.140352
 11
-11.060696
 21
0.052036
  0
LINE
  8
0
 10
-1.868314
 20
-9.140352
 11
-2.127133
 21
-8.174425
  0
LINE
  8
0
 10
-11.060696
 20
0.052036
 11
-10.094770
 21
-0.206783
  0
LINE
  8
0
 10
-3.989626
 20
-11.261671
 11
-1.868306
 21
-9.140350
  0
LINE
  8
0
 10
2.727891
 20
-29.292891
 11
-9.292927
 21
-17.272076
  0
LINE
  8
0
 10
-10.707142
 20
-42.727924
 11
-22.727959
 21
-30.707109
  0
LINE
  8
0
 10
-22.727959
 20
-29.292892
 11
-10.707145
 21
-17.272076
  0
LINE
  8
0
 10
-9.292924
 20
-42.727924
 11
2.727889
 21
-30.707108
  0
LINE
  8
0
 10
-10.673152
 20
-41.630539
 11
-21.630573
 21
-30.673122
  0
LINE
  8
0
 10
-9.326908
 20
-41.630539
 11
1.630505
 21
-30.673120
  0
LINE
  8
0
 10
-21.630573
 20
-29.326881
 11
-10.673157
 21
-18.369461
  0
LINE
  8
0
 10
1.630504
 20
-29.326878
 11
-9.326917
 21
-18.369461
  0
LINE
  8
0
 10
-9.326925
 20
-18.369457
 11
-8.972544
 21
-17.592468
  0
LINE
  8
0
 10
-10.673156
 20
-18.369461
 11
-11.027537
 21
-17.592472
  0
LINE
  8
0
 10
-22.407564
 20
-28.972506
 11
-21.630573
 21
-29.326887
  0
LINE
  8
0
 10
-22.407558
 20
-31.027510
 11
-21.630569
 21
-30.673128
  0
LINE
  8
0
 10
-11.027523
 20
-42.407532
 11
-10.673137
 21
-41.630543
  0
LINE
  8
0
 10
-8.972528
 20
-42.407524
 11
-9.326903
 21
-41.630535
  0
LINE
  8
0
 10
2.407495
 20
-31.027496
 11
1.630505
 21
-30.673120
  0
LINE
  8
0
 10
1.630502
 20
-29.326880
 11
2.407493
 21
-28.972494
  0
LINE
  8
0
 10
-10.707141
 20
-43.435028
 11
-23.435062
 21
-30.707108
  0
LINE
  8
0
 10
-9.292928
 20
-43.435028
 11
3.434995
 21
-30.707108
  0
LINE
  8
0
 10
3.434995
 20
-29.292892
 11
-9.292928
 21
-16.564972
  0
LINE
  8
0
 10
-23.435062
 20
-29.292892
 11
-17.495365
 21
-23.353197
  0
LINE
  8
0
 10
-16.646837
 20
-22.504669
 11
-10.707141
 21
-16.564972
  0
CIRCLE
  8
0
 10
-72.933609
 20
-54.748734
 40
6.500000
  0
CIRCLE
  8
0
 10
-72.933609
 20
-5.251257
 40
6.500000
  0
CIRCLE
  8
0
 10
-58.084370
 20
-29.999994
 40
0.500000
  0
CIRCLE
  8
0
 10
-58.084370
 20
-29.999994
 40
11.250000
  0
ARC
  8
0
 10
-72.226517
 20
-55.455841
 40
15.000004
 50
295.326111
 51
334.673889
  0
ARC
  8
0
 10
-61.619900
 20
6.062450
 40
14.999998
 50
25.326059
 51
64.673904
  0
CIRCLE
  8
0
 10
-91.318390
 20
-36.363953
 40
2.500000
  0
CIRCLE
  8
0
 10
-91.318390
 20
-36.363953
 40
2.250000
  0
CIRCLE
  8
0
 10
-91.318390
 20
-36.363953
 40
5.000000
  0
CIRCLE
  8
0
 10
-91.318390
 20
-23.636030
 40
2.500000
  0
CIRCLE
  8
0
 10
-91.318390
 20
-23.636030
 40
2.250000
  0
CIRCLE
  8
0
 10
-91.318390
 20
-23.636030
 40
5.000000
  0
ARC
  8
0
 10
-58.084370
 20
-44.999996
 40
3.999999
 50
227.166611
 51
312.833405
  0
ARC
  8
0
 10
-58.084370
 20
-14.999994
 40
4.000000
 50
47.166546
 51
132.833450
  0
ARC
  8
0
 10
-58.084370
 20
-29.999994
 40
15.000001
 50
132.833435
 51
154.158066
  0
ARC
  8
0
 10
-58.084370
 20
-29.999994
 40
15.000002
 50
312.833405
 51
334.158051
  0
ARC
  8
0
 10
-58.084370
 20
-14.999994
 40
4.000000
 50
47.166546
 51
90.000000
  0
ARC
  8
0
 10
-58.084370
 20
-29.999994
 40
14.999999
 50
205.841965
 51
227.166611
  0
ARC
  8
0
 10
-58.084370
 20
-29.999994
 40
14.999999
 50
25.841923
 51
47.166565
  0
ARC
  8
0
 10
-10.000034
 20
-30.000000
 40
22.500000
 50
6.057559
 51
68.578171
  0
ARC
  8
0
 10
-10.000034
 20
-30.000000
 40
51.000000
 50
113.876205
 51
140.871994
  0
ARC
  8
0
 10
-10.000034
 20
-30.000000
 40
50.999996
 50
236.267822
 51
246.123810
  0
ARC
  8
0
 10
-27.000038
 20
-68.405731
 40
8.999997
 50
246.123810
 51
0.000000
  0
ARC
  8
0
 10
-27.000031
 20
8.405727
 40
9.000000
 50
0.000024
 51
113.876198
  0
ARC
  8
0
 10
-55.768581
 20
-67.232246
 40
8.000000
 50
49.621986
 51
71.571671
  0
ARC
  8
0
 10
-55.768574
 20
7.232254
 40
8.000001
 50
288.428345
 51
320.871979
  0
CIRCLE
  8
0
 10
-72.933609
 20
-54.748734
 40
6.200000
  0
CIRCLE
  8
0
 10
-72.933609
 20
-5.251257
 40
6.200000
  0
ARC
  8
0
 10
-70.528603
 20
-71.223465
 40
4.100000
 50
255.000015
 51
314.999939
  0
ARC
  8
0
 10
-70.458893
 20
-71.153748
 40
4.100002
 50
315.000000
 51
14.999986
  0
ARC
  8
0
 10
-56.528595
 20
-57.223465
 40
4.100000
 50
255.000015
 51
283.015198
  0
ARC
  8
0
 10
-56.458881
 20
-57.153748
 40
4.100002
 50
301.394348
 51
14.999986
  0
ARC
  8
0
 10
-56.458874
 20
-2.846241
 40
4.100000
 50
345.000031
 51
44.999962
  0
ARC
  8
0
 10
-56.528587
 20
-2.776527
 40
4.100001
 50
44.999981
 51
104.999985
  0
ARC
  8
0
 10
-70.458878
 20
11.153763
 40
4.100000
 50
345.000000
 51
44.999962
  0
ARC
  8
0
 10
-70.528595
 20
11.223476
 40
4.099999
 50
44.999962
 51
104.999985
  0
CIRCLE
  8
0
 10
-58.084370
 20
-29.999994
 40
11.800000
  0
ARC
  8
0
 10
-10.000034
 20
-30.000000
 40
45.000000
 50
70.119102
 51
102.675400
  0
ARC
  8
0
 10
-10.000034
 20
-30.000000
 40
55.000000
 50
89.999985
 51
145.509338
  0
ARC
  8
0
 10
9.999947
 20
-64.641029
 40
5.000000
 50
180.943375
 51
299.056488
  0
CIRCLE
  8
0
 10
29.999966
 20
-30.000029
 40
5.000000
  0
CIRCLE
  8
0
 10
10.000000
 20
4.640995
 40
5.000000
  0
ARC
  8
0
 10
9.999947
 20
-64.641029
 40
4.250000
 50
187.223877
 51
292.775970
  0
CIRCLE
  8
0
 10
29.999966
 20
-30.000029
 40
4.250000
  0
CIRCLE
  8
0
 10
10.000000
 20
4.640995
 40
4.250000
  0
ARC
  8
0
 10
9.999947
 20
-64.641029
 40
9.000000
 50
195.000031
 51
313.401489
  0
ARC
  8
0
 10
29.999966
 20
-30.000029
 40
9.000001
 50
255.000015
 51
104.999985
  0
ARC
  8
0
 10
10.000000
 20
4.640995
 40
8.999999
 50
314.999969
 51
164.999969
  0
ARC
  8
0
 10
-10.000049
 20
32.500000
 40
7.500001
 50
15.000031
 51
164.999969
  0
ARC
  8
0
 10
-10.000030
 20
-92.500000
 40
7.500000
 50
195.000031
 51
344.999969
  0
ARC
  8
0
 10
44.126553
 20
-61.250008
 40
7.500000
 50
273.358154
 51
44.999981
  0
ARC
  8
0
 10
44.126560
 20
1.249981
 40
7.499999
 50
315.000000
 51
104.999969
  0
ARC
  8
0
 10
18.111996
 20
-41.308525
 40
4.999999
 50
74.999985
 51
150.000046
  0
ARC
  8
0
 10
18.112034
 20
-18.691525
 40
5.000001
 50
210.000046
 51
284.999969
  0
ARC
  8
0
 10
13.849455
 20
-11.308535
 40
5.000000
 50
135.000000
 51
210.000031
  0
ARC
  8
0
 10
-5.737419
 20
0.000000
 40
4.999999
 50
274.799408
 51
344.999969
  0
ARC
  8
0
 10
-14.262564
 20
0.000000
 40
4.999999
 50
221.626205
 51
251.452332
  0
ARC
  8
0
 10
-10.000034
 20
-30.000000
 40
45.000000
 50
257.324585
 51
289.880768
  0
ARC
  8
0
 10
-10.000034
 20
-30.000000
 40
45.000000
 50
322.662231
 51
349.880737
  0
ARC
  8
0
 10
-10.000034
 20
-30.000000
 40
45.000000
 50
10.119102
 51
49.880749
  0
ARC
  8
0
 10
-22.793514
 20
33.050419
 40
5.000000
 50
299.999969
 51
344.999969
  0
ARC
  8
0
 10
-22.793499
 20
-93.050415
 40
5.000000
 50
14.999943
 51
59.999981
  0
ARC
  8
0
 10
2.793437
 20
-93.050430
 40
5.000003
 50
119.999954
 51
164.999969
  0
ARC
  8
0
 10
50.999966
 20
-50.445763
 40
5.000000
 50
180.000000
 51
225.000031
  0
ARC
  8
0
 10
50.999966
 20
-9.554295
 40
5.000000
 50
135.000000
 51
179.999985
  0
ARC
  8
0
 10
38.206528
 20
12.604668
 40
5.000000
 50
240.000000
 51
284.999939
  0
ARC
  8
0
 10
2.793418
 20
33.050419
 40
5.000000
 50
195.000031
 51
240.000031
  0
ARC
  8
0
 10
-55.789806
 20
13.999989
 40
5.000000
 50
300.000000
 51
300.000000
  0
ARC
  8
0
 10
-10.000034
 20
-30.000000
 40
70.750000
 50
216.898590
 51
143.101379
  0
ARC
  8
0
 10
-10.000034
 20
-30.000000
 40
55.000004
 50
234.418060
 51
305.581879
  0
ARC
  8
0
 10
-30.000036
 20
-64.599998
 40
8.000001
 50
229.014709
 51
10.985349
  0
CIRCLE
  8
0
 10
-30.000032
 20
4.599998
 40
8.000000
  0
ARC
  8
0
 10
-30.000032
 20
4.599998
 40
9.200001
 50
123.115448
 51
116.884583
  0
ARC
  8
0
 10
-30.000036
 20
-64.599998
 40
9.200000
 50
243.115433
 51
13.541956
  0
ARC
  8
0
 10
-30.000036
 20
-64.599998
 40
7.000002
 50
231.860931
 51
8.139112
  0
CIRCLE
  8
0
 10
-30.000032
 20
4.599998
 40
7.000000
  0
CIRCLE
  8
0
 10
-58.084370
 20
-14.999993
 40
2.850000
  0
CIRCLE
  8
0
 10
-58.084370
 20
-44.999992
 40
2.850000
  0
ARC
  8
0
 10
-10.000034
 20
-30.000000
 40
68.000000
 50
215.445312
 51
231.088318
  0
ARC
  8
0
 10
-51.456104
 20
-81.355560
 40
2.000000
 50
231.088257
 51
314.999908
  0
ARC
  8
0
 10
-51.859150
 20
-56.302765
 40
5.000001
 50
235.752960
 51
314.999969
  0
ARC
  8
0
 10
-47.615948
 20
-37.917431
 40
15.000000
 50
315.000000
 51
33.463047
  0
ARC
  8
0
 10
-38.480412
 20
-78.279366
 40
4.999999
 50
120.000053
 51
135.000031
  0
ARC
  8
0
 10
18.480309
 20
-78.279388
 40
5.000003
 50
45.000031
 51
60.000046
  0
ARC
  8
0
 10
-10.000034
 20
-30.000000
 40
68.000000
 50
308.911713
 51
324.554749
  0
ARC
  8
0
 10
31.456001
 20
-81.355591
 40
1.999999
 50
225.000076
 51
308.911743
  0
ARC
  8
0
 10
31.859066
 20
-56.302795
 40
5.000000
 50
225.000061
 51
304.247040
  0
ARC
  8
0
 10
26.762707
 20
-37.064289
 40
15.000000
 50
164.999924
 51
224.999969
  0
ARC
  8
0
 10
-10.000045
 20
-73.383209
 40
14.999997
 50
59.999947
 51
120.000046
  0
ARC
  8
0
 10
-10.000034
 20
-30.000000
 40
12.450001
 50
265.265961
 51
274.734039
  0
ARC
  8
0
 10
-10.000034
 20
-30.000000
 40
12.450000
 50
355.265961
 51
4.734048
  0
ARC
  8
0
 10
-10.000034
 20
-30.000000
 40
12.449999
 50
175.266037
 51
184.734024
  0
ARC
  8
0
 10
-10.000034
 20
-30.000000
 40
12.449999
 50
85.266037
 51
94.734039
  0
ARC
  8
0
 10
-10.000034
 20
-30.000000
 40
11.650000
 50
176.687683
 51
183.312302
  0
ARC
  8
0
 10
-10.000034
 20
-30.000000
 40
11.650001
 50
266.687714
 51
273.312347
  0
ARC
  8
0
 10
-10.000034
 20
-30.000000
 40
11.650000
 50
356.687653
 51
3.312285
  0
ARC
  8
0
 10
-10.000034
 20
-30.000000
 40
11.650000
 50
86.687683
 51
93.312309
  0
ARC
  8
0
 10
-10.000034
 20
-42.020813
 40
1.000000
 50
225.000046
 51
314.999969
  0
ARC
  8
0
 10
2.020781
 20
-30.000000
 40
1.000000
 50
314.999969
 51
45.000038
  0
ARC
  8
0
 10
-10.000034
 20
-17.979185
 40
1.000000
 50
45.000038
 51
135.000046
  0
ARC
  8
0
 10
-10.000034
 20
-42.727921
 40
1.000000
 50
225.000046
 51
314.999969
  0
ARC
  8
0
 10
2.727887
 20
-30.000000
 40
1.000000
 50
314.999969
 51
45.000038
  0
ARC
  8
0
 10
-10.000034
 20
-17.272079
 40
1.000000
 50
45.000038
 51
134.999954
  0
ARC
  8
0
 10
-22.727955
 20
-30.000000
 40
1.000001
 50
135.000000
 51
225.000000
  0
ARC
  8
0
 10
-22.020849
 20
-30.000000
 40
1.000000
 50
134.999924
 51
225.000076
  0
ARC
  8
0
 10
-10.000034
 20
-30.000000
 40
55.000000
 50
325.634430
 51
90.000008
  0
ARC
  8
0
 10
-30.000036
 20
-64.599998
 40
9.199997
 50
226.458023
 51
236.884521
  0
POINT
  8
0
 10
162.500092
 20
185.000076
  0
POINT
  8
0
 10
100.000092
 20
185.000076
  0
LINE
  8
0
 10
104.500076
 20
139.038132
 11
146.500076
 21
139.038132
  0
LINE
  8
0
 10
104.500107
 20
230.962006
 11
146.500107
 21
230.962006
  0
LINE
  8
0
 10
100.000084
 20
137.594345
 11
104.500076
 21
137.594345
  0
LINE
  8
0
 10
100.000099
 20
232.405792
 11
104.500107
 21
232.405792
  0
LINE
  8
0
 10
100.000092
 20
232.405792
 11
100.000092
 21
137.594345
  0
LINE
  8
0
 10
104.500092
 20
232.405792
 11
104.500092
 21
137.594345
  0
LINE
  8
0
 10
146.500092
 20
230.962006
 11
146.500092
 21
139.038116
  0
LINE
  8
0
 10
151.500092
 20
194.013626
 11
151.500092
 21
186.367035
  0
LINE
  8
0
 10
158.500092
 20
193.564011
 11
158.500092
 21
189.164017
  0
LINE
  8
0
 10
148.500092
 20
203.723770
 11
148.500092
 21
196.461716
  0
LINE
  8
0
 10
162.500092
 20
196.050064
 11
162.500092
 21
173.950058
  0
LINE
  8
0
 10
146.500092
 20
172.905640
 11
151.050095
 21
172.905640
  0
LINE
  8
0
 10
146.500092
 20
176.380219
 11
151.050095
 21
176.380219
  0
LINE
  8
0
 10
146.500092
 20
182.110687
 11
151.050095
 21
182.110687
  0
LINE
  8
0
 10
146.500092
 20
184.366577
 11
151.050095
 21
184.366577
  0
LINE
  8
0
 10
146.500092
 20
186.467834
 11
151.050095
 21
186.467834
  0
LINE
  8
0
 10
146.500092
 20
186.266327
 11
151.050095
 21
186.266327
  0
LINE
  8
0
 10
146.500092
 20
191.565521
 11
151.050095
 21
191.565521
  0
LINE
  8
0
 10
146.500092
 20
196.461731
 11
151.050095
 21
196.461731
  0
LINE
  8
0
 10
151.500092
 20
193.864029
 11
158.200089
 21
193.864029
  0
LINE
  8
0
 10
151.500092
 20
188.864029
 11
158.200089
 21
188.864029
  0
LINE
  8
0
 10
151.500092
 20
181.136108
 11
158.200089
 21
181.136108
  0
LINE
  8
0
 10
151.500092
 20
176.136108
 11
158.200089
 21
176.136108
  0
LINE
  8
0
 10
158.500092
 20
180.836090
 11
158.500092
 21
176.436096
  0
LINE
  8
0
 10
151.500092
 20
183.238632
 11
151.500092
 21
174.642914
  0
LINE
  8
0
 10
158.200104
 20
176.136078
 11
158.500107
 21
176.436081
  0
LINE
  8
0
 10
158.200119
 20
181.136108
 11
158.500107
 21
180.836121
  0
LINE
  8
0
 10
158.500122
 20
189.164001
 11
158.200119
 21
188.863983
  0
LINE
  8
0
 10
158.200134
 20
193.864059
 11
158.500137
 21
193.564041
  0
LINE
  8
0
 10
158.200089
 20
176.136093
 11
158.200089
 21
181.136093
  0
LINE
  8
0
 10
158.200089
 20
188.864029
 11
158.200089
 21
193.864029
  0
LINE
  8
0
 10
158.450119
 20
176.386108
 11
151.500092
 21
176.386108
  0
LINE
  8
0
 10
158.450073
 20
180.886108
 11
151.500092
 21
180.886108
  0
LINE
  8
0
 10
158.450104
 20
189.114044
 11
151.500092
 21
189.114044
  0
LINE
  8
0
 10
158.450089
 20
193.614044
 11
151.500092
 21
193.614044
  0
LINE
  8
0
 10
151.050095
 20
173.750061
 11
162.300095
 21
173.750061
  0
LINE
  8
0
 10
150.676697
 20
196.250061
 11
162.300095
 21
196.250061
  0
LINE
  8
0
 10
162.300110
 20
173.750046
 11
162.500107
 21
173.950058
  0
LINE
  8
0
 10
162.500076
 20
196.050034
 11
162.300079
 21
196.250031
  0
LINE
  8
0
 10
148.500092
 20
172.905624
 11
148.500092
 21
166.276352
  0
LINE
  8
0
 10
148.500092
 20
186.266327
 11
148.500092
 21
184.366562
  0
LINE
  8
0
 10
104.500092
 20
168.276184
 11
146.500092
 21
168.276184
  0
LINE
  8
0
 10
104.500092
 20
201.723694
 11
146.500092
 21
201.723694
  0
LINE
  8
0
 10
104.500092
 20
202.000076
 11
100.000099
 21
202.000076
  0
LINE
  8
0
 10
104.500092
 20
168.000076
 11
100.000084
 21
168.000076
  0
LINE
  8
0
 10
148.900085
 20
154.261292
 11
148.900085
 21
166.241348
  0
LINE
  8
0
 10
148.900085
 20
154.261292
 11
146.500076
 21
154.051331
  0
LINE
  8
0
 10
148.900101
 20
166.241348
 11
146.500092
 21
166.451324
  0
LINE
  8
0
 10
148.900101
 20
203.758774
 11
148.900101
 21
215.738831
  0
LINE
  8
0
 10
148.900085
 20
203.758774
 11
146.500092
 21
203.548798
  0
LINE
  8
0
 10
148.900101
 20
215.738831
 11
146.500092
 21
215.948807
  0
LINE
  8
0
 10
148.900085
 20
166.400070
 11
148.900085
 21
172.905640
  0
LINE
  8
0
 10
150.950089
 20
169.950775
 11
150.950089
 21
170.049362
  0
LINE
  8
0
 10
148.900085
 20
166.400070
 11
148.500092
 21
166.400070
  0
LINE
  8
0
 10
148.900085
 20
196.461731
 11
148.900085
 21
203.600067
  0
LINE
  8
0
 10
150.950089
 20
199.950775
 11
150.950089
 21
200.049362
  0
LINE
  8
0
 10
148.900085
 20
203.600082
 11
148.500092
 21
203.600082
  0
LINE
  8
0
 10
93.400093
 20
170.713547
 11
93.400093
 21
161.086594
  0
LINE
  8
0
 10
93.800087
 20
170.900070
 11
93.800087
 21
160.900070
  0
LINE
  8
0
 10
93.800087
 20
170.900070
 11
99.400085
 21
170.900070
  0
LINE
  8
0
 10
93.800087
 20
160.900070
 11
99.400085
 21
160.900070
  0
LINE
  8
0
 10
93.400085
 20
170.713547
 11
93.800095
 21
170.900070
  0
LINE
  8
0
 10
93.400085
 20
161.086594
 11
93.800087
 21
160.900070
  0
LINE
  8
0
 10
93.800087
 20
168.900070
 11
96.845383
 21
168.900070
  0
LINE
  8
0
 10
93.800087
 20
166.900070
 11
95.690681
 21
166.900070
  0
LINE
  8
0
 10
93.800087
 20
164.900070
 11
94.535980
 21
164.900070
  0
LINE
  8
0
 10
93.400093
 20
208.913559
 11
93.400093
 21
199.286606
  0
LINE
  8
0
 10
93.800087
 20
209.100082
 11
93.800087
 21
199.100082
  0
LINE
  8
0
 10
93.800102
 20
209.100067
 11
99.400101
 21
209.100067
  0
LINE
  8
0
 10
93.800102
 20
199.100067
 11
99.400101
 21
199.100067
  0
LINE
  8
0
 10
93.400093
 20
208.913559
 11
93.800095
 21
209.100082
  0
LINE
  8
0
 10
93.400101
 20
199.286606
 11
93.800095
 21
199.100082
  0
LINE
  8
0
 10
93.800102
 20
207.100067
 11
96.845398
 21
207.100067
  0
LINE
  8
0
 10
93.800102
 20
205.100067
 11
95.690697
 21
205.100067
  0
LINE
  8
0
 10
93.800102
 20
203.100067
 11
94.535995
 21
203.100067
  0
LINE
  8
0
 10
93.400093
 20
228.713562
 11
93.400093
 21
219.086609
  0
LINE
  8
0
 10
93.800102
 20
228.900085
 11
93.800102
 21
218.900085
  0
LINE
  8
0
 10
93.800102
 20
228.900085
 11
99.400101
 21
228.900085
  0
LINE
  8
0
 10
93.800102
 20
218.900085
 11
99.400101
 21
218.900085
  0
LINE
  8
0
 10
93.400093
 20
228.713562
 11
93.800095
 21
228.900085
  0
LINE
  8
0
 10
93.400108
 20
219.086609
 11
93.800110
 21
218.900085
  0
LINE
  8
0
 10
93.800102
 20
226.900085
 11
96.845398
 21
226.900085
  0
LINE
  8
0
 10
93.800102
 20
224.900085
 11
95.690697
 21
224.900085
  0
LINE
  8
0
 10
93.800102
 20
222.900085
 11
94.535995
 21
222.900085
  0
LINE
  8
0
 10
93.400078
 20
150.913544
 11
93.400078
 21
141.286591
  0
LINE
  8
0
 10
93.800087
 20
151.100067
 11
93.800087
 21
141.100067
  0
LINE
  8
0
 10
93.800087
 20
151.100067
 11
99.400085
 21
151.100067
  0
LINE
  8
0
 10
93.800087
 20
141.100067
 11
99.400085
 21
141.100067
  0
LINE
  8
0
 10
93.400093
 20
150.913528
 11
93.800095
 21
151.100052
  0
LINE
  8
0
 10
93.400078
 20
141.286591
 11
93.800072
 21
141.100067
  0
LINE
  8
0
 10
93.800087
 20
149.100067
 11
96.845383
 21
149.100067
  0
LINE
  8
0
 10
93.800087
 20
147.100067
 11
95.690681
 21
147.100067
  0
LINE
  8
0
 10
93.800087
 20
145.100067
 11
94.535980
 21
145.100067
  0
LINE
  8
0
 10
99.400093
 20
229.150085
 11
99.400093
 21
218.650085
  0
LINE
  8
0
 10
99.400085
 20
140.850067
 11
100.000092
 21
140.850067
  0
LINE
  8
0
 10
99.400085
 20
151.350067
 11
100.000092
 21
151.350067
  0
LINE
  8
0
 10
99.400085
 20
160.650070
 11
100.000092
 21
160.650070
  0
LINE
  8
0
 10
99.400085
 20
171.150070
 11
100.000092
 21
171.150070
  0
LINE
  8
0
 10
99.400101
 20
198.850067
 11
100.000092
 21
198.850067
  0
LINE
  8
0
 10
99.400101
 20
209.350067
 11
100.000092
 21
209.350067
  0
LINE
  8
0
 10
99.400101
 20
218.650085
 11
100.000092
 21
218.650085
  0
LINE
  8
0
 10
99.400101
 20
229.150085
 11
100.000092
 21
229.150085
  0
LINE
  8
0
 10
99.400093
 20
171.150070
 11
99.400093
 21
160.650070
  0
LINE
  8
0
 10
99.400093
 20
151.350067
 11
99.400093
 21
140.850067
  0
LINE
  8
0
 10
99.400093
 20
209.350067
 11
99.400093
 21
198.850067
  0
LINE
  8
0
 10
121.500092
 20
129.544373
 11
129.500092
 21
129.544373
  0
LINE
  8
0
 10
119.500092
 20
139.038132
 11
119.500092
 21
131.544373
  0
LINE
  8
0
 10
131.500092
 20
139.038132
 11
131.500092
 21
131.544373
  0
ARC
  8
0
 10
147.921539
 20
174.642914
 40
3.578565
 50
330.956665
 51
29.043665
  0
ARC
  8
0
 10
142.153290
 20
179.245453
 40
9.346802
 50
342.148743
 51
17.851261
  0
ARC
  8
0
 10
149.861465
 20
183.238632
 40
1.638638
 50
316.500916
 51
43.498688
  0
ARC
  8
0
 10
144.615921
 20
194.013626
 40
6.884176
 50
339.168823
 51
20.831175
  0
ARC
  8
0
 10
144.056564
 20
189.016663
 40
7.443540
 50
339.975403
 51
20.024820
  0
ARC
  8
0
 10
135.749924
 20
160.251328
 40
14.450166
 50
335.510254
 51
24.489651
  0
ARC
  8
0
 10
135.749939
 20
209.748795
 40
14.450159
 50
335.510284
 51
24.489681
  0
ARC
  8
0
 10
146.850098
 20
169.950775
 40
4.100002
 50
300.000031
 51
0.000000
  0
ARC
  8
0
 10
146.850098
 20
170.049362
 40
4.100006
 50
0.000000
 51
44.159069
  0
ARC
  8
0
 10
146.850098
 20
199.950775
 40
4.099995
 50
301.680756
 51
0.000000
  0
ARC
  8
0
 10
146.850098
 20
200.049362
 40
4.100006
 50
0.000000
 51
59.999969
  0
CIRCLE
  8
0
 10
111.500092
 20
185.000076
 40
2.700000
  0
ARC
  8
0
 10
121.500092
 20
131.544373
 40
2.000000
 50
180.000000
 51
270.000000
  0
ARC
  8
0
 10
129.500092
 20
131.544373
 40
2.000000
 50
270.000000
 51
0.000000
  0
ARC
  8
0
 10
110.790184
 20
148.230499
 40
1.309910
 50
345.893433
 51
14.105930
  0
ARC
  8
0
 10
110.447762
 20
148.104965
 40
1.673037
 50
15.417523
 51
51.388138
  0
ARC
  8
0
 10
109.500084
 20
146.720444
 40
3.348558
 50
53.501633
 51
126.498001
  0
ARC
  8
0
 10
108.552422
 20
148.104965
 40
1.673049
 50
128.611542
 51
164.581970
  0
ARC
  8
0
 10
108.209999
 20
148.230499
 40
1.309910
 50
165.893417
 51
194.105927
  0
ARC
  8
0
 10
108.552422
 20
148.356033
 40
1.673037
 50
195.417526
 51
231.388138
  0
ARC
  8
0
 10
109.500099
 20
149.740555
 40
3.348558
 50
233.501633
 51
306.498016
  0
ARC
  8
0
 10
110.447762
 20
148.356033
 40
1.673049
 50
308.611542
 51
344.581970
  0
ARC
  8
0
 10
110.790169
 20
221.769653
 40
1.309918
 50
345.893494
 51
14.105849
  0
ARC
  8
0
 10
110.447746
 20
221.644119
 40
1.673044
 50
15.417454
 51
51.387730
  0
ARC
  8
0
 10
109.500084
 20
220.259613
 40
3.348546
 50
53.501476
 51
126.498055
  0
ARC
  8
0
 10
108.552429
 20
221.644135
 40
1.673037
 50
128.611862
 51
164.582474
  0
ARC
  8
0
 10
108.210014
 20
221.769653
 40
1.309918
 50
165.893509
 51
194.105850
  0
ARC
  8
0
 10
108.552437
 20
221.895187
 40
1.673044
 50
195.417450
 51
231.387726
  0
ARC
  8
0
 10
109.500099
 20
223.279694
 40
3.348546
 50
233.501480
 51
306.498047
  0
ARC
  8
0
 10
110.447754
 20
221.895172
 40
1.673037
 50
308.611847
 51
344.582489
  0
ARC
  8
0
 10
151.050095
 20
187.939377
 40
1.672821
 50
270.000000
 51
281.891907
  0
ARC
  8
0
 10
151.361771
 20
186.497772
 40
0.198087
 50
279.600189
 51
311.587006
  0
ARC
  8
0
 10
151.474396
 20
186.367065
 40
0.025698
 50
317.213684
 51
42.786308
  0
ARC
  8
0
 10
151.361771
 20
186.236359
 40
0.198092
 50
48.413010
 51
80.399818
  0
ARC
  8
0
 10
151.050095
 20
184.794754
 40
1.672819
 50
78.108086
 51
90.000000
  0
POINT
  8
0
 10
100.000092
 20
19.999977
  0
POINT
  8
0
 10
131.500092
 20
19.999977
  0
LINE
  8
0
 10
131.500092
 20
73.455673
 11
131.500092
 21
-5.102312
  0
LINE
  8
0
 10
119.500092
 20
73.455673
 11
119.500092
 21
27.630836
  0
LINE
  8
0
 10
108.000092
 20
31.960978
 11
108.000092
 21
-5.102314
  0
LINE
  8
0
 10
121.500092
 20
75.455673
 11
129.500092
 21
75.455673
  0
LINE
  8
0
 10
121.500092
 20
59.353062
 11
129.500092
 21
59.353062
  0
LINE
  8
0
 10
119.500092
 20
50.354042
 11
131.500092
 21
50.354042
  0
LINE
  8
0
 10
121.500092
 20
39.445415
 11
129.500092
 21
39.445415
  0
LINE
  8
0
 10
108.000092
 20
-5.102314
 11
131.500092
 21
-5.102314
  0
LINE
  8
0
 10
108.000092
 20
18.939318
 11
131.500092
 21
18.939318
  0
LINE
  8
0
 10
108.000092
 20
21.944265
 11
114.504662
 21
21.944265
  0
LINE
  8
0
 10
100.000092
 20
27.999977
 11
104.500092
 21
27.999977
  0
LINE
  8
0
 10
104.500092
 20
54.000042
 11
119.500092
 21
54.000042
  0
LINE
  8
0
 10
104.500092
 20
85.761986
 11
146.500092
 21
85.761986
  0
LINE
  8
0
 10
104.500092
 20
115.000038
 11
146.500092
 21
115.000038
  0
LINE
  8
0
 10
146.500092
 20
106.632866
 11
151.050079
 21
106.632866
  0
LINE
  8
0
 10
146.500092
 20
102.021950
 11
151.050079
 21
102.021950
  0
LINE
  8
0
 10
146.500092
 20
96.707405
 11
151.050079
 21
96.707405
  0
LINE
  8
0
 10
146.500092
 20
96.003792
 11
151.225037
 21
96.003792
  0
LINE
  8
0
 10
151.500092
 20
103.818336
 11
158.200089
 21
103.818336
  0
LINE
  8
0
 10
151.500092
 20
98.818336
 11
158.200089
 21
98.818336
  0
LINE
  8
0
 10
146.500092
 20
54.584312
 11
148.500092
 21
54.584312
  0
LINE
  8
0
 10
149.744659
 20
79.334312
 11
162.300079
 21
79.334312
  0
LINE
  8
0
 10
148.500092
 20
56.834312
 11
162.300095
 21
56.834312
  0
LINE
  8
0
 10
100.000092
 20
114.999977
 11
100.000092
 21
-26.000023
  0
LINE
  8
0
 10
104.500092
 20
115.039040
 11
104.500092
 21
27.999977
  0
LINE
  8
0
 10
146.500092
 20
115.000038
 11
146.500092
 21
54.000042
  0
LINE
  8
0
 10
151.500092
 20
104.327415
 11
151.500092
 21
96.355606
  0
LINE
  8
0
 10
158.500092
 20
103.518349
 11
158.500092
 21
99.118340
  0
LINE
  8
0
 10
148.500092
 20
76.908539
 11
148.500092
 21
54.584312
  0
LINE
  8
0
 10
162.500092
 20
79.134323
 11
162.500092
 21
57.034321
  0
LINE
  8
0
 10
158.200134
 20
103.818398
 11
158.500122
 21
103.518402
  0
LINE
  8
0
 10
158.200104
 20
98.818367
 11
158.500092
 21
99.118362
  0
LINE
  8
0
 10
158.200089
 20
103.818344
 11
158.200089
 21
98.818344
  0
LINE
  8
0
 10
158.450073
 20
99.068336
 11
151.500092
 21
99.068336
  0
LINE
  8
0
 10
158.450119
 20
103.568336
 11
151.500092
 21
103.568336
  0
LINE
  8
0
 10
162.300034
 20
79.334274
 11
162.500031
 21
79.134277
  0
LINE
  8
0
 10
162.300079
 20
56.834320
 11
162.500092
 21
57.034328
  0
LINE
  8
0
 10
100.000084
 20
114.999977
 11
104.500092
 21
114.999977
  0
LINE
  8
0
 10
100.000084
 20
85.799980
 11
104.500092
 21
85.799980
  0
LINE
  8
0
 10
131.500092
 20
72.328705
 11
131.500092
 21
72.237274
  0
LINE
  8
0
 10
119.500092
 20
72.328697
 11
119.500092
 21
72.237274
  0
LINE
  8
0
 10
132.799591
 20
79.330322
 11
132.799591
 21
79.040756
  0
LINE
  8
0
 10
137.999588
 20
79.326965
 11
137.999588
 21
79.044113
  0
LINE
  8
0
 10
113.000595
 20
65.330307
 11
113.000595
 21
65.040749
  0
LINE
  8
0
 10
118.200592
 20
65.326950
 11
118.200592
 21
65.044113
  0
LINE
  8
0
 10
139.500092
 20
73.741409
 11
139.399689
 21
80.769745
  0
LINE
  8
0
 10
111.600502
 20
66.712585
 11
111.499931
 21
73.752518
  0
LINE
  8
0
 10
125.500443
 20
83.640640
 11
135.551254
 21
83.567535
  0
LINE
  8
0
 10
115.448097
 20
62.500576
 11
119.500092
 21
62.471100
  0
LINE
  8
0
 10
111.600533
 20
65.298393
 11
111.499962
 21
72.338318
  0
LINE
  8
0
 10
125.500443
 20
82.226410
 11
135.551239
 21
82.153320
  0
LINE
  8
0
 10
139.500015
 20
72.327194
 11
139.399612
 21
79.355545
  0
LINE
  8
0
 10
148.900085
 20
64.484314
 11
148.900085
 21
71.684311
  0
LINE
  8
0
 10
150.950089
 20
68.035019
 11
150.950089
 21
68.133614
  0
LINE
  8
0
 10
148.900085
 20
71.684311
 11
148.500092
 21
71.684311
  0
LINE
  8
0
 10
148.900085
 20
64.484314
 11
148.500092
 21
64.484314
  0
LINE
  8
0
 10
148.900085
 20
76.943527
 11
148.900085
 21
88.923592
  0
LINE
  8
0
 10
148.900085
 20
76.943542
 11
146.500061
 21
76.733566
  0
LINE
  8
0
 10
148.900116
 20
88.923615
 11
146.500092
 21
89.133591
  0
LINE
  8
0
 10
93.400085
 20
110.413452
 11
93.400085
 21
100.786499
  0
LINE
  8
0
 10
93.800087
 20
110.599976
 11
93.800087
 21
100.599976
  0
LINE
  8
0
 10
93.800087
 20
110.599976
 11
99.400085
 21
110.599976
  0
LINE
  8
0
 10
93.800087
 20
100.599976
 11
99.400085
 21
100.599976
  0
LINE
  8
0
 10
93.400063
 20
110.413467
 11
93.800056
 21
110.599991
  0
LINE
  8
0
 10
93.400101
 20
100.786522
 11
93.800095
 21
100.600006
  0
LINE
  8
0
 10
93.800087
 20
108.599976
 11
96.845383
 21
108.599976
  0
LINE
  8
0
 10
93.800087
 20
106.599976
 11
95.690681
 21
106.599976
  0
LINE
  8
0
 10
93.800087
 20
104.599976
 11
94.535980
 21
104.599976
  0
LINE
  8
0
 10
93.400085
 20
90.613457
 11
93.400085
 21
80.986504
  0
LINE
  8
0
 10
93.800087
 20
90.799980
 11
93.800087
 21
80.799980
  0
LINE
  8
0
 10
93.800087
 20
90.799980
 11
99.400085
 21
90.799980
  0
LINE
  8
0
 10
93.800087
 20
80.799980
 11
99.400085
 21
80.799980
  0
LINE
  8
0
 10
93.400070
 20
90.613472
 11
93.800079
 21
90.800003
  0
LINE
  8
0
 10
93.400101
 20
80.986542
 11
93.800102
 21
80.800018
  0
LINE
  8
0
 10
93.800087
 20
88.799980
 11
96.845383
 21
88.799980
  0
LINE
  8
0
 10
93.800087
 20
86.799980
 11
95.690681
 21
86.799980
  0
LINE
  8
0
 10
93.800087
 20
84.799980
 11
94.535980
 21
84.799980
  0
LINE
  8
0
 10
117.000092
 20
32.240761
 11
117.000092
 21
47.681190
  0
LINE
  8
0
 10
116.400085
 20
31.960976
 11
116.400085
 21
47.960976
  0
LINE
  8
0
 10
116.400085
 20
31.960978
 11
107.000092
 21
31.960978
  0
LINE
  8
0
 10
116.400101
 20
47.960976
 11
107.000092
 21
47.960976
  0
LINE
  8
0
 10
117.000084
 20
32.240753
 11
116.400078
 21
31.960968
  0
LINE
  8
0
 10
117.000092
 20
47.681198
 11
116.400101
 21
47.960983
  0
LINE
  8
0
 10
116.400085
 20
33.960976
 11
110.504791
 21
33.960976
  0
LINE
  8
0
 10
116.400085
 20
35.960976
 11
111.659485
 21
35.960976
  0
LINE
  8
0
 10
116.400085
 20
37.960976
 11
112.814194
 21
37.960976
  0
LINE
  8
0
 10
116.400085
 20
39.960976
 11
113.968903
 21
39.960976
  0
LINE
  8
0
 10
116.400085
 20
41.960976
 11
115.123596
 21
41.960976
  0
LINE
  8
0
 10
103.500092
 20
27.999977
 11
103.500092
 21
-2.200020
  0
LINE
  8
0
 10
100.400093
 20
-2.500023
 11
103.200089
 21
-2.500023
  0
LINE
  8
0
 10
103.500092
 20
7.499977
 11
106.950089
 21
7.499977
  0
LINE
  8
0
 10
103.200081
 20
-2.500002
 11
103.500076
 21
-2.200003
  0
LINE
  8
0
 10
107.000092
 20
30.760979
 11
107.000092
 21
7.549982
  0
LINE
  8
0
 10
107.000092
 20
7.549977
 11
108.000092
 21
7.549977
  0
LINE
  8
0
 10
117.000092
 20
32.449978
 11
119.500092
 21
32.449978
  0
LINE
  8
0
 10
106.950096
 20
7.499994
 11
107.000092
 21
7.549994
  0
LINE
  8
0
 10
99.400093
 20
110.849976
 11
99.400093
 21
100.349976
  0
LINE
  8
0
 10
107.000092
 20
49.160976
 11
107.000092
 21
30.760979
  0
LINE
  8
0
 10
107.000092
 20
49.160976
 11
104.500092
 21
49.160976
  0
LINE
  8
0
 10
107.000092
 20
30.760979
 11
104.500092
 21
30.760979
  0
LINE
  8
0
 10
99.400085
 20
91.049980
 11
100.000092
 21
91.049980
  0
LINE
  8
0
 10
99.400085
 20
80.549980
 11
100.000092
 21
80.549980
  0
LINE
  8
0
 10
99.400085
 20
110.849976
 11
100.000092
 21
110.849976
  0
LINE
  8
0
 10
99.400085
 20
100.349976
 11
100.000092
 21
100.349976
  0
LINE
  8
0
 10
99.400093
 20
91.049980
 11
99.400093
 21
80.549980
  0
LINE
  8
0
 10
104.500092
 20
38.517605
 11
107.000092
 21
39.960979
  0
LINE
  8
0
 10
104.500092
 20
39.672302
 11
107.000092
 21
41.115677
  0
LINE
  8
0
 10
131.500092
 20
54.000042
 11
146.500092
 21
54.000042
  0
ARC
  8
0
 10
121.500092
 20
57.353062
 40
2.000000
 50
90.000000
 51
180.000000
  0
ARC
  8
0
 10
129.500092
 20
57.353062
 40
2.000000
 50
0.000000
 51
90.000000
  0
ARC
  8
0
 10
129.500092
 20
73.455673
 40
2.000000
 50
0.000000
 51
90.000000
  0
ARC
  8
0
 10
121.500092
 20
73.455673
 40
2.000000
 50
90.000000
 51
180.000000
  0
ARC
  8
0
 10
151.137573
 20
96.355606
 40
0.362520
 50
256.036285
 51
103.963715
  0
ARC
  8
0
 10
143.429367
 20
99.364677
 40
8.070709
 50
340.776794
 51
19.223194
  0
ARC
  8
0
 10
145.369339
 20
104.327408
 40
6.130738
 50
337.910828
 51
22.089165
  0
CIRCLE
  8
0
 10
125.500092
 20
71.619858
 40
0.010000
  0
CIRCLE
  8
0
 10
135.399582
 20
78.301651
 40
0.010000
  0
CIRCLE
  8
0
 10
115.600586
 20
64.301651
 40
0.010000
  0
ARC
  8
0
 10
146.850082
 20
68.035019
 40
4.100002
 50
300.000031
 51
0.000000
  0
ARC
  8
0
 10
146.850082
 20
68.133614
 40
4.099991
 50
0.000000
 51
59.999969
  0
ARC
  8
0
 10
135.749924
 20
82.933563
 40
14.450159
 50
335.510284
 51
24.489706
  0
ARC
  8
0
 10
100.400093
 20
-2.900023
 40
0.400000
 50
90.000000
 51
180.000000
  0
ARC
  8
0
 10
120.458084
 20
-3.141421
 40
2.573867
 50
310.347626
 51
344.582184
  0
ARC
  8
0
 10
120.984901
 20
-3.334550
 40
2.015190
 50
345.893616
 51
14.106551
  0
ARC
  8
0
 10
120.458084
 20
-3.527680
 40
2.573868
 50
15.417979
 51
51.388687
  0
ARC
  8
0
 10
119.000092
 20
-5.657804
 40
5.151679
 50
53.502281
 51
126.497849
  0
ARC
  8
0
 10
117.542099
 20
-3.527685
 40
2.573865
 50
128.611511
 51
164.582184
  0
ARC
  8
0
 10
117.015282
 20
-3.334556
 40
2.015190
 50
165.893631
 51
194.106552
  0
ARC
  8
0
 10
117.542099
 20
-3.141425
 40
2.573868
 50
195.417984
 51
229.662186
  0
ARC
  8
0
 10
119.000092
 20
-1.475955
 40
4.121339
 50
298.856354
 51
306.497803
  0
ARC
  8
0
 10
120.166481
 20
-3.180049
 40
2.059095
 50
308.611481
 51
344.582092
  0
ARC
  8
0
 10
120.587936
 20
-3.334553
 40
1.612153
 50
345.893524
 51
14.106454
  0
ARC
  8
0
 10
120.166481
 20
-3.489057
 40
2.059095
 50
15.417871
 51
51.388489
  0
ARC
  8
0
 10
119.000092
 20
-5.193151
 40
4.121338
 50
53.502186
 51
126.497803
  0
ARC
  8
0
 10
117.833702
 20
-3.489056
 40
2.059095
 50
128.611496
 51
164.582077
  0
ARC
  8
0
 10
117.412247
 20
-3.334552
 40
1.612153
 50
165.893509
 51
194.106461
  0
ARC
  8
0
 10
117.833702
 20
-3.180048
 40
2.059095
 50
195.417877
 51
231.388489
  0
ARC
  8
0
 10
119.000092
 20
-1.475955
 40
4.121338
 50
233.502182
 51
241.139999
  0
ARC
  8
0
 10
114.500092
 20
26.348274
 40
4.404012
 50
270.072052
 51
281.370300
  0
ARC
  8
0
 10
114.399460
 20
26.689440
 40
4.758426
 50
281.748352
 51
314.152435
  0
ARC
  8
0
 10
113.289566
 20
27.633614
 40
6.210527
 50
315.431702
 51
0.000000
  0
ARC
  8
0
 10
114.500092
 20
58.620140
 40
15.108608
 50
279.513519
 51
284.685455
  0
ARC
  8
0
 10
117.866714
 20
46.034359
 40
2.081546
 50
282.868805
 51
318.434967
  0
ARC
  8
0
 10
119.083183
 20
44.893250
 40
0.416911
 50
324.865234
 51
0.000000
  0
ARC
  8
0
 10
110.790184
 20
94.957527
 40
1.309905
 50
346.033356
 51
14.246116
  0
ARC
  8
0
 10
110.448067
 20
94.831161
 40
1.673029
 50
15.557496
 51
51.527977
  0
ARC
  8
0
 10
109.503769
 20
93.444313
 40
3.348569
 50
53.641628
 51
126.638000
  0
ARC
  8
0
 10
108.552719
 20
94.826530
 40
1.673041
 50
128.751663
 51
164.722061
  0
ARC
  8
0
 10
108.209984
 20
94.951225
 40
1.309905
 50
166.033356
 51
194.246109
  0
ARC
  8
0
 10
108.552101
 20
95.077591
 40
1.673029
 50
195.557495
 51
231.527985
  0
ARC
  8
0
 10
109.496399
 20
96.464439
 40
3.348569
 50
233.641632
 51
306.638000
  0
ARC
  8
0
 10
110.447449
 20
95.082222
 40
1.673041
 50
308.751648
 51
344.722046
  0
ARC
  8
0
 10
125.500092
 20
66.979500
 40
8.918460
 50
71.162399
 51
108.839058
  0
ARC
  8
0
 10
136.478745
 20
78.769684
 40
1.120841
 50
345.972656
 51
14.027352
  0
ARC
  8
0
 10
136.192307
 20
78.665268
 40
1.424403
 50
15.309569
 51
51.197750
  0
ARC
  8
0
 10
135.399582
 20
77.513664
 40
2.820521
 50
53.307899
 51
126.692101
  0
ARC
  8
0
 10
134.606857
 20
78.665268
 40
1.424400
 50
128.802246
 51
164.690430
  0
ARC
  8
0
 10
134.320419
 20
78.769684
 40
1.120841
 50
165.972641
 51
194.027359
  0
ARC
  8
0
 10
134.606857
 20
78.874100
 40
1.424403
 50
195.309570
 51
231.197754
  0
ARC
  8
0
 10
135.399582
 20
80.025703
 40
2.820521
 50
233.307892
 51
306.692108
  0
ARC
  8
0
 10
136.192307
 20
78.874100
 40
1.424400
 50
308.802246
 51
344.690430
  0
ARC
  8
0
 10
136.272995
 20
78.562378
 40
0.887593
 50
345.896881
 51
14.103133
  0
ARC
  8
0
 10
136.041168
 20
78.477409
 40
1.133433
 50
15.413457
 51
51.381031
  0
ARC
  8
0
 10
135.399582
 20
77.540260
 40
2.267612
 50
53.494598
 51
126.505402
  0
ARC
  8
0
 10
134.757996
 20
78.477409
 40
1.133423
 50
128.618973
 51
164.586548
  0
ARC
  8
0
 10
134.526169
 20
78.562378
 40
0.887593
 50
165.896866
 51
194.103134
  0
ARC
  8
0
 10
134.757996
 20
78.647346
 40
1.133433
 50
195.413452
 51
231.381027
  0
ARC
  8
0
 10
135.399582
 20
79.584496
 40
2.267612
 50
233.494598
 51
306.505402
  0
ARC
  8
0
 10
136.041168
 20
78.647346
 40
1.133423
 50
308.618958
 51
344.586548
  0
ARC
  8
0
 10
135.832382
 20
78.427223
 40
0.438711
 50
346.129547
 51
14.353306
  0
ARC
  8
0
 10
135.717697
 20
78.384613
 40
0.560528
 50
15.666879
 51
51.643700
  0
ARC
  8
0
 10
135.401733
 20
77.918602
 40
1.122800
 50
53.757549
 51
126.725693
  0
ARC
  8
0
 10
135.081863
 20
78.381927
 40
0.560546
 50
128.840302
 51
164.815598
  0
ARC
  8
0
 10
134.966812
 20
78.423576
 40
0.438711
 50
166.129532
 51
194.353302
  0
ARC
  8
0
 10
135.081497
 20
78.466187
 40
0.560528
 50
195.666885
 51
231.643692
  0
ARC
  8
0
 10
135.397461
 20
78.932198
 40
1.122800
 50
233.757553
 51
306.725677
  0
ARC
  8
0
 10
135.717331
 20
78.468872
 40
0.560546
 50
308.840302
 51
344.815613
  0
ARC
  8
0
 10
116.679749
 20
64.769684
 40
1.120834
 50
345.972565
 51
14.027447
  0
ARC
  8
0
 10
116.393311
 20
64.665268
 40
1.424396
 50
15.309650
 51
51.197990
  0
ARC
  8
0
 10
115.600586
 20
63.513660
 40
2.820520
 50
53.308071
 51
126.691933
  0
ARC
  8
0
 10
114.807861
 20
64.665268
 40
1.424395
 50
128.802017
 51
164.690353
  0
ARC
  8
0
 10
114.521423
 20
64.769684
 40
1.120834
 50
165.972549
 51
194.027451
  0
ARC
  8
0
 10
114.807861
 20
64.874100
 40
1.424396
 50
195.309647
 51
231.198090
  0
ARC
  8
0
 10
115.600586
 20
66.025703
 40
2.820520
 50
233.308075
 51
306.691925
  0
ARC
  8
0
 10
116.393311
 20
64.874100
 40
1.424398
 50
308.801910
 51
344.690338
  0
ARC
  8
0
 10
116.473999
 20
64.562363
 40
0.887586
 50
345.896759
 51
14.103253
  0
ARC
  8
0
 10
116.242172
 20
64.477394
 40
1.133425
 50
15.413559
 51
51.380730
  0
ARC
  8
0
 10
115.600586
 20
63.540245
 40
2.267616
 50
53.494442
 51
126.505554
  0
ARC
  8
0
 10
114.959000
 20
64.477394
 40
1.133428
 50
128.619278
 51
164.586441
  0
ARC
  8
0
 10
114.727173
 20
64.562363
 40
0.887586
 50
165.896744
 51
194.103256
  0
ARC
  8
0
 10
114.959000
 20
64.647331
 40
1.133425
 50
195.413559
 51
231.380722
  0
ARC
  8
0
 10
115.600586
 20
65.584480
 40
2.267616
 50
233.494446
 51
306.505554
  0
ARC
  8
0
 10
116.242172
 20
64.647331
 40
1.133428
 50
308.619263
 51
344.586456
  0
ARC
  8
0
 10
116.033386
 20
64.427216
 40
0.438711
 50
346.129547
 51
14.353306
  0
ARC
  8
0
 10
115.918686
 20
64.384605
 40
0.560543
 50
15.666457
 51
51.643085
  0
ARC
  8
0
 10
115.602730
 20
63.918598
 40
1.122797
 50
53.757435
 51
126.725494
  0
ARC
  8
0
 10
115.282852
 20
64.381920
 40
0.560536
 50
128.839081
 51
164.815598
  0
ARC
  8
0
 10
115.167801
 20
64.423569
 40
0.438711
 50
166.129532
 51
194.353302
  0
ARC
  8
0
 10
115.282501
 20
64.466179
 40
0.560543
 50
195.666458
 51
231.643082
  0
ARC
  8
0
 10
115.598457
 20
64.932190
 40
1.122800
 50
233.757553
 51
306.725372
  0
ARC
  8
0
 10
115.918335
 20
64.468864
 40
0.560536
 50
308.839081
 51
344.815613
  0
ARC
  8
0
 10
116.890686
 20
65.326950
 40
1.309906
 50
0.000000
 51
14.106254
  0
ARC
  8
0
 10
116.548264
 20
65.201424
 40
1.673037
 50
15.417523
 51
51.387974
  0
ARC
  8
0
 10
115.600594
 20
63.816895
 40
3.348554
 50
53.501736
 51
126.498260
  0
ARC
  8
0
 10
114.652924
 20
65.201424
 40
1.673031
 50
128.612030
 51
164.582474
  0
ARC
  8
0
 10
114.310501
 20
65.326950
 40
1.309908
 50
165.893753
 51
179.892548
  0
ARC
  8
0
 10
115.600594
 20
66.554169
 40
3.348556
 50
280.597656
 51
306.498230
  0
ARC
  8
0
 10
116.548264
 20
65.169640
 40
1.673034
 50
308.611938
 51
344.582489
  0
ARC
  8
0
 10
116.890686
 20
65.044113
 40
1.309908
 50
345.893738
 51
14.106254
  0
ARC
  8
0
 10
116.548264
 20
64.918587
 40
1.673037
 50
15.417523
 51
51.387974
  0
ARC
  8
0
 10
115.600594
 20
63.534058
 40
3.348554
 50
53.501736
 51
126.498260
  0
ARC
  8
0
 10
114.652924
 20
64.918587
 40
1.673031
 50
128.612030
 51
164.582474
  0
ARC
  8
0
 10
114.310501
 20
65.044113
 40
1.309908
 50
165.893753
 51
194.106247
  0
ARC
  8
0
 10
114.652924
 20
65.169640
 40
1.673037
 50
195.417526
 51
231.388062
  0
ARC
  8
0
 10
115.600594
 20
66.554169
 40
3.348557
 50
233.501770
 51
259.390533
  0
ARC
  8
0
 10
136.689682
 20
79.326965
 40
1.309921
 50
0.000000
 51
14.106173
  0
ARC
  8
0
 10
136.347260
 20
79.201439
 40
1.673044
 50
15.417454
 51
51.387772
  0
ARC
  8
0
 10
135.399597
 20
77.816910
 40
3.348554
 50
53.501736
 51
126.498260
  0
ARC
  8
0
 10
134.451935
 20
79.201439
 40
1.673036
 50
128.612228
 51
164.582550
  0
ARC
  8
0
 10
134.109512
 20
79.326965
 40
1.309916
 50
165.893829
 51
179.892548
  0
ARC
  8
0
 10
135.399597
 20
80.554169
 40
3.348551
 50
280.597534
 51
306.498260
  0
ARC
  8
0
 10
136.347260
 20
79.169640
 40
1.673036
 50
308.612244
 51
344.582550
  0
ARC
  8
0
 10
136.689682
 20
79.044113
 40
1.309916
 50
345.893829
 51
14.106173
  0
ARC
  8
0
 10
136.347260
 20
78.918587
 40
1.673044
 50
15.417454
 51
51.387772
  0
ARC
  8
0
 10
135.399597
 20
77.534058
 40
3.348554
 50
53.501736
 51
126.498260
  0
ARC
  8
0
 10
134.451935
 20
78.918587
 40
1.673036
 50
128.612228
 51
164.582550
  0
ARC
  8
0
 10
134.109512
 20
79.044113
 40
1.309916
 50
165.893829
 51
194.106171
  0
ARC
  8
0
 10
134.451935
 20
79.169640
 40
1.673044
 50
195.417450
 51
231.387772
  0
ARC
  8
0
 10
135.399597
 20
80.554169
 40
3.348554
 50
233.501740
 51
259.390228
  0
ARC
  8
0
 10
132.446915
 20
72.326965
 40
7.053177
 50
345.893524
 51
14.106471
  0
ARC
  8
0
 10
130.603043
 20
71.651009
 40
9.008553
 50
15.417896
 51
51.388420
  0
ARC
  8
0
 10
125.500092
 20
64.195587
 40
18.030876
 50
53.502182
 51
126.497818
  0
ARC
  8
0
 10
120.397133
 20
71.651009
 40
9.008546
 50
128.611542
 51
164.582092
  0
ARC
  8
0
 10
118.553268
 20
72.326965
 40
7.053177
 50
165.893524
 51
194.106476
  0
ARC
  8
0
 10
120.397133
 20
73.002922
 40
9.008546
 50
195.417908
 51
231.388458
  0
ARC
  8
0
 10
125.500092
 20
80.458344
 40
18.030876
 50
233.502182
 51
306.497833
  0
ARC
  8
0
 10
130.603043
 20
73.002922
 40
9.008551
 50
308.611572
 51
344.582092
  0
ARC
  8
0
 10
132.446915
 20
72.326965
 40
7.053177
 50
345.893524
 51
14.106471
  0
ARC
  8
0
 10
130.603043
 20
71.651009
 40
9.008553
 50
15.417896
 51
51.388420
  0
ARC
  8
0
 10
125.500092
 20
64.195587
 40
18.030876
 50
53.502182
 51
126.497818
  0
ARC
  8
0
 10
120.397133
 20
71.651009
 40
9.008546
 50
128.611542
 51
164.582092
  0
ARC
  8
0
 10
118.553268
 20
72.326965
 40
7.053177
 50
165.893524
 51
194.106476
  0
ARC
  8
0
 10
120.397133
 20
73.002922
 40
9.008546
 50
195.417908
 51
231.388458
  0
ARC
  8
0
 10
125.500092
 20
80.458344
 40
18.030876
 50
233.502182
 51
306.497833
  0
ARC
  8
0
 10
130.603043
 20
73.002922
 40
9.008551
 50
308.611572
 51
344.582092
  0
ARC
  8
0
 10
125.500092
 20
65.609795
 40
18.030872
 50
89.959755
 51
126.497818
  0
ARC
  8
0
 10
120.397133
 20
73.065216
 40
9.008546
 50
128.611542
 51
164.582092
  0
ARC
  8
0
 10
118.553268
 20
73.741173
 40
7.053177
 50
165.893524
 51
179.909332
  0
ARC
  8
0
 10
137.384384
 20
80.741173
 40
2.015198
 50
0.000000
 51
14.106426
  0
ARC
  8
0
 10
136.857574
 20
80.548042
 40
2.573859
 50
15.417927
 51
51.388519
  0
ARC
  8
0
 10
135.399582
 20
78.417931
 40
5.151671
 50
53.502113
 51
90.767090
  0
ARC
  8
0
 10
121.034271
 20
73.741173
 40
4.534172
 50
188.972336
 51
194.106430
  0
ARC
  8
0
 10
122.219620
 20
74.175720
 40
5.791206
 50
195.417908
 51
231.388458
  0
ARC
  8
0
 10
125.500092
 20
78.968491
 40
11.591280
 50
233.502182
 51
238.961868
  0
ARC
  8
0
 10
113.615784
 20
65.326950
 40
2.015199
 50
180.806961
 51
194.106369
  0
ARC
  8
0
 10
114.142601
 20
65.520081
 40
2.573874
 50
195.417831
 51
231.388443
  0
ARC
  8
0
 10
115.600586
 20
67.650192
 40
5.151674
 50
233.502136
 51
270.852539
  0
ARC
  8
0
 10
125.500092
 20
64.195587
 40
18.030872
 50
89.959755
 51
126.497818
  0
ARC
  8
0
 10
120.397133
 20
71.651009
 40
9.008546
 50
128.611542
 51
164.582092
  0
ARC
  8
0
 10
118.553268
 20
72.326965
 40
7.053177
 50
165.893524
 51
179.909271
  0
ARC
  8
0
 10
137.384384
 20
79.326965
 40
2.015198
 50
0.000000
 51
14.106426
  0
ARC
  8
0
 10
136.857574
 20
79.133835
 40
2.573859
 50
15.417927
 51
51.388519
  0
ARC
  8
0
 10
135.399582
 20
77.003723
 40
5.151671
 50
53.502113
 51
90.767090
  0
ARC
  8
0
 10
125.500092
 20
80.458344
 40
18.030880
 50
289.359283
 51
306.497833
  0
ARC
  8
0
 10
130.603043
 20
73.002922
 40
9.008551
 50
308.611572
 51
344.582092
  0
ARC
  8
0
 10
132.446915
 20
72.326965
 40
7.053177
 50
345.893524
 51
1.740013
  0
ARC
  8
0
 10
129.965912
 20
72.326965
 40
4.534180
 50
0.000000
 51
14.106438
  0
ARC
  8
0
 10
128.780563
 20
71.892418
 40
5.791206
 50
15.417903
 51
51.388523
  0
ARC
  8
0
 10
125.500092
 20
67.099648
 40
11.591275
 50
53.502220
 51
126.497810
  0
ARC
  8
0
 10
122.219620
 20
71.892418
 40
5.791212
 50
128.611542
 51
164.582092
  0
ARC
  8
0
 10
121.034271
 20
72.326965
 40
4.534175
 50
165.893570
 51
194.106430
  0
ARC
  8
0
 10
122.219620
 20
72.761513
 40
5.791206
 50
195.417908
 51
231.388458
  0
ARC
  8
0
 10
125.500092
 20
77.554283
 40
11.591280
 50
233.502182
 51
238.961868
  0
ARC
  8
0
 10
125.500092
 20
78.968491
 40
11.591282
 50
301.043243
 51
306.497772
  0
ARC
  8
0
 10
128.780563
 20
74.175720
 40
5.791207
 50
308.611481
 51
344.582092
  0
ARC
  8
0
 10
129.965912
 20
73.741173
 40
4.534175
 50
345.893555
 51
351.019012
  0
ARC
  8
0
 10
125.500092
 20
77.554283
 40
11.591282
 50
301.043243
 51
306.497772
  0
ARC
  8
0
 10
128.780563
 20
72.761513
 40
5.791207
 50
308.611481
 51
344.582092
  0
ARC
  8
0
 10
129.965912
 20
72.326965
 40
4.534175
 50
345.893555
 51
0.000000
  0
POINT
  8
0
 10
279.999847
 20
184.999939
  0
POINT
  8
0
 10
350.749847
 20
184.999939
  0
LINE
  8
0
 10
256.311768
 20
186.060593
 11
280.353394
 21
210.102234
  0
LINE
  8
0
 10
281.060516
 20
161.311859
 11
305.102142
 21
185.353485
  0
LINE
  8
0
 10
305.102142
 20
191.010345
 11
295.980469
 21
200.132019
  0
LINE
  8
0
 10
237.502869
 20
155.938004
 11
247.119385
 21
165.554504
  0
LINE
  8
0
 10
240.646759
 20
129.544250
 11
249.645782
 21
140.268860
  0
LINE
  8
0
 10
247.119385
 20
165.554504
 11
253.788696
 21
175.079269
  0
LINE
  8
0
 10
250.937912
 20
142.502960
 11
260.554413
 21
152.119476
  0
LINE
  8
0
 10
260.554413
 20
152.119476
 11
270.079193
 21
158.788788
  0
LINE
  8
0
 10
224.544159
 20
145.646851
 11
235.268784
 21
154.645874
  0
LINE
  8
0
 10
305.102142
 20
185.353485
 11
305.102142
 21
191.010345
  0
LINE
  8
0
 10
286.010254
 20
210.102234
 11
280.353394
 21
210.102234
  0
LINE
  8
0
 10
286.293091
 20
192.141724
 11
295.131927
 21
200.980545
  0
LINE
  8
0
 10
287.141632
 20
191.293182
 11
295.980469
 21
200.132019
  0
LINE
  8
0
 10
295.131927
 20
200.980545
 11
281.060516
 21
215.051971
  0
LINE
  8
0
 10
288.555847
 20
192.707397
 11
287.707306
 21
193.555939
  0
LINE
  8
0
 10
294.212708
 20
198.364258
 11
293.364166
 21
199.212784
  0
LINE
  8
0
 10
272.126953
 20
206.825516
 11
280.094574
 21
214.793152
  0
LINE
  8
0
 10
271.868134
 20
205.859589
 11
281.060516
 21
215.051971
  0
LINE
  8
0
 10
281.060516
 20
215.051971
 11
280.094574
 21
214.793152
  0
LINE
  8
0
 10
271.868134
 20
205.859589
 11
272.126953
 21
206.825516
  0
LINE
  8
0
 10
273.989441
 20
203.738266
 11
271.868134
 21
205.859589
  0
LINE
  8
0
 10
245.999786
 20
199.199936
 11
214.237823
 21
230.961899
  0
LINE
  8
0
 10
214.237823
 20
139.037994
 11
245.999786
 21
170.799942
  0
LINE
  8
0
 10
214.237808
 20
139.037994
 11
184.999786
 21
168.276031
  0
LINE
  8
0
 10
184.999786
 20
201.723862
 11
214.237823
 21
230.961914
  0
LINE
  8
0
 10
245.999786
 20
170.799942
 11
245.999786
 21
199.199936
  0
LINE
  8
0
 10
184.999786
 20
168.250000
 11
184.999786
 21
201.749908
  0
LINE
  8
0
 10
223.430222
 20
224.597931
 11
232.834747
 21
234.002457
  0
LINE
  8
0
 10
231.915497
 20
216.112656
 11
241.320023
 21
225.517181
  0
LINE
  8
0
 10
224.189896
 20
145.985779
 11
224.101959
 21
146.073700
  0
LINE
  8
0
 10
231.331665
 20
153.127548
 11
231.243744
 21
153.215485
  0
LINE
  8
0
 10
234.001465
 20
233.825684
 11
234.796509
 21
234.620728
  0
LINE
  8
0
 10
241.143250
 20
226.683899
 11
241.938293
 21
227.478943
  0
LINE
  8
0
 10
241.529236
 20
226.297913
 11
233.615509
 21
234.211639
  0
LINE
  8
0
 10
224.189911
 20
145.985779
 11
231.331680
 21
153.127548
  0
LINE
  8
0
 10
234.796524
 20
234.620712
 11
241.938293
 21
227.478928
  0
LINE
  8
0
 10
241.320053
 20
225.517151
 11
241.529251
 21
226.297897
  0
LINE
  8
0
 10
232.834747
 20
234.002457
 11
233.615494
 21
234.211655
  0
LINE
  8
0
 10
241.320038
 20
225.517166
 11
232.834763
 21
234.002441
  0
LINE
  8
0
 10
203.292419
 20
175.161407
 11
203.996033
 21
180.891876
  0
LINE
  8
0
 10
193.366913
 20
176.380112
 11
194.070526
 21
182.110565
  0
LINE
  8
0
 10
203.292404
 20
175.161423
 11
197.977875
 21
172.905533
  0
LINE
  8
0
 10
199.385101
 20
184.366470
 11
194.070557
 21
182.110580
  0
LINE
  8
0
 10
197.977814
 20
172.905457
 11
193.366913
 21
176.380035
  0
LINE
  8
0
 10
203.995972
 20
180.891815
 11
199.385071
 21
184.366394
  0
LINE
  8
0
 10
201.051788
 20
177.841202
 11
196.189331
 21
178.438232
  0
LINE
  8
0
 10
201.173660
 20
178.833740
 11
196.311188
 21
179.430771
  0
LINE
  8
0
 10
204.451477
 20
191.162399
 11
201.740967
 21
196.260101
  0
LINE
  8
0
 10
195.621964
 20
186.467682
 11
192.911469
 21
191.565384
  0
LINE
  8
0
 10
204.451431
 20
191.162445
 11
201.391937
 21
186.266235
  0
LINE
  8
0
 10
195.970978
 20
196.461655
 11
192.911484
 21
191.565445
  0
LINE
  8
0
 10
201.391998
 20
186.266205
 11
195.622009
 21
186.467697
  0
LINE
  8
0
 10
201.740967
 20
196.260132
 11
195.970993
 21
196.461624
  0
LINE
  8
0
 10
201.078979
 20
192.072418
 11
196.753448
 21
189.772491
  0
LINE
  8
0
 10
200.609512
 20
192.955368
 11
196.283966
 21
190.655441
  0
LINE
  8
0
 10
245.415512
 20
178.461594
 11
245.415512
 21
191.538284
  0
LINE
  8
0
 10
218.415512
 20
178.461594
 11
218.415512
 21
191.538284
  0
LINE
  8
0
 10
229.195953
 20
167.066528
 11
221.717377
 21
173.999863
  0
LINE
  8
0
 10
234.634964
 20
167.066635
 11
242.113525
 21
173.999954
  0
LINE
  8
0
 10
242.113525
 20
195.999924
 11
234.634964
 21
202.933258
  0
LINE
  8
0
 10
229.195953
 20
202.933365
 11
221.717392
 21
196.000031
  0
LINE
  8
0
 10
217.773361
 20
139.745117
 11
237.572357
 21
159.544098
  0
LINE
  8
0
 10
237.572357
 20
210.455795
 11
217.773376
 21
230.254776
  0
LINE
  8
0
 10
271.999847
 20
146.594208
 11
271.999847
 21
159.930496
  0
LINE
  8
0
 10
271.999847
 20
206.351181
 11
271.999847
 21
223.405670
  0
LINE
  8
0
 10
214.199829
 20
139.049911
 11
184.999771
 21
168.249985
  0
LINE
  8
0
 10
214.199844
 20
139.049942
 11
214.212860
 21
139.062958
  0
LINE
  8
0
 10
214.212860
 20
230.936935
 11
214.199829
 21
230.949951
  0
LINE
  8
0
 10
184.999771
 20
201.749908
 11
214.199829
 21
230.949951
  0
LINE
  8
0
 10
217.773346
 20
139.745087
 11
216.359131
 21
141.159302
  0
LINE
  8
0
 10
237.572342
 20
159.544083
 11
236.158127
 21
160.958298
  0
LINE
  8
0
 10
216.359146
 20
228.840576
 11
217.773361
 21
230.254791
  0
LINE
  8
0
 10
236.158142
 20
209.041595
 11
237.572357
 21
210.455811
  0
LINE
  8
0
 10
218.410126
 20
139.816177
 11
223.501282
 21
144.907349
  0
LINE
  8
0
 10
222.370407
 20
140.877335
 11
222.440125
 21
140.947052
  0
LINE
  8
0
 10
223.501282
 20
144.907333
 11
223.218445
 21
145.190186
  0
LINE
  8
0
 10
218.410110
 20
139.816162
 11
218.127258
 21
140.099014
  0
LINE
  8
0
 10
232.410126
 20
153.816177
 11
237.501297
 21
158.907349
  0
LINE
  8
0
 10
236.370422
 20
154.877335
 11
236.440140
 21
154.947052
  0
LINE
  8
0
 10
237.501282
 20
158.907333
 11
237.218445
 21
159.190170
  0
LINE
  8
0
 10
232.410110
 20
153.816162
 11
232.127258
 21
154.098999
  0
LINE
  8
0
 10
237.501312
 20
211.092545
 11
232.410141
 21
216.183716
  0
LINE
  8
0
 10
236.440140
 20
215.052841
 11
236.370422
 21
215.122559
  0
LINE
  8
0
 10
232.410141
 20
216.183716
 11
232.127304
 21
215.900864
  0
LINE
  8
0
 10
237.501312
 20
211.092545
 11
237.218475
 21
210.809692
  0
LINE
  8
0
 10
223.501312
 20
225.092545
 11
218.410141
 21
230.183716
  0
LINE
  8
0
 10
222.440140
 20
229.052841
 11
222.370438
 21
229.122543
  0
LINE
  8
0
 10
218.410126
 20
230.183716
 11
218.127289
 21
229.900864
  0
LINE
  8
0
 10
223.501312
 20
225.092545
 11
223.218475
 21
224.809708
  0
LINE
  8
0
 10
272.755402
 20
249.441071
 11
272.036011
 21
246.756256
  0
LINE
  8
0
 10
287.244293
 20
249.441101
 11
287.963684
 21
246.756271
  0
LINE
  8
0
 10
272.755402
 20
120.558807
 11
272.036011
 21
123.243622
  0
LINE
  8
0
 10
287.244263
 20
120.558807
 11
287.963654
 21
123.243622
  0
LINE
  8
0
 10
329.500458
 20
147.224884
 11
332.185303
 21
146.505493
  0
LINE
  8
0
 10
337.464325
 20
161.018646
 11
339.429718
 21
159.053238
  0
LINE
  8
0
 10
337.464325
 20
208.981171
 11
339.429749
 21
210.946609
  0
LINE
  8
0
 10
329.500519
 20
222.774994
 11
332.185303
 21
223.494385
  0
LINE
  8
0
 10
291.306488
 20
148.029541
 11
289.092041
 21
156.294037
  0
LINE
  8
0
 10
306.363800
 20
156.722870
 11
300.313782
 21
162.772888
  0
LINE
  8
0
 10
317.670471
 20
176.306580
 11
309.405975
 21
178.521042
  0
LINE
  8
0
 10
317.670471
 20
193.693237
 11
309.406006
 21
191.478775
  0
LINE
  8
0
 10
300.313812
 20
207.226944
 11
306.363831
 21
213.276978
  0
LINE
  8
0
 10
289.092102
 20
213.705841
 11
291.306549
 21
221.970306
  0
LINE
  8
0
 10
275.737244
 20
159.999939
 11
284.262390
 21
159.999939
  0
LINE
  8
0
 10
299.519226
 20
168.808395
 11
303.781799
 21
176.191391
  0
LINE
  8
0
 10
303.781799
 20
193.808411
 11
299.519226
 21
201.191406
  0
LINE
  8
0
 10
335.999847
 20
164.554169
 11
335.999847
 21
205.445648
  0
LINE
  8
0
 10
325.706451
 20
223.274536
 11
290.293335
 21
243.720306
  0
LINE
  8
0
 10
269.706360
 20
126.279579
 11
248.285034
 21
138.647186
  0
LINE
  8
0
 10
290.293304
 20
126.279655
 11
325.706360
 21
146.725403
  0
LINE
  8
0
 10
241.859528
 20
227.642807
 11
269.706390
 21
243.720215
  0
LINE
  8
0
 10
224.219742
 20
145.999939
 11
224.964966
 21
145.999939
  0
LINE
  8
0
 10
264.618652
 20
150.399933
 11
262.741638
 21
153.651001
  0
LINE
  8
0
 10
257.690430
 20
146.399933
 11
256.645233
 21
148.210297
  0
LINE
  8
0
 10
262.309235
 20
146.399933
 11
257.690430
 21
146.399933
  0
LINE
  8
0
 10
264.618652
 20
150.399933
 11
262.309235
 21
146.399933
  0
LINE
  8
0
 10
264.618652
 20
219.599945
 11
262.309265
 21
223.599945
  0
LINE
  8
0
 10
262.309265
 20
223.599945
 11
257.690460
 21
223.599945
  0
LINE
  8
0
 10
255.381042
 20
219.599945
 11
257.690460
 21
223.599945
  0
LINE
  8
0
 10
257.690460
 20
215.599945
 11
255.381042
 21
219.599945
  0
LINE
  8
0
 10
262.309265
 20
215.599945
 11
257.690460
 21
215.599945
  0
LINE
  8
0
 10
264.618652
 20
219.599945
 11
262.309265
 21
215.599930
  0
LINE
  8
0
 10
231.915512
 20
201.154648
 11
230.915512
 21
200.577301
  0
LINE
  8
0
 10
230.915512
 20
200.577301
 11
230.915512
 21
199.422592
  0
LINE
  8
0
 10
231.915512
 20
198.845245
 11
230.915512
 21
199.422592
  0
LINE
  8
0
 10
232.915512
 20
199.422592
 11
231.915512
 21
198.845245
  0
LINE
  8
0
 10
232.915512
 20
200.577301
 11
232.915512
 21
199.422592
  0
LINE
  8
0
 10
231.915512
 20
201.154648
 11
232.915512
 21
200.577301
  0
LINE
  8
0
 10
231.915512
 20
171.154648
 11
230.915512
 21
170.577301
  0
LINE
  8
0
 10
230.915512
 20
170.577301
 11
230.915512
 21
169.422592
  0
LINE
  8
0
 10
231.915512
 20
168.845245
 11
230.915512
 21
169.422592
  0
LINE
  8
0
 10
232.915512
 20
169.422592
 11
231.915512
 21
168.845245
  0
LINE
  8
0
 10
232.915512
 20
170.577301
 11
232.915512
 21
169.422592
  0
LINE
  8
0
 10
231.915527
 20
171.154663
 11
232.915527
 21
170.577301
  0
LINE
  8
0
 10
217.066269
 20
163.501205
 11
217.066269
 21
157.001205
  0
LINE
  8
0
 10
213.816269
 20
160.251205
 11
220.316269
 21
160.251205
  0
LINE
  8
0
 10
217.066269
 20
212.998688
 11
217.066269
 21
206.498688
  0
LINE
  8
0
 10
213.816269
 20
209.748688
 11
220.316269
 21
209.748688
  0
LINE
  8
0
 10
254.973633
 20
142.694275
 11
255.574646
 21
143.735291
  0
LINE
  8
0
 10
255.839661
 20
142.194275
 11
256.440674
 21
143.235291
  0
LINE
  8
0
 10
255.839661
 20
227.805603
 11
256.440674
 21
226.764603
  0
LINE
  8
0
 10
254.973633
 20
227.305603
 11
255.574661
 21
226.264587
  0
LINE
  8
0
 10
292.727783
 20
185.707047
 11
280.706940
 21
197.727859
  0
LINE
  8
0
 10
279.292755
 20
172.272018
 11
267.271912
 21
184.292831
  0
LINE
  8
0
 10
267.271912
 20
185.707047
 11
279.292725
 21
197.727859
  0
LINE
  8
0
 10
280.706970
 20
172.272018
 11
292.727783
 21
184.292831
  0
LINE
  8
0
 10
279.326721
 20
173.369400
 11
268.369324
 21
184.326813
  0
LINE
  8
0
 10
280.672974
 20
173.369400
 11
291.630371
 21
184.326813
  0
LINE
  8
0
 10
268.369324
 20
185.673050
 11
279.326721
 21
196.630478
  0
LINE
  8
0
 10
291.630371
 20
185.673065
 11
280.672974
 21
196.630478
  0
LINE
  8
0
 10
280.672943
 20
196.630478
 11
281.027344
 21
197.407471
  0
LINE
  8
0
 10
279.326721
 20
196.630478
 11
278.972351
 21
197.407471
  0
LINE
  8
0
 10
267.592316
 20
186.027435
 11
268.369293
 21
185.673050
  0
LINE
  8
0
 10
267.592316
 20
183.972427
 11
268.369324
 21
184.326813
  0
LINE
  8
0
 10
278.972351
 20
172.592407
 11
279.326752
 21
173.369400
  0
LINE
  8
0
 10
281.027344
 20
172.592407
 11
280.672974
 21
173.369400
  0
LINE
  8
0
 10
292.407379
 20
183.972443
 11
291.630371
 21
184.326813
  0
LINE
  8
0
 10
291.630371
 20
185.673065
 11
292.407379
 21
186.027451
  0
LINE
  8
0
 10
279.292755
 20
171.564911
 11
266.564819
 21
184.292831
  0
LINE
  8
0
 10
280.706940
 20
171.564911
 11
293.434875
 21
184.292831
  0
LINE
  8
0
 10
293.434875
 20
185.707047
 11
287.495178
 21
191.646744
  0
LINE
  8
0
 10
266.564819
 20
185.707047
 11
279.292755
 21
198.434967
  0
LINE
  8
0
 10
286.646637
 20
192.495270
 11
280.706940
 21
198.434967
  0
ARC
  8
0
 10
279.999847
 20
184.999939
 40
67.999992
 50
215.360748
 51
234.639374
  0
ARC
  8
0
 10
241.501419
 20
183.682922
 40
15.000001
 50
324.999969
 51
9.120505
  0
ARC
  8
0
 10
278.682831
 20
146.501511
 40
14.999993
 50
80.879440
 51
124.999977
  0
ARC
  8
0
 10
254.473434
 20
138.967438
 40
4.999984
 50
135.000000
 51
164.913040
  0
ARC
  8
0
 10
233.967346
 20
159.473526
 40
4.999996
 50
285.087128
 51
314.999878
  0
CIRCLE
  8
0
 10
217.066269
 20
160.251205
 40
6.500000
  0
CIRCLE
  8
0
 10
217.066269
 20
209.748688
 40
6.500000
  0
CIRCLE
  8
0
 10
231.915512
 20
184.999939
 40
0.500000
  0
CIRCLE
  8
0
 10
231.915512
 20
184.999939
 40
11.250000
  0
ARC
  8
0
 10
217.773376
 20
159.544098
 40
14.999998
 50
295.326050
 51
334.673859
  0
ARC
  8
0
 10
228.379974
 20
221.062393
 40
14.999998
 50
25.326059
 51
64.673859
  0
CIRCLE
  8
0
 10
198.681488
 20
178.635986
 40
2.500000
  0
CIRCLE
  8
0
 10
198.681488
 20
178.635986
 40
2.250000
  0
CIRCLE
  8
0
 10
198.681488
 20
178.635986
 40
5.000000
  0
CIRCLE
  8
0
 10
198.681488
 20
191.363907
 40
2.500000
  0
CIRCLE
  8
0
 10
198.681488
 20
191.363907
 40
2.250000
  0
CIRCLE
  8
0
 10
198.681488
 20
191.363907
 40
5.000000
  0
ARC
  8
0
 10
231.915512
 20
169.999939
 40
3.999994
 50
227.166687
 51
312.833313
  0
ARC
  8
0
 10
231.915512
 20
199.999939
 40
4.000004
 50
47.166527
 51
132.833481
  0
ARC
  8
0
 10
231.915512
 20
184.999939
 40
15.000003
 50
132.833435
 51
154.158020
  0
ARC
  8
0
 10
231.915512
 20
184.999939
 40
15.000003
 50
312.833435
 51
334.158081
  0
ARC
  8
0
 10
231.915512
 20
199.999939
 40
4.000004
 50
47.166527
 51
90.000000
  0
ARC
  8
0
 10
231.915512
 20
184.999939
 40
14.999999
 50
205.841919
 51
227.166595
  0
ARC
  8
0
 10
231.915512
 20
184.999939
 40
14.999999
 50
25.841923
 51
47.166557
  0
ARC
  8
0
 10
279.999847
 20
184.999939
 40
22.500000
 50
111.089302
 51
173.942459
  0
ARC
  8
0
 10
279.999847
 20
184.999939
 40
51.000000
 50
113.876205
 51
140.871994
  0
ARC
  8
0
 10
279.999847
 20
184.999939
 40
51.000000
 50
235.735428
 51
246.123795
  0
ARC
  8
0
 10
262.999847
 20
146.594208
 40
8.999997
 50
246.123810
 51
0.000000
  0
ARC
  8
0
 10
262.999847
 20
223.405670
 40
9.000000
 50
0.000000
 51
113.876190
  0
ARC
  8
0
 10
234.231308
 20
222.232193
 40
8.000009
 50
288.428314
 51
320.871948
  0
CIRCLE
  8
0
 10
217.066269
 20
160.251205
 40
6.200000
  0
CIRCLE
  8
0
 10
217.066269
 20
209.748688
 40
6.200000
  0
ARC
  8
0
 10
219.471283
 20
143.776474
 40
4.100000
 50
255.000015
 51
315.000000
  0
ARC
  8
0
 10
219.540985
 20
143.846191
 40
4.100002
 50
315.000000
 51
14.999986
  0
ARC
  8
0
 10
233.471283
 20
157.776474
 40
4.100000
 50
255.000015
 51
280.080811
  0
ARC
  8
0
 10
233.541000
 20
157.846191
 40
4.099998
 50
322.454468
 51
14.999986
  0
ARC
  8
0
 10
233.541016
 20
212.153702
 40
4.100000
 50
345.000000
 51
44.999847
  0
ARC
  8
0
 10
233.471298
 20
212.223419
 40
4.099991
 50
44.999847
 51
104.999985
  0
ARC
  8
0
 10
219.541000
 20
226.153702
 40
4.100000
 50
345.000000
 51
45.000000
  0
ARC
  8
0
 10
219.471283
 20
226.223419
 40
4.100002
 50
45.000000
 51
104.999985
  0
CIRCLE
  8
0
 10
231.915512
 20
184.999939
 40
11.800000
  0
ARC
  8
0
 10
279.999847
 20
184.999939
 40
45.000000
 50
70.119095
 51
102.675407
  0
ARC
  8
0
 10
279.999847
 20
184.999939
 40
55.000000
 50
89.999969
 51
145.509338
  0
CIRCLE
  8
0
 10
299.999817
 20
150.358917
 40
5.000000
  0
CIRCLE
  8
0
 10
319.999847
 20
184.999908
 40
5.000000
  0
CIRCLE
  8
0
 10
299.999878
 20
219.640930
 40
5.000000
  0
CIRCLE
  8
0
 10
299.999817
 20
150.358917
 40
4.250000
  0
CIRCLE
  8
0
 10
319.999847
 20
184.999908
 40
4.250000
  0
CIRCLE
  8
0
 10
299.999878
 20
219.640930
 40
4.250000
  0
ARC
  8
0
 10
299.999817
 20
150.358917
 40
8.999998
 50
195.000031
 51
44.999863
  0
ARC
  8
0
 10
319.999847
 20
184.999908
 40
8.999998
 50
254.999969
 51
105.000038
  0
ARC
  8
0
 10
299.999878
 20
219.640930
 40
8.999989
 50
315.000000
 51
164.999969
  0
ARC
  8
0
 10
279.999847
 20
247.499939
 40
7.499974
 50
15.000086
 51
164.999969
  0
ARC
  8
0
 10
279.999847
 20
122.499939
 40
7.500003
 50
195.000031
 51
344.999969
  0
ARC
  8
0
 10
334.126434
 20
153.749939
 40
7.499999
 50
255.000092
 51
44.999836
  0
ARC
  8
0
 10
334.126434
 20
216.249924
 40
7.500008
 50
315.000092
 51
104.999916
  0
ARC
  8
0
 10
275.737244
 20
154.999939
 40
5.000000
 50
90.000000
 51
138.372620
  0
ARC
  8
0
 10
284.262390
 20
154.999939
 40
5.000022
 50
14.999965
 51
90.000000
  0
ARC
  8
0
 10
303.849304
 20
166.308426
 40
4.999984
 50
149.999893
 51
225.000122
  0
ARC
  8
0
 10
308.111877
 20
173.691406
 40
5.000007
 50
74.999992
 51
150.000076
  0
ARC
  8
0
 10
308.111908
 20
196.308411
 40
4.999984
 50
210.000107
 51
285.000061
  0
ARC
  8
0
 10
303.849335
 20
203.691406
 40
4.999995
 50
134.999878
 51
210.000107
  0
ARC
  8
0
 10
284.262451
 20
214.999939
 40
5.000014
 50
288.547089
 51
345.000031
  0
ARC
  8
0
 10
275.737305
 20
214.999939
 40
4.999985
 50
221.626266
 51
265.199921
  0
ARC
  8
0
 10
279.999847
 20
184.999939
 40
44.999992
 50
257.324585
 51
289.880737
  0
ARC
  8
0
 10
279.999847
 20
184.999939
 40
45.000008
 50
310.119110
 51
349.880737
  0
ARC
  8
0
 10
279.999847
 20
184.999939
 40
45.000011
 50
10.119110
 51
49.880749
  0
ARC
  8
0
 10
267.206360
 20
248.050354
 40
4.999997
 50
300.000031
 51
345.000031
  0
ARC
  8
0
 10
267.206390
 20
121.949524
 40
4.999990
 50
14.999971
 51
59.999981
  0
ARC
  8
0
 10
292.793304
 20
121.949509
 40
4.999989
 50
119.999672
 51
164.999939
  0
ARC
  8
0
 10
328.206360
 20
142.395264
 40
4.999992
 50
74.999947
 51
120.000015
  0
ARC
  8
0
 10
340.999847
 20
164.554169
 40
5.000000
 50
180.000000
 51
225.000000
  0
ARC
  8
0
 10
340.999847
 20
205.445648
 40
4.999984
 50
135.000000
 51
180.000000
  0
ARC
  8
0
 10
328.206421
 20
227.604614
 40
5.000010
 50
240.000076
 51
284.999664
  0
ARC
  8
0
 10
292.793304
 20
248.050354
 40
4.999992
 50
195.000061
 51
239.999985
  0
ARC
  8
0
 10
234.210083
 20
228.999924
 40
4.999997
 50
300.000031
 51
300.000031
  0
ARC
  8
0
 10
279.999847
 20
184.999939
 40
70.750008
 50
216.898590
 51
143.101379
  0
ARC
  8
0
 10
279.999847
 20
184.999939
 40
55.000000
 50
235.739182
 51
90.000000
  0
ARC
  8
0
 10
259.999847
 20
150.399933
 40
8.000001
 50
219.089752
 51
42.834400
  0
CIRCLE
  8
0
 10
259.999847
 20
219.599945
 40
8.000000
  0
ARC
  8
0
 10
259.999847
 20
219.599945
 40
9.200000
 50
123.115440
 51
116.884552
  0
ARC
  8
0
 10
259.999847
 20
150.399933
 40
9.199999
 50
243.115448
 51
41.807236
  0
ARC
  8
0
 10
259.999847
 20
150.399933
 40
6.999998
 50
218.241653
 51
43.962254
  0
CIRCLE
  8
0
 10
259.999847
 20
219.599945
 40
7.000000
  0
CIRCLE
  8
0
 10
231.915512
 20
199.999939
 40
2.850000
  0
CIRCLE
  8
0
 10
231.915512
 20
169.999939
 40
2.850000
  0
ARC
  8
0
 10
279.999847
 20
184.999939
 40
12.450004
 50
265.265991
 51
274.734009
  0
ARC
  8
0
 10
279.999847
 20
184.999939
 40
12.450004
 50
355.265991
 51
4.734064
  0
ARC
  8
0
 10
279.999847
 20
184.999939
 40
12.450003
 50
175.266083
 51
184.733994
  0
ARC
  8
0
 10
279.999847
 20
184.999939
 40
12.450004
 50
85.266006
 51
94.733994
  0
ARC
  8
0
 10
279.999847
 20
184.999939
 40
11.649986
 50
176.687653
 51
183.312347
  0
ARC
  8
0
 10
279.999847
 20
184.999939
 40
11.650002
 50
266.687653
 51
273.312347
  0
ARC
  8
0
 10
279.999847
 20
184.999939
 40
11.649986
 50
356.687653
 51
3.312271
  0
ARC
  8
0
 10
279.999847
 20
184.999939
 40
11.650002
 50
86.687660
 51
93.312340
  0
ARC
  8
0
 10
279.999847
 20
172.979126
 40
0.999990
 50
225.000626
 51
314.999390
  0
ARC
  8
0
 10
292.020660
 20
184.999939
 40
1.000012
 50
315.000610
 51
44.999382
  0
ARC
  8
0
 10
279.999847
 20
197.020752
 40
0.999990
 50
45.000618
 51
134.999374
  0
ARC
  8
0
 10
279.999847
 20
172.272018
 40
0.999990
 50
225.000626
 51
314.999390
  0
ARC
  8
0
 10
292.727783
 20
184.999939
 40
0.999990
 50
314.999390
 51
45.000618
  0
ARC
  8
0
 10
279.999847
 20
197.727859
 40
0.999990
 50
45.000618
 51
134.999374
  0
ARC
  8
0
 10
267.271912
 20
184.999939
 40
0.999990
 50
134.999374
 51
225.000626
  0
ARC
  8
0
 10
267.979034
 20
184.999939
 40
1.000012
 50
135.000626
 51
224.999374
  0
ARC
  8
0
 10
279.999847
 20
184.999939
 40
22.500004
 50
276.057526
 51
353.942413
  0
ARC
  8
0
 10
259.999847
 20
150.399933
 40
9.199994
 50
219.862885
 51
236.884506
  0
ENDSEC
  0
EOF
