  0
SECTION
  2
HEADER
  0
ENDSEC
  0
SECTION
  2
TABLES
  0
TABLE
  2
LTYPE
 70
     4
  0
LTYPE
  2
CONTINUOUS
 70
    64
  3
Solid line
 72
    65
 73
     0
 40
0.000000
  0
LTYPE
  2
DASHED
 70
    64
  3
__ __ __ __ __ __ __ __ __ __ __ __ __ __ __
 72
    65
 73
     2
 40
3.500000
 49
2.000000
 49
-1.500000
  0
LTYPE
  2
CENTER
 70
    64
  3
____ _ ____ _ ____ _ ____ _ ____ _ ____ _ ____
 72
    65
 73
     4
 40
17.500000
 49
13.000000
 49
-1.500000
 49
1.500000
 49
-1.500000
  0
LTYPE
  2
PHANTOM
 70
    64
  3
_____ _ _ _____ _ _ _____ _ _ _____ _ _ ____  
 72
    65
 73
     6
 40
15.500000
 49
8.000000
 49
-1.500000
 49
1.500000
 49
-1.500000
 49
1.500000
 49
-1.500000
  0
LTYPE
  2
DASHED1
 70
    64
  3
__ __ __ __ __ __ __ __ __ __ __ __ __ __ __
 72
    65
 73
     2
 40
1.500000
 49
1.000000
 49
-0.500000
  0
LTYPE
  2
DASHED2
 70
    64
  3
__ __ __ __ __ __ __ __ __ __ __ __ __ __ __
 72
    65
 73
     2
 40
3.500000
 49
2.500000
 49
-1.000000
  0
LTYPE
  2
DASHED3
 70
    64
  3
__ __ __ __ __ __ __ __ __ __ __ __ __ __ __
 72
    65
 73
     2
 40
6.000000
 49
4.000000
 49
-2.000000
  0
LTYPE
  2
DASHED4
 70
    64
  3
__ __ __ __ __ __ __ __ __ __ __ __ __ __ __
 72
    65
 73
     2
 40
12.000000
 49
10.000000
 49
-2.000000
  0
LTYPE
  2
DASHED5
 70
    64
  3
__ __ __ __ __ __ __ __ __ __ __ __ __ __ __
 72
    65
 73
     2
 40
17.000000
 49
15.000000
 49
-2.000000
  0
LTYPE
  2
DASHED6
 70
    64
  3
__ __ __ __ __ __ __ __ __ __ __ __ __ __ __
 72
    65
 73
     2
 40
29.000000
 49
27.000000
 49
-2.000000
  0
LTYPE
  2
PHANTOM1
 70
    64
  3
_____ _ _ _____ _ _ _____ _ _ _____ _ _ ____  
 72
    65
 73
     6
 40
31.000000
 49
25.000000
 49
-1.500000
 49
1.000000
 49
-1.000000
 49
1.000000
 49
-1.500000
  0
LTYPE
  2
PHANTOM2
 70
    64
  3
_____ _ _ _____ _ _ _____ _ _ _____ _ _ ____  
 72
    65
 73
     6
 40
36.000000
 49
27.000000
 49
-1.500000
 49
2.500000
 49
-1.000000
 49
2.500000
 49
-1.500000
  0
LTYPE
  2
PHANTOM3
 70
    64
  3
_____ _ _ _____ _ _ _____ _ _ _____ _ _ ____  
 72
    65
 73
     6
 40
78.000000
 49
64.000000
 49
-2.000000
 49
4.000000
 49
-2.000000
 49
4.000000
 49
-2.000000
  0
LTYPE
  2
CENTER1
 70
    64
  3
____ _ ____ _ ____ _ ____ _ ____ _ ____ _ ____
 72
    65
 73
     4
 40
19.000000
 49
14.000000
 49
-1.000000
 49
3.000000
 49
-1.000000
  0
LTYPE
  2
CENTER2
 70
    64
  3
____ _ ____ _ ____ _ ____ _ ____ _ ____ _ ____
 72
    65
 73
     4
 40
28.500000
 49
25.000000
 49
-1.000000
 49
1.500000
 49
-1.000000
  0
LTYPE
  2
CENTER3
 70
    64
  3
____ _ ____ _ ____ _ ____ _ ____ _ ____ _ ____
 72
    65
 73
     4
 40
31.500000
 49
27.000000
 49
-1.000000
 49
2.500000
 49
-1.000000
  0
LTYPE
  2
CENTER4
 70
    64
  3
____ _ ____ _ ____ _ ____ _ ____ _ ____ _ ____
 72
    65
 73
     4
 40
50.000000
 49
45.000000
 49
-1.000000
 49
3.000000
 49
-1.000000
  0
LTYPE
  2
CENTER5
 70
    64
  3
____ _ ____ _ ____ _ ____ _ ____ _ ____ _ ____
 72
    65
 73
     4
 40
100.000000
 49
92.000000
 49
-2.000000
 49
4.000000
 49
-2.000000
  0
LTYPE
  2
SBK1
 70
    64
  3
______ _ _ _ ______ _ _ _ ______ _ _ _ _____  
 72
    65
 73
     8
 40
60.500000
 49
45.000000
 49
-2.000000
 49
2.500000
 49
-2.000000
 49
2.500000
 49
-2.000000
 49
2.500000
 49
-2.000000
  0
LTYPE
  2
SBK2
 70
    64
  3
______ _ _ _ ______ _ _ _ ______ _ _ _ _____  
 72
    65
 73
     8
 40
84.000000
 49
64.000000
 49
-2.000000
 49
4.000000
 49
-2.000000
 49
4.000000
 49
-2.000000
 49
4.000000
 49
-2.000000
  0
LTYPE
  2
STCH
 70
    64
  3
__ __ __ __ __ __ __ __ __ __ __ __ __ __ __
 72
    65
 73
     2
 40
3.000000
 49
1.000000
 49
-2.000000
  0
LTYPE
  2
MTCH
 70
    64
  3
_____ _ _ _____ _ _ _____ _ _ _____ _ _ ____  
 72
    65
 73
     6
 40
80.000000
 49
66.000000
 49
-2.000000
 49
4.000000
 49
-2.000000
 49
4.000000
 49
-2.000000
  0
ENDTAB
  0
TABLE
  2
LAYER
 70
     1
  0
LAYER
  2
0
 70
     0
 62
     7
  6
CONTINUOUS
  0
ENDTAB
  0
TABLE
  2
STYLE
 70
     1
  0
STYLE
  2
STANDARD
 70
     0
 40
0.000000
 41
1.000000
 50
0.000000
 71
     0
 42
0.200000
  3
txt
  4
BIGFONT
  0
ENDTAB
  0
TABLE
  2
VIEW
 70
     0
  0
ENDTAB
  0
ENDSEC
  0
SECTION
  2
BLOCKS
  0
ENDSEC
  0
SECTION
  2
ENTITIES
  0
LINE
  8
0
 10
-420.500000
 20
297.000000
 11
420.500000
 21
297.000000
  0
LINE
  8
0
 10
-420.500000
 20
-297.000000
 11
420.500000
 21
-297.000000
  0
LINE
  8
0
 10
420.500000
 20
297.000000
 11
420.500000
 21
-297.000000
  0
LINE
  8
0
 10
-420.500000
 20
297.000000
 11
-420.500000
 21
-297.000000
  0
LINE
  8
0
 10
399.799988
 20
276.250000
 11
399.799988
 21
-276.750000
  0
LINE
  8
0
 10
-399.250000
 20
276.250000
 11
-399.250000
 21
-276.750000
  0
LINE
  8
0
 10
-399.250000
 20
276.250000
 11
399.799988
 21
276.250000
  0
LINE
  8
0
 10
-399.250000
 20
-276.750000
 11
399.799988
 21
-276.750000
  0
LINE
  8
0
 10
-399.250000
 20
261.250000
 11
-299.250000
 21
261.250000
  0
LINE
  8
0
 10
0.274994
 20
-261.750000
 11
399.799988
 21
-261.750000
  0
LINE
  8
0
 10
299.799988
 20
-261.750000
 11
299.799988
 21
-276.750000
  0
LINE
  8
0
 10
-299.250000
 20
276.250000
 11
-299.250000
 21
261.250000
  0
LINE
  8
0
 10
0.274994
 20
-0.250000
 11
0.274994
 21
-276.750000
  0
LINE
  8
0
 10
-399.250000
 20
-0.250000
 11
399.799988
 21
-0.250000
  0
LINE
  8
0
 10
-399.250000
 20
-261.750000
 11
-199.250000
 21
-261.750000
  0
LINE
  8
0
 10
-199.250000
 20
-261.750000
 11
-199.250000
 21
-276.750000
  0
TEXT
  8
0
 10
-394.856873
 20
264.350006
 40
6.000000
  1
ROTARY ACTUATER
 50
0.000000
 41
1.052632
 51
0.000000
  7
STANDARD
  0
TEXT
  8
0
 10
310.193115
 20
-273.649994
 40
6.000000
  1
KOGANEI CORP.
 50
0.000000
 41
1.052632
 51
10.000000
  7
STANDARD
  0
TEXT
  8
0
 10
-390.466705
 20
225.583389
 40
8.000000
  1
MODEL : RAK150
 50
0.000000
 41
1.052632
 51
0.000000
  7
STANDARD
  0
TEXT
  8
0
 10
-329.856873
 20
-273.649994
 40
6.000000
  1
FOOT (-1A)
 50
0.000000
 41
1.052632
 51
0.000000
  7
STANDARD
  0
TEXT
  8
0
 10
113.430618
 20
-273.649994
 40
6.000000
  1
FLANGE (-3A)
 50
0.000000
 41
1.052632
 51
0.000000
  7
STANDARD
  0
POINT
  8
0
 10
-20.000000
 20
200.000000
  0
POINT
  8
0
 10
106.500000
 20
200.000000
  0
LINE
  8
0
 10
30.500000
 20
255.000000
 11
30.500000
 21
145.000000
  0
LINE
  8
0
 10
-72.500000
 20
208.500000
 11
-23.000000
 21
208.500000
  0
LINE
  8
0
 10
-72.500000
 20
191.500000
 11
-23.000000
 21
191.500000
  0
LINE
  8
0
 10
-22.699997
 20
215.000000
 11
-20.400002
 21
215.000000
  0
LINE
  8
0
 10
-22.699997
 20
185.000000
 11
-20.400002
 21
185.000000
  0
LINE
  8
0
 10
-19.000000
 20
237.311005
 11
-7.979607
 21
237.311005
  0
LINE
  8
0
 10
-19.000000
 20
162.688995
 11
-7.979607
 21
162.688995
  0
LINE
  8
0
 10
-4.500000
 20
242.600006
 11
3.099998
 21
242.600006
  0
LINE
  8
0
 10
-4.500000
 20
157.399994
 11
3.099998
 21
157.399994
  0
LINE
  8
0
 10
5.000000
 20
255.000000
 11
58.000000
 21
255.000000
  0
LINE
  8
0
 10
5.000000
 20
145.000000
 11
58.000000
 21
145.000000
  0
LINE
  8
0
 10
5.500000
 20
225.500000
 11
57.500000
 21
225.500000
  0
LINE
  8
0
 10
5.500000
 20
174.500000
 11
57.500000
 21
174.500000
  0
LINE
  8
0
 10
4.500000
 20
230.500000
 11
58.500000
 21
230.500000
  0
LINE
  8
0
 10
4.500000
 20
169.500000
 11
58.500000
 21
169.500000
  0
LINE
  8
0
 10
-20.000000
 20
207.000000
 11
-9.500000
 21
207.000000
  0
LINE
  8
0
 10
-20.000000
 20
193.000000
 11
-9.500000
 21
193.000000
  0
LINE
  8
0
 10
3.500000
 20
253.500000
 11
3.500000
 21
146.500000
  0
LINE
  8
0
 10
-20.000000
 20
236.311005
 11
-20.000000
 21
163.688995
  0
LINE
  8
0
 10
-23.000000
 20
214.699997
 11
-23.000000
 21
185.300003
  0
LINE
  8
0
 10
-73.500000
 20
207.500000
 11
-73.500000
 21
192.500000
  0
LINE
  8
0
 10
59.500000
 20
253.500000
 11
59.500000
 21
146.500000
  0
LINE
  8
0
 10
83.000000
 20
236.311005
 11
83.000000
 21
163.688995
  0
LINE
  8
0
 10
86.000000
 20
214.699997
 11
86.000000
 21
185.300003
  0
LINE
  8
0
 10
106.500000
 20
207.399994
 11
106.500000
 21
192.599991
  0
LINE
  8
0
 10
4.500000
 20
224.500000
 11
4.500000
 21
175.500000
  0
LINE
  8
0
 10
58.500000
 20
224.500000
 11
58.500000
 21
175.500000
  0
LINE
  8
0
 10
26.500000
 20
255.000000
 11
26.500000
 21
230.500000
  0
LINE
  8
0
 10
-4.500000
 20
242.600006
 11
-4.500000
 21
157.399994
  0
LINE
  8
0
 10
36.500000
 20
255.000000
 11
36.500000
 21
230.500000
  0
LINE
  8
0
 10
67.500000
 20
242.600006
 11
67.500000
 21
157.399994
  0
LINE
  8
0
 10
19.860462
 20
243.500000
 11
26.499992
 21
255.000000
  0
LINE
  8
0
 10
36.500023
 20
145.000015
 11
43.139553
 21
156.500015
  0
LINE
  8
0
 10
19.860462
 20
156.500000
 11
26.499992
 21
145.000000
  0
LINE
  8
0
 10
36.500023
 20
254.999985
 11
43.139553
 21
243.499985
  0
LINE
  8
0
 10
59.900002
 20
157.399994
 11
67.500000
 21
157.399994
  0
LINE
  8
0
 10
70.979607
 20
162.688995
 11
82.000000
 21
162.688995
  0
LINE
  8
0
 10
83.400002
 20
185.000000
 11
85.699997
 21
185.000000
  0
LINE
  8
0
 10
86.000000
 20
191.500000
 11
89.949997
 21
191.500000
  0
LINE
  8
0
 10
72.500000
 20
193.000000
 11
83.000000
 21
193.000000
  0
LINE
  8
0
 10
72.500000
 20
207.000000
 11
83.000000
 21
207.000000
  0
LINE
  8
0
 10
86.000000
 20
208.500000
 11
89.949997
 21
208.500000
  0
LINE
  8
0
 10
83.400002
 20
215.000000
 11
85.699997
 21
215.000000
  0
LINE
  8
0
 10
70.979607
 20
237.311005
 11
82.000000
 21
237.311005
  0
LINE
  8
0
 10
59.900002
 20
242.600006
 11
67.500000
 21
242.600006
  0
LINE
  8
0
 10
-22.699987
 20
215.000000
 11
-22.999981
 21
214.699997
  0
LINE
  8
0
 10
-23.000010
 20
185.299988
 11
-22.700012
 21
184.999985
  0
LINE
  8
0
 10
85.700027
 20
184.999985
 11
86.000031
 21
185.299973
  0
LINE
  8
0
 10
86.000023
 20
214.700027
 11
85.700027
 21
215.000031
  0
LINE
  8
0
 10
-4.500004
 20
242.600006
 11
-7.979608
 21
237.311005
  0
LINE
  8
0
 10
-7.979608
 20
162.688995
 11
-4.500004
 21
157.399994
  0
LINE
  8
0
 10
67.499992
 20
157.399994
 11
70.979599
 21
162.688995
  0
LINE
  8
0
 10
67.499992
 20
242.600006
 11
70.979599
 21
237.311005
  0
LINE
  8
0
 10
90.000000
 20
208.449997
 11
90.000000
 21
191.550003
  0
LINE
  8
0
 10
90.000000
 20
191.600006
 11
105.500000
 21
191.600006
  0
LINE
  8
0
 10
90.000000
 20
208.399994
 11
105.500000
 21
208.399994
  0
LINE
  8
0
 10
-72.500046
 20
208.500031
 11
-73.500046
 21
207.500031
  0
LINE
  8
0
 10
-73.499985
 20
192.500000
 11
-72.499985
 21
191.500000
  0
LINE
  8
0
 10
105.499985
 20
191.600021
 11
106.499985
 21
192.600006
  0
LINE
  8
0
 10
105.499947
 20
208.399948
 11
106.499947
 21
207.399948
  0
LINE
  8
0
 10
-72.500000
 20
208.500000
 11
-72.500000
 21
191.500000
  0
LINE
  8
0
 10
105.500000
 20
208.399994
 11
105.500000
 21
191.600006
  0
LINE
  8
0
 10
89.949997
 20
208.500000
 11
89.999992
 21
208.449997
  0
LINE
  8
0
 10
89.950012
 20
191.499985
 11
90.000008
 21
191.549988
  0
LINE
  8
0
  6
CENTER
 10
6.275002
 20
212.000000
 11
22.724998
 21
212.000000
  0
LINE
  8
0
  6
CENTER
 10
40.275002
 20
188.000000
 11
56.724998
 21
188.000000
  0
LINE
  8
0
  6
CENTER
 10
14.500000
 20
220.225006
 11
14.500000
 21
203.774994
  0
LINE
  8
0
  6
CENTER
 10
48.500000
 20
196.225006
 11
48.500000
 21
179.774994
  0
LINE
  8
0
 10
-9.500000
 20
226.194534
 11
-9.500000
 21
207.000000
  0
LINE
  8
0
 10
72.500000
 20
226.194534
 11
72.500000
 21
207.100342
  0
LINE
  8
0
  6
DASHED
 10
-68.500000
 20
196.111771
 11
-68.500000
 21
193.989594
  0
LINE
  8
0
  6
DASHED
 10
-32.500000
 20
196.111786
 11
-32.500000
 21
193.989594
  0
LINE
  8
0
 10
90.500000
 20
208.358505
 11
90.500000
 21
200.833893
  0
LINE
  8
0
  6
CENTER
 10
-78.500000
 20
200.000000
 11
111.500000
 21
200.000000
  0
LINE
  8
0
 10
90.500000
 20
200.833893
 11
105.500000
 21
200.833893
  0
LINE
  8
0
 10
90.500000
 20
199.166138
 11
105.500000
 21
199.166138
  0
LINE
  8
0
 10
90.500000
 20
208.358505
 11
105.500000
 21
208.358505
  0
LINE
  8
0
 10
90.500000
 20
191.641495
 11
105.500000
 21
191.641495
  0
LINE
  8
0
 10
90.500137
 20
208.358719
 11
105.500130
 21
200.834106
  0
LINE
  8
0
 10
105.499977
 20
200.833847
 11
106.499977
 21
200.388321
  0
LINE
  8
0
 10
105.500000
 20
199.166138
 11
90.499992
 21
191.641495
  0
LINE
  8
0
 10
105.500008
 20
199.166138
 11
106.500000
 21
199.611649
  0
LINE
  8
0
 10
105.500000
 20
208.358505
 11
106.500000
 21
207.389801
  0
LINE
  8
0
 10
105.500038
 20
208.358505
 11
90.500031
 21
200.833893
  0
LINE
  8
0
 10
105.500046
 20
191.641449
 11
106.500031
 21
192.610153
  0
LINE
  8
0
 10
90.499954
 20
199.166031
 11
105.499947
 21
191.641388
  0
LINE
  8
0
 10
90.500000
 20
199.166138
 11
90.500000
 21
191.641495
  0
LINE
  8
0
 10
-66.000000
 20
196.023209
 11
-35.000000
 21
196.023209
  0
LINE
  8
0
 10
-66.000000
 20
192.487671
 11
-35.000000
 21
192.487671
  0
LINE
  8
0
 10
-66.000000
 20
194.343140
 11
-35.000000
 21
194.343140
  0
LINE
  8
0
  6
DASHED
 10
-66.000000
 20
197.878677
 11
-35.000000
 21
197.878677
  0
LINE
  8
0
 10
-9.500000
 20
193.000000
 11
-9.500000
 21
173.805466
  0
LINE
  8
0
 10
72.500000
 20
192.899673
 11
72.500000
 21
173.805466
  0
LINE
  8
0
 10
26.500000
 20
169.500000
 11
26.500000
 21
145.000000
  0
LINE
  8
0
 10
36.500000
 20
169.500000
 11
36.500000
 21
145.000000
  0
LINE
  8
0
 10
19.860466
 20
243.500000
 11
19.860466
 21
230.500000
  0
LINE
  8
0
 10
43.139534
 20
243.500000
 11
43.139534
 21
230.500000
  0
LINE
  8
0
 10
19.860466
 20
169.500000
 11
19.860466
 21
156.500000
  0
LINE
  8
0
 10
43.139534
 20
169.500000
 11
43.139534
 21
156.500000
  0
LINE
  8
0
 10
-2.500000
 20
253.313477
 11
-2.500000
 21
243.686523
  0
LINE
  8
0
 10
-2.099998
 20
253.500000
 11
-2.099998
 21
243.500000
  0
LINE
  8
0
 10
-2.099998
 20
253.500000
 11
3.500000
 21
253.500000
  0
LINE
  8
0
 10
-2.099998
 20
243.500000
 11
3.500000
 21
243.500000
  0
LINE
  8
0
 10
-2.500011
 20
253.313477
 11
-2.100010
 21
253.500000
  0
LINE
  8
0
 10
-2.499994
 20
243.686523
 11
-2.099998
 21
243.500000
  0
LINE
  8
0
 10
-2.099998
 20
251.500000
 11
0.945297
 21
251.500000
  0
LINE
  8
0
 10
-2.099998
 20
249.500000
 11
-0.209404
 21
249.500000
  0
LINE
  8
0
 10
-2.099998
 20
247.500000
 11
-1.364105
 21
247.500000
  0
LINE
  8
0
 10
-2.500000
 20
156.313477
 11
-2.500000
 21
146.686523
  0
LINE
  8
0
 10
-2.099998
 20
156.500000
 11
-2.099998
 21
146.500000
  0
LINE
  8
0
 10
-2.099998
 20
156.500000
 11
3.500000
 21
156.500000
  0
LINE
  8
0
 10
-2.099998
 20
146.500000
 11
3.500000
 21
146.500000
  0
LINE
  8
0
 10
-2.500000
 20
156.313477
 11
-2.099998
 21
156.500000
  0
LINE
  8
0
 10
-2.500008
 20
146.686523
 11
-2.100010
 21
146.500000
  0
LINE
  8
0
 10
-2.099998
 20
154.500000
 11
0.945297
 21
154.500000
  0
LINE
  8
0
 10
-2.099998
 20
152.500000
 11
-0.209404
 21
152.500000
  0
LINE
  8
0
 10
-2.099998
 20
150.500000
 11
-1.364105
 21
150.500000
  0
LINE
  8
0
 10
-2.500000
 20
180.563477
 11
-2.500000
 21
170.936523
  0
LINE
  8
0
 10
-2.099998
 20
180.750000
 11
-2.099998
 21
170.750000
  0
LINE
  8
0
 10
-2.099998
 20
180.750000
 11
3.500000
 21
180.750000
  0
LINE
  8
0
 10
-2.099998
 20
170.750000
 11
3.500000
 21
170.750000
  0
LINE
  8
0
 10
-2.499998
 20
180.563477
 11
-2.099995
 21
180.750000
  0
LINE
  8
0
 10
-2.500000
 20
170.936523
 11
-2.100006
 21
170.750000
  0
LINE
  8
0
 10
-2.099998
 20
178.750000
 11
0.945297
 21
178.750000
  0
LINE
  8
0
 10
-2.099998
 20
176.750000
 11
-0.209404
 21
176.750000
  0
LINE
  8
0
 10
-2.099998
 20
174.750000
 11
-1.364105
 21
174.750000
  0
LINE
  8
0
 10
-2.500000
 20
229.063507
 11
-2.500000
 21
219.436554
  0
LINE
  8
0
 10
-2.099998
 20
229.250031
 11
-2.099998
 21
219.250031
  0
LINE
  8
0
 10
-2.099998
 20
229.250031
 11
3.500000
 21
229.250031
  0
LINE
  8
0
 10
-2.099998
 20
219.250031
 11
3.500000
 21
219.250031
  0
LINE
  8
0
 10
-2.500002
 20
229.063522
 11
-2.100008
 21
229.250046
  0
LINE
  8
0
 10
-2.499996
 20
219.436554
 11
-2.099995
 21
219.250031
  0
LINE
  8
0
 10
-2.099998
 20
227.250031
 11
0.945297
 21
227.250031
  0
LINE
  8
0
 10
-2.099998
 20
225.250031
 11
-0.209404
 21
225.250031
  0
LINE
  8
0
 10
-2.099998
 20
223.250031
 11
-1.364105
 21
223.250031
  0
ARC
  8
0
 10
5.500000
 20
224.500000
 40
1.000000
 50
90.000000
 51
180.000000
  0
ARC
  8
0
 10
5.500000
 20
175.500000
 40
1.000000
 50
180.000000
 51
270.000000
  0
ARC
  8
0
 10
57.500000
 20
175.500000
 40
1.000000
 50
270.000000
 51
0.000000
  0
ARC
  8
0
 10
57.500000
 20
224.500000
 40
1.000000
 50
0.000000
 51
90.000000
  0
ARC
  8
0
 10
4.500000
 20
229.500000
 40
1.000000
 50
90.000000
 51
180.000000
  0
ARC
  8
0
 10
4.500000
 20
170.500000
 40
1.000000
 50
180.000000
 51
270.000000
  0
ARC
  8
0
 10
58.500000
 20
170.500000
 40
1.000000
 50
270.000000
 51
0.000000
  0
ARC
  8
0
 10
58.500000
 20
229.500000
 40
1.000000
 50
0.000000
 51
90.000000
  0
ARC
  8
0
 10
5.000000
 20
253.500000
 40
1.500000
 50
90.000000
 51
180.000000
  0
ARC
  8
0
 10
5.000000
 20
146.500000
 40
1.500000
 50
180.000000
 51
270.000000
  0
ARC
  8
0
 10
58.000000
 20
146.500000
 40
1.500000
 50
270.000000
 51
0.000000
  0
ARC
  8
0
 10
58.000000
 20
253.500000
 40
1.500000
 50
0.000000
 51
90.000000
  0
ARC
  8
0
 10
3.099998
 20
243.000000
 40
0.399994
 50
270.000000
 51
0.000000
  0
ARC
  8
0
 10
3.099998
 20
157.000000
 40
0.400000
 50
0.000000
 51
90.000000
  0
ARC
  8
0
 10
59.900002
 20
157.000000
 40
0.399994
 50
90.000000
 51
180.000000
  0
ARC
  8
0
 10
59.900002
 20
243.000000
 40
0.400002
 50
180.000000
 51
270.000000
  0
ARC
  8
0
 10
-19.000000
 20
236.311005
 40
1.000000
 50
90.000000
 51
180.000000
  0
ARC
  8
0
 10
-19.000000
 20
163.688995
 40
1.000000
 50
180.000000
 51
270.000000
  0
ARC
  8
0
 10
82.000000
 20
163.688995
 40
1.000000
 50
270.000000
 51
0.000000
  0
ARC
  8
0
 10
82.000000
 20
236.311005
 40
1.000000
 50
0.000000
 51
90.000000
  0
ARC
  8
0
 10
-20.400002
 20
215.399994
 40
0.399994
 50
270.000000
 51
0.000000
  0
ARC
  8
0
 10
-20.400002
 20
184.600006
 40
0.400000
 50
0.000000
 51
90.000000
  0
ARC
  8
0
 10
83.400002
 20
215.399994
 40
0.400002
 50
180.000000
 51
270.000000
  0
ARC
  8
0
 10
83.400002
 20
184.600006
 40
0.399994
 50
90.000000
 51
180.000000
  0
CIRCLE
  8
0
 10
14.500000
 20
212.000000
 40
6.580000
  0
CIRCLE
  8
0
 10
48.500000
 20
188.000000
 40
6.580000
  0
CIRCLE
  8
0
 10
14.500000
 20
212.000000
 40
5.725000
  0
CIRCLE
  8
0
 10
48.500000
 20
188.000000
 40
5.725000
  0
POLYLINE
  8
0
 66
     1
  0
VERTEX
  8
0
 10
-66.000000
 20
192.487671
  0
VERTEX
  8
0
 10
-66.333580
 20
192.502640
  0
VERTEX
  8
0
 10
-66.619995
 20
192.534607
  0
VERTEX
  8
0
 10
-66.739304
 20
192.554657
  0
VERTEX
  8
0
 10
-66.869873
 20
192.581543
  0
VERTEX
  8
0
 10
-67.033630
 20
192.621628
  0
VERTEX
  8
0
 10
-67.210266
 20
192.675415
  0
VERTEX
  8
0
 10
-67.427254
 20
192.755539
  0
VERTEX
  8
0
 10
-67.653564
 20
192.863144
  0
VERTEX
  8
0
 10
-67.932007
 20
193.038742
  0
VERTEX
  8
0
 10
-68.165039
 20
193.238632
  0
VERTEX
  8
0
 10
-68.312355
 20
193.419128
  0
VERTEX
  8
0
 10
-68.420593
 20
193.614105
  0
VERTEX
  8
0
 10
-68.476768
 20
193.789825
  0
VERTEX
  8
0
 10
-68.500000
 20
193.989594
  0
VERTEX
  8
0
 10
-68.483818
 20
194.243637
  0
VERTEX
  8
0
 10
-68.420593
 20
194.498001
  0
VERTEX
  8
0
 10
-68.317139
 20
194.754181
  0
VERTEX
  8
0
 10
-68.165039
 20
195.006393
  0
VERTEX
  8
0
 10
-67.920021
 20
195.289368
  0
VERTEX
  8
0
 10
-67.653564
 20
195.514801
  0
VERTEX
  8
0
 10
-67.429634
 20
195.656845
  0
VERTEX
  8
0
 10
-67.210266
 20
195.768997
  0
VERTEX
  8
0
 10
-67.073151
 20
195.828705
  0
VERTEX
  8
0
 10
-66.869873
 20
195.896103
  0
VERTEX
  8
0
 10
-66.439392
 20
195.991547
  0
VERTEX
  8
0
 10
-66.000000
 20
196.023209
  0
SEQEND
  0
POLYLINE
  8
0
 66
     1
  0
VERTEX
  8
0
 10
-35.000000
 20
192.487671
  0
VERTEX
  8
0
 10
-34.666420
 20
192.502640
  0
VERTEX
  8
0
 10
-34.379997
 20
192.534607
  0
VERTEX
  8
0
 10
-34.260689
 20
192.554657
  0
VERTEX
  8
0
 10
-34.130127
 20
192.581543
  0
VERTEX
  8
0
 10
-33.966373
 20
192.621628
  0
VERTEX
  8
0
 10
-33.789742
 20
192.675415
  0
VERTEX
  8
0
 10
-33.572754
 20
192.755539
  0
VERTEX
  8
0
 10
-33.346436
 20
192.863144
  0
VERTEX
  8
0
 10
-33.067997
 20
193.038742
  0
VERTEX
  8
0
 10
-32.834969
 20
193.238632
  0
VERTEX
  8
0
 10
-32.687649
 20
193.419128
  0
VERTEX
  8
0
 10
-32.579407
 20
193.614105
  0
VERTEX
  8
0
 10
-32.523235
 20
193.789825
  0
VERTEX
  8
0
 10
-32.500000
 20
193.989594
  0
VERTEX
  8
0
 10
-32.516178
 20
194.243637
  0
VERTEX
  8
0
 10
-32.579407
 20
194.498001
  0
VERTEX
  8
0
 10
-32.682865
 20
194.754181
  0
VERTEX
  8
0
 10
-32.834969
 20
195.006393
  0
VERTEX
  8
0
 10
-33.079983
 20
195.289368
  0
VERTEX
  8
0
 10
-33.346436
 20
195.514801
  0
VERTEX
  8
0
 10
-33.570366
 20
195.656845
  0
VERTEX
  8
0
 10
-33.789742
 20
195.768997
  0
VERTEX
  8
0
 10
-33.926857
 20
195.828705
  0
VERTEX
  8
0
 10
-34.130127
 20
195.896103
  0
VERTEX
  8
0
 10
-34.560604
 20
195.991547
  0
VERTEX
  8
0
 10
-35.000000
 20
196.023209
  0
SEQEND
  0
ARC
  8
0
  6
DASHED
 10
-66.000000
 20
194.659454
 40
3.219452
 50
90.000000
 51
126.502258
  0
ARC
  8
0
  6
DASHED
 10
-66.911003
 20
195.990250
 40
1.608898
 50
128.615768
 51
164.584488
  0
ARC
  8
0
  6
DASHED
 10
-67.240181
 20
196.110916
 40
1.259820
 50
165.895508
 51
194.104492
  0
ARC
  8
0
  6
DASHED
 10
-66.911003
 20
196.231583
 40
1.608900
 50
195.415512
 51
223.605270
  0
ARC
  8
0
 10
-66.911003
 20
196.231583
 40
1.608897
 50
223.605270
 51
231.384232
  0
ARC
  8
0
 10
-66.000000
 20
197.562378
 40
3.219456
 50
233.497742
 51
270.000000
  0
ARC
  8
0
 10
-35.000000
 20
197.562378
 40
3.219452
 50
270.000000
 51
306.502319
  0
ARC
  8
0
 10
-34.088997
 20
196.231583
 40
1.608901
 50
308.615875
 51
316.394806
  0
ARC
  8
0
  6
DASHED
 10
-34.088997
 20
196.231583
 40
1.608900
 50
316.394806
 51
344.584473
  0
ARC
  8
0
  6
DASHED
 10
-33.759823
 20
196.110916
 40
1.259824
 50
345.895538
 51
14.104451
  0
ARC
  8
0
  6
DASHED
 10
-34.088997
 20
195.990250
 40
1.608900
 50
15.415514
 51
51.384129
  0
ARC
  8
0
  6
DASHED
 10
-35.000000
 20
194.659454
 40
3.219458
 50
53.497684
 51
90.727386
  0
POLYLINE
  8
0
 66
     1
  0
VERTEX
  8
0
 10
-7.979607
 20
237.311005
  0
VERTEX
  8
0
 10
-7.068415
 20
237.268311
  0
VERTEX
  8
0
 10
-6.106764
 20
237.053360
  0
VERTEX
  8
0
 10
-5.310975
 20
236.699692
  0
VERTEX
  8
0
 10
-4.897369
 20
236.240829
  0
VERTEX
  8
0
 10
-4.909736
 20
235.503860
  0
VERTEX
  8
0
 10
-5.164474
 20
234.662186
  0
VERTEX
  8
0
 10
-5.436519
 20
233.798523
  0
VERTEX
  8
0
 10
-5.715790
 20
232.946259
  0
VERTEX
  8
0
 10
-5.958991
 20
232.308655
  0
VERTEX
  8
0
 10
-6.232136
 20
231.671814
  0
VERTEX
  8
0
 10
-6.533554
 20
231.024429
  0
VERTEX
  8
0
 10
-6.878817
 20
230.329453
  0
VERTEX
  8
0
 10
-7.239450
 20
229.646072
  0
VERTEX
  8
0
 10
-7.582893
 20
229.033951
  0
VERTEX
  8
0
 10
-7.994829
 20
228.350937
  0
VERTEX
  8
0
 10
-8.442108
 20
227.661209
  0
VERTEX
  8
0
 10
-8.958512
 20
226.918640
  0
VERTEX
  8
0
 10
-9.500000
 20
226.194534
  0
SEQEND
  0
POLYLINE
  8
0
 66
     1
  0
VERTEX
  8
0
 10
70.979607
 20
237.311005
  0
VERTEX
  8
0
 10
70.068413
 20
237.268311
  0
VERTEX
  8
0
 10
69.106766
 20
237.053360
  0
VERTEX
  8
0
 10
68.310974
 20
236.699692
  0
VERTEX
  8
0
 10
67.897369
 20
236.240829
  0
VERTEX
  8
0
 10
67.909737
 20
235.503860
  0
VERTEX
  8
0
 10
68.164474
 20
234.662186
  0
VERTEX
  8
0
 10
68.436516
 20
233.798523
  0
VERTEX
  8
0
 10
68.715790
 20
232.946259
  0
VERTEX
  8
0
 10
68.958992
 20
232.308655
  0
VERTEX
  8
0
 10
69.232140
 20
231.671814
  0
VERTEX
  8
0
 10
69.533554
 20
231.024429
  0
VERTEX
  8
0
 10
69.878815
 20
230.329453
  0
VERTEX
  8
0
 10
70.239449
 20
229.646072
  0
VERTEX
  8
0
 10
70.582893
 20
229.033951
  0
VERTEX
  8
0
 10
70.994827
 20
228.350937
  0
VERTEX
  8
0
 10
71.442108
 20
227.661209
  0
VERTEX
  8
0
 10
71.958511
 20
226.918640
  0
VERTEX
  8
0
 10
72.500000
 20
226.194534
  0
SEQEND
  0
POLYLINE
  8
0
 66
     1
  0
VERTEX
  8
0
 10
-9.500000
 20
173.805466
  0
VERTEX
  8
0
 10
-8.951934
 20
173.071548
  0
VERTEX
  8
0
 10
-8.442108
 20
172.338791
  0
VERTEX
  8
0
 10
-8.021210
 20
171.692886
  0
VERTEX
  8
0
 10
-7.582893
 20
170.966049
  0
VERTEX
  8
0
 10
-7.213374
 20
170.308182
  0
VERTEX
  8
0
 10
-6.861870
 20
169.639526
  0
VERTEX
  8
0
 10
-6.533554
 20
168.975571
  0
VERTEX
  8
0
 10
-6.233881
 20
168.329269
  0
VERTEX
  8
0
 10
-5.954662
 20
167.677231
  0
VERTEX
  8
0
 10
-5.715790
 20
167.053741
  0
VERTEX
  8
0
 10
-5.438132
 20
166.205139
  0
VERTEX
  8
0
 10
-5.164474
 20
165.337814
  0
VERTEX
  8
0
 10
-4.888282
 20
164.594437
  0
VERTEX
  8
0
 10
-4.897369
 20
163.759171
  0
VERTEX
  8
0
 10
-5.339879
 20
163.204163
  0
VERTEX
  8
0
 10
-6.132456
 20
162.861191
  0
VERTEX
  8
0
 10
-7.078050
 20
162.699646
  0
VERTEX
  8
0
 10
-7.979607
 20
162.688995
  0
SEQEND
  0
POLYLINE
  8
0
 66
     1
  0
VERTEX
  8
0
 10
70.979607
 20
162.688995
  0
VERTEX
  8
0
 10
70.068413
 20
162.731689
  0
VERTEX
  8
0
 10
69.106766
 20
162.946640
  0
VERTEX
  8
0
 10
68.310974
 20
163.300308
  0
VERTEX
  8
0
 10
67.897369
 20
163.759171
  0
VERTEX
  8
0
 10
67.909737
 20
164.496140
  0
VERTEX
  8
0
 10
68.164474
 20
165.337814
  0
VERTEX
  8
0
 10
68.436516
 20
166.201477
  0
VERTEX
  8
0
 10
68.715790
 20
167.053741
  0
VERTEX
  8
0
 10
68.958992
 20
167.691345
  0
VERTEX
  8
0
 10
69.232140
 20
168.328186
  0
VERTEX
  8
0
 10
69.533554
 20
168.975571
  0
VERTEX
  8
0
 10
69.878815
 20
169.670547
  0
VERTEX
  8
0
 10
70.239449
 20
170.353928
  0
VERTEX
  8
0
 10
70.582893
 20
170.966049
  0
VERTEX
  8
0
 10
70.994827
 20
171.649063
  0
VERTEX
  8
0
 10
71.442108
 20
172.338791
  0
VERTEX
  8
0
 10
71.958511
 20
173.081360
  0
VERTEX
  8
0
 10
72.500000
 20
173.805466
  0
SEQEND
  0
POLYLINE
  8
0
 66
     1
  0
VERTEX
  8
0
 10
-11.500000
 20
193.000000
  0
VERTEX
  8
0
 10
-10.819698
 20
192.946060
  0
VERTEX
  8
0
 10
-10.135383
 20
192.951706
  0
VERTEX
  8
0
 10
-9.500000
 20
193.000000
  0
VERTEX
  8
0
 10
-8.753062
 20
193.112457
  0
VERTEX
  8
0
 10
-8.028290
 20
193.366959
  0
VERTEX
  8
0
 10
-7.273151
 20
193.911224
  0
VERTEX
  8
0
 10
-6.646713
 20
194.505295
  0
VERTEX
  8
0
 10
-6.270125
 20
194.859116
  0
VERTEX
  8
0
 10
-5.925659
 20
195.263580
  0
VERTEX
  8
0
 10
-5.639741
 20
195.816406
  0
VERTEX
  8
0
 10
-5.436844
 20
196.430405
  0
VERTEX
  8
0
 10
-5.256477
 20
197.066666
  0
VERTEX
  8
0
 10
-5.101974
 20
197.734512
  0
VERTEX
  8
0
 10
-4.978569
 20
198.532761
  0
VERTEX
  8
0
 10
-4.913162
 20
199.313156
  0
VERTEX
  8
0
 10
-4.894801
 20
199.986481
  0
VERTEX
  8
0
 10
-4.913162
 20
200.686844
  0
VERTEX
  8
0
 10
-4.982214
 20
201.495621
  0
VERTEX
  8
0
 10
-5.101974
 20
202.265488
  0
VERTEX
  8
0
 10
-5.254992
 20
202.923401
  0
VERTEX
  8
0
 10
-5.436844
 20
203.569595
  0
VERTEX
  8
0
 10
-5.645932
 20
204.189713
  0
VERTEX
  8
0
 10
-5.925659
 20
204.736420
  0
VERTEX
  8
0
 10
-6.228009
 20
205.097244
  0
VERTEX
  8
0
 10
-6.646713
 20
205.494705
  0
VERTEX
  8
0
 10
-7.307614
 20
206.121338
  0
VERTEX
  8
0
 10
-8.028290
 20
206.633041
  0
SEQEND
  0
POLYLINE
  8
0
 66
     1
  0
VERTEX
  8
0
 10
72.500198
 20
192.899643
  0
VERTEX
  8
0
 10
71.751785
 20
193.055206
  0
VERTEX
  8
0
 10
71.028290
 20
193.366959
  0
VERTEX
  8
0
 10
70.277245
 20
193.923569
  0
VERTEX
  8
0
 10
69.646713
 20
194.505295
  0
VERTEX
  8
0
 10
69.269569
 20
194.857437
  0
VERTEX
  8
0
 10
68.925659
 20
195.263580
  0
VERTEX
  8
0
 10
68.639931
 20
195.816986
  0
VERTEX
  8
0
 10
68.436844
 20
196.430405
  0
VERTEX
  8
0
 10
68.256416
 20
197.066498
  0
VERTEX
  8
0
 10
68.101974
 20
197.734512
  0
VERTEX
  8
0
 10
67.978592
 20
198.532822
  0
VERTEX
  8
0
 10
67.913162
 20
199.313156
  0
VERTEX
  8
0
 10
67.894791
 20
199.986481
  0
VERTEX
  8
0
 10
67.913162
 20
200.686844
  0
VERTEX
  8
0
 10
67.982231
 20
201.495575
  0
VERTEX
  8
0
 10
68.101974
 20
202.265488
  0
VERTEX
  8
0
 10
68.254936
 20
202.923569
  0
VERTEX
  8
0
 10
68.436844
 20
203.569595
  0
VERTEX
  8
0
 10
68.646111
 20
204.189178
  0
VERTEX
  8
0
 10
68.925659
 20
204.736420
  0
VERTEX
  8
0
 10
69.227318
 20
205.099335
  0
VERTEX
  8
0
 10
69.646713
 20
205.494705
  0
VERTEX
  8
0
 10
70.325058
 20
206.116089
  0
VERTEX
  8
0
 10
71.028290
 20
206.633041
  0
VERTEX
  8
0
 10
71.740547
 20
206.937561
  0
VERTEX
  8
0
 10
72.500191
 20
207.100357
  0
SEQEND
  0
POINT
  8
0
 10
-20.000000
 20
70.000000
  0
POINT
  8
0
 10
106.500000
 20
70.000000
  0
LINE
  8
0
 10
30.500000
 20
121.000000
 11
30.500000
 21
15.000000
  0
LINE
  8
0
 10
-72.500000
 20
78.500000
 11
-23.000000
 21
78.500000
  0
LINE
  8
0
 10
-72.500000
 20
61.500000
 11
-23.000000
 21
61.500000
  0
LINE
  8
0
 10
-22.699997
 20
85.000000
 11
-20.400002
 21
85.000000
  0
LINE
  8
0
 10
-22.699997
 20
55.000000
 11
-20.400002
 21
55.000000
  0
LINE
  8
0
 10
-4.500000
 20
112.599998
 11
-2.500000
 21
112.599998
  0
LINE
  8
0
 10
-4.500000
 20
27.400002
 11
-2.500000
 21
27.400002
  0
LINE
  8
0
 10
-19.000000
 20
112.000000
 11
-4.894737
 21
112.000000
  0
LINE
  8
0
 10
-19.000000
 20
28.000000
 11
-4.894737
 21
28.000000
  0
LINE
  8
0
 10
-20.000000
 20
94.500000
 11
-9.500000
 21
94.500000
  0
LINE
  8
0
 10
-20.000000
 20
45.500000
 11
-9.500000
 21
45.500000
  0
LINE
  8
0
 10
4.500000
 20
21.998001
 11
24.702404
 21
21.998001
  0
LINE
  8
0
 10
26.500000
 20
15.000000
 11
36.500000
 21
15.000000
  0
LINE
  8
0
 10
4.500000
 20
121.000000
 11
58.500000
 21
121.000000
  0
LINE
  8
0
 10
4.500000
 20
120.500000
 11
58.500000
 21
120.500000
  0
LINE
  8
0
 10
4.500000
 20
121.000000
 11
4.500000
 21
120.500000
  0
LINE
  8
0
 10
3.500000
 20
119.500000
 11
3.500000
 21
22.998001
  0
LINE
  8
0
 10
-20.000000
 20
111.000000
 11
-20.000000
 21
29.000000
  0
LINE
  8
0
 10
-23.000000
 20
84.699997
 11
-23.000000
 21
55.300003
  0
LINE
  8
0
 10
-73.500000
 20
77.500000
 11
-73.500000
 21
62.500000
  0
LINE
  8
0
 10
58.500000
 20
121.000000
 11
58.500000
 21
120.500000
  0
LINE
  8
0
 10
59.500000
 20
119.500000
 11
59.500000
 21
22.998001
  0
LINE
  8
0
 10
83.000000
 20
111.000000
 11
83.000000
 21
29.000000
  0
LINE
  8
0
 10
86.000000
 20
84.699997
 11
86.000000
 21
55.299995
  0
LINE
  8
0
 10
106.500000
 20
77.400002
 11
106.500000
 21
62.599998
  0
LINE
  8
0
 10
26.500000
 20
117.689560
 11
26.500000
 21
15.000000
  0
LINE
  8
0
 10
-4.500000
 20
112.599998
 11
-4.500000
 21
27.400002
  0
LINE
  8
0
 10
36.500000
 20
117.689560
 11
36.500000
 21
15.000000
  0
LINE
  8
0
 10
67.500000
 20
112.599998
 11
67.500000
 21
27.400002
  0
LINE
  8
0
 10
22.459698
 20
21.998001
 11
26.499992
 21
15.000000
  0
LINE
  8
0
 10
36.500023
 20
15.000008
 11
40.540318
 21
21.998005
  0
LINE
  8
0
 10
38.297596
 20
21.998001
 11
58.500000
 21
21.998001
  0
LINE
  8
0
 10
59.900002
 20
27.400002
 11
67.500000
 21
27.400002
  0
LINE
  8
0
 10
67.894737
 20
28.000000
 11
82.000000
 21
28.000000
  0
LINE
  8
0
 10
72.500000
 20
45.500000
 11
83.000000
 21
45.500000
  0
LINE
  8
0
 10
83.400002
 20
55.000000
 11
85.699997
 21
55.000000
  0
LINE
  8
0
 10
86.000000
 20
61.500000
 11
89.949997
 21
61.500000
  0
LINE
  8
0
 10
86.000000
 20
78.500000
 11
89.949997
 21
78.500000
  0
LINE
  8
0
 10
83.400002
 20
85.000000
 11
85.699997
 21
85.000000
  0
LINE
  8
0
 10
72.500000
 20
94.500000
 11
83.000000
 21
94.500000
  0
LINE
  8
0
 10
67.894737
 20
112.000000
 11
82.000000
 21
112.000000
  0
LINE
  8
0
 10
59.900002
 20
112.599998
 11
67.500000
 21
112.599998
  0
LINE
  8
0
 10
-22.699987
 20
84.999992
 11
-22.999981
 21
84.699997
  0
LINE
  8
0
 10
-22.699997
 20
55.000000
 11
-23.000000
 21
55.300007
  0
LINE
  8
0
 10
85.700027
 20
54.999977
 11
86.000031
 21
55.299976
  0
LINE
  8
0
 10
85.699997
 20
85.000000
 11
86.000000
 21
84.699997
  0
LINE
  8
0
 10
90.000000
 20
78.449997
 11
90.000000
 21
61.549999
  0
LINE
  8
0
 10
90.000000
 20
61.599998
 11
105.500000
 21
61.599998
  0
LINE
  8
0
 10
90.000000
 20
78.400002
 11
105.500000
 21
78.400002
  0
LINE
  8
0
 10
-73.499985
 20
77.499992
 11
-72.499985
 21
78.499992
  0
LINE
  8
0
 10
-72.499954
 20
61.500046
 11
-73.499954
 21
62.500046
  0
LINE
  8
0
 10
105.499985
 20
61.600018
 11
106.499985
 21
62.600014
  0
LINE
  8
0
 10
105.499924
 20
78.399940
 11
106.499931
 21
77.399940
  0
LINE
  8
0
 10
-72.500000
 20
78.500000
 11
-72.500000
 21
61.500000
  0
LINE
  8
0
 10
105.500000
 20
78.400002
 11
105.500000
 21
61.599998
  0
LINE
  8
0
 10
90.000008
 20
78.450012
 11
89.950012
 21
78.500015
  0
LINE
  8
0
 10
89.950012
 20
61.499985
 11
90.000008
 21
61.549984
  0
LINE
  8
0
 10
-4.500008
 20
112.599991
 11
-4.894738
 21
112.000000
  0
LINE
  8
0
 10
-4.500008
 20
27.400009
 11
-4.894738
 21
28.000000
  0
LINE
  8
0
 10
67.499992
 20
27.400002
 11
67.894730
 21
28.000000
  0
LINE
  8
0
 10
67.499992
 20
112.599998
 11
67.894730
 21
112.000000
  0
LINE
  8
0
 10
90.500000
 20
78.358505
 11
90.500000
 21
70.833893
  0
LINE
  8
0
  6
CENTER
 10
-78.500000
 20
70.000000
 11
111.500000
 21
70.000000
  0
LINE
  8
0
 10
90.500000
 20
70.833893
 11
105.500000
 21
70.833893
  0
LINE
  8
0
 10
90.500000
 20
69.166138
 11
105.500000
 21
69.166138
  0
LINE
  8
0
 10
90.500000
 20
78.358505
 11
105.500000
 21
78.358505
  0
LINE
  8
0
 10
90.500000
 20
61.641495
 11
105.500000
 21
61.641495
  0
LINE
  8
0
 10
90.500069
 20
78.358597
 11
105.500069
 21
70.833984
  0
LINE
  8
0
 10
105.500000
 20
70.833878
 11
106.500000
 21
70.388359
  0
LINE
  8
0
 10
105.499985
 20
69.166138
 11
90.499985
 21
61.641499
  0
LINE
  8
0
 10
105.500008
 20
69.166145
 11
106.500000
 21
69.611649
  0
LINE
  8
0
 10
105.499992
 20
78.358490
 11
106.499992
 21
77.389786
  0
LINE
  8
0
 10
105.500046
 20
78.358467
 11
90.500038
 21
70.833847
  0
LINE
  8
0
 10
105.500046
 20
61.641457
 11
106.500046
 21
62.610161
  0
LINE
  8
0
 10
90.499985
 20
69.166122
 11
105.499992
 21
61.641476
  0
LINE
  8
0
 10
90.500000
 20
69.166138
 11
90.500000
 21
61.641495
  0
LINE
  8
0
  6
DASHED
 10
-68.500000
 20
73.888229
 11
-68.500000
 21
76.010406
  0
LINE
  8
0
  6
DASHED
 10
-32.500000
 20
73.888214
 11
-32.500000
 21
76.010406
  0
LINE
  8
0
 10
-66.000000
 20
73.976791
 11
-35.000000
 21
73.976791
  0
LINE
  8
0
 10
-66.000000
 20
77.512329
 11
-35.000000
 21
77.512329
  0
LINE
  8
0
 10
-66.000000
 20
75.656860
 11
-35.000000
 21
75.656860
  0
LINE
  8
0
  6
DASHED
 10
-66.000000
 20
72.121323
 11
-35.000000
 21
72.121323
  0
LINE
  8
0
 10
26.500000
 20
117.689560
 11
36.500000
 21
117.689560
  0
LINE
  8
0
 10
3.500000
 20
105.512192
 11
19.860466
 21
105.512192
  0
LINE
  8
0
 10
3.500000
 20
78.593849
 11
19.860466
 21
78.593849
  0
LINE
  8
0
 10
3.500000
 20
61.406151
 11
19.860466
 21
61.406151
  0
LINE
  8
0
 10
43.139530
 20
78.593849
 11
59.500000
 21
78.593849
  0
LINE
  8
0
 10
43.139530
 20
61.406151
 11
59.500000
 21
61.406151
  0
LINE
  8
0
 10
19.860466
 20
105.512192
 11
19.860466
 21
78.593849
  0
LINE
  8
0
 10
43.139530
 20
105.512192
 11
43.139530
 21
78.593849
  0
LINE
  8
0
 10
26.499996
 20
117.689560
 11
19.860466
 21
105.512192
  0
LINE
  8
0
 10
36.500000
 20
117.689575
 11
43.139526
 21
105.512207
  0
LINE
  8
0
 10
43.139530
 20
61.406151
 11
43.139530
 21
26.500000
  0
LINE
  8
0
 10
19.860466
 20
61.406151
 11
19.860466
 21
26.500000
  0
LINE
  8
0
 10
43.139530
 20
105.512192
 11
59.500000
 21
105.512192
  0
LINE
  8
0
 10
-9.500000
 20
104.291672
 11
-9.500000
 21
94.500000
  0
LINE
  8
0
 10
72.500000
 20
104.291672
 11
72.500000
 21
94.500000
  0
LINE
  8
0
 10
-9.500000
 20
81.118164
 11
-9.500000
 21
58.881836
  0
LINE
  8
0
 10
-9.500000
 20
45.500000
 11
-9.500000
 21
35.708332
  0
LINE
  8
0
 10
72.500000
 20
81.118164
 11
72.500000
 21
58.881836
  0
LINE
  8
0
 10
72.500000
 20
45.500000
 11
72.500000
 21
35.708332
  0
LINE
  8
0
 10
-2.500000
 20
116.815704
 11
-2.500000
 21
107.188751
  0
LINE
  8
0
 10
-2.099998
 20
117.002228
 11
-2.099998
 21
107.002228
  0
LINE
  8
0
 10
-2.099998
 20
117.002228
 11
3.500000
 21
117.002228
  0
LINE
  8
0
 10
-2.099998
 20
107.002228
 11
3.500000
 21
107.002228
  0
LINE
  8
0
 10
-2.499996
 20
116.815720
 11
-2.099995
 21
117.002243
  0
LINE
  8
0
 10
-2.499998
 20
107.188759
 11
-2.099997
 21
107.002235
  0
LINE
  8
0
 10
-2.099998
 20
115.002228
 11
0.945297
 21
115.002228
  0
LINE
  8
0
 10
-2.099998
 20
113.002228
 11
-0.209404
 21
113.002228
  0
LINE
  8
0
 10
-2.099998
 20
111.002228
 11
-1.364105
 21
111.002228
  0
LINE
  8
0
 10
-2.500000
 20
74.813477
 11
-2.500000
 21
65.186523
  0
LINE
  8
0
 10
-2.099998
 20
75.000000
 11
-2.099998
 21
65.000000
  0
LINE
  8
0
 10
-2.099998
 20
75.000000
 11
3.500000
 21
75.000000
  0
LINE
  8
0
 10
-2.099998
 20
65.000000
 11
3.500000
 21
65.000000
  0
LINE
  8
0
 10
-2.500011
 20
74.813477
 11
-2.100010
 21
75.000000
  0
LINE
  8
0
 10
-2.500011
 20
65.186523
 11
-2.100010
 21
65.000000
  0
LINE
  8
0
 10
-2.099998
 20
73.000000
 11
0.945297
 21
73.000000
  0
LINE
  8
0
 10
-2.099998
 20
71.000000
 11
-0.209404
 21
71.000000
  0
LINE
  8
0
 10
-2.099998
 20
69.000000
 11
-1.364105
 21
69.000000
  0
LINE
  8
0
 10
-2.500000
 20
32.811230
 11
-2.500000
 21
23.184277
  0
LINE
  8
0
 10
-2.099998
 20
32.997753
 11
-2.099998
 21
22.997753
  0
LINE
  8
0
 10
-2.099998
 20
32.997753
 11
3.500000
 21
32.997753
  0
LINE
  8
0
 10
-2.099998
 20
22.997753
 11
3.500000
 21
22.997753
  0
LINE
  8
0
 10
-2.499992
 20
32.811234
 11
-2.099991
 21
32.997757
  0
LINE
  8
0
 10
-2.499998
 20
23.184277
 11
-2.100000
 21
22.997757
  0
LINE
  8
0
 10
-2.099998
 20
30.997753
 11
0.945297
 21
30.997753
  0
LINE
  8
0
 10
-2.099998
 20
28.997753
 11
-0.209404
 21
28.997753
  0
LINE
  8
0
 10
-2.099998
 20
26.997753
 11
-1.364105
 21
26.997753
  0
ARC
  8
0
 10
4.500000
 20
119.500000
 40
1.000000
 50
90.000000
 51
180.000000
  0
ARC
  8
0
 10
4.500000
 20
22.998001
 40
1.000000
 50
180.000000
 51
270.000000
  0
ARC
  8
0
 10
58.500000
 20
22.998001
 40
1.000000
 50
270.000000
 51
0.000000
  0
ARC
  8
0
 10
58.500000
 20
119.500000
 40
1.000000
 50
0.000000
 51
90.000000
  0
ARC
  8
0
 10
59.900002
 20
27.000000
 40
0.400002
 50
90.000000
 51
180.000000
  0
ARC
  8
0
 10
59.900002
 20
113.000000
 40
0.400002
 50
180.000000
 51
270.000000
  0
ARC
  8
0
 10
-19.000000
 20
111.000000
 40
1.000000
 50
90.000000
 51
180.000000
  0
ARC
  8
0
 10
-19.000000
 20
29.000000
 40
1.000000
 50
180.000000
 51
270.000000
  0
ARC
  8
0
 10
82.000000
 20
29.000000
 40
1.000000
 50
270.000000
 51
0.000000
  0
ARC
  8
0
 10
82.000000
 20
111.000000
 40
1.000000
 50
0.000000
 51
90.000000
  0
ARC
  8
0
 10
-20.400002
 20
54.599998
 40
0.400000
 50
0.000000
 51
90.000000
  0
ARC
  8
0
 10
83.400002
 20
54.599998
 40
0.400002
 50
90.000000
 51
180.000000
  0
ARC
  8
0
 10
83.400002
 20
85.400002
 40
0.400002
 50
180.000000
 51
270.000000
  0
ARC
  8
0
 10
-20.400002
 20
85.400002
 40
0.400002
 50
270.000000
 51
0.000000
  0
ARC
  8
0
 10
24.702404
 20
22.297939
 40
0.299999
 50
270.000000
 51
46.247826
  0
ARC
  8
0
 10
38.297596
 20
22.297939
 40
0.300000
 50
133.751144
 51
270.000000
  0
ARC
  8
0
  6
DASHED
 10
-35.000000
 20
75.340546
 40
3.219467
 50
269.272614
 51
306.502228
  0
ARC
  8
0
  6
DASHED
 10
-34.088997
 20
74.009743
 40
1.608901
 50
308.615875
 51
344.584747
  0
ARC
  8
0
  6
DASHED
 10
-33.759823
 20
73.889084
 40
1.259824
 50
345.895538
 51
14.104451
  0
ARC
  8
0
  6
DASHED
 10
-34.088997
 20
73.768425
 40
1.608898
 50
15.415253
 51
43.604984
  0
POLYLINE
  8
0
 66
     1
  0
VERTEX
  8
0
 10
-35.000000
 20
77.512329
  0
VERTEX
  8
0
 10
-34.666420
 20
77.497360
  0
VERTEX
  8
0
 10
-34.379997
 20
77.465393
  0
VERTEX
  8
0
 10
-34.260689
 20
77.445335
  0
VERTEX
  8
0
 10
-34.130127
 20
77.418457
  0
VERTEX
  8
0
 10
-33.966373
 20
77.378372
  0
VERTEX
  8
0
 10
-33.789742
 20
77.324585
  0
VERTEX
  8
0
 10
-33.572754
 20
77.244469
  0
VERTEX
  8
0
 10
-33.346436
 20
77.136856
  0
VERTEX
  8
0
 10
-33.067997
 20
76.961258
  0
VERTEX
  8
0
 10
-32.834969
 20
76.761368
  0
VERTEX
  8
0
 10
-32.687649
 20
76.580879
  0
VERTEX
  8
0
 10
-32.579407
 20
76.385895
  0
VERTEX
  8
0
 10
-32.523235
 20
76.210182
  0
VERTEX
  8
0
 10
-32.500000
 20
76.010406
  0
VERTEX
  8
0
 10
-32.516178
 20
75.756363
  0
VERTEX
  8
0
 10
-32.579407
 20
75.501999
  0
VERTEX
  8
0
 10
-32.682865
 20
75.245827
  0
VERTEX
  8
0
 10
-32.834969
 20
74.993607
  0
VERTEX
  8
0
 10
-33.079983
 20
74.710632
  0
VERTEX
  8
0
 10
-33.346436
 20
74.485199
  0
VERTEX
  8
0
 10
-33.570366
 20
74.343147
  0
VERTEX
  8
0
 10
-33.789742
 20
74.231003
  0
VERTEX
  8
0
 10
-33.926857
 20
74.171288
  0
VERTEX
  8
0
 10
-34.130127
 20
74.103897
  0
VERTEX
  8
0
 10
-34.560604
 20
74.008461
  0
VERTEX
  8
0
 10
-35.000000
 20
73.976791
  0
SEQEND
  0
ARC
  8
0
 10
-34.088997
 20
73.768425
 40
1.608895
 50
43.604984
 51
51.384129
  0
ARC
  8
0
 10
-35.000000
 20
72.437622
 40
3.219464
 50
53.497765
 51
90.000000
  0
ARC
  8
0
  6
DASHED
 10
-66.911003
 20
73.768425
 40
1.608898
 50
136.395111
 51
164.584747
  0
ARC
  8
0
  6
DASHED
 10
-67.240181
 20
73.889084
 40
1.259820
 50
165.895508
 51
194.104492
  0
ARC
  8
0
  6
DASHED
 10
-66.911003
 20
74.009743
 40
1.608898
 50
195.415253
 51
231.384232
  0
ARC
  8
0
  6
DASHED
 10
-66.000000
 20
75.340546
 40
3.219462
 50
233.497818
 51
270.000000
  0
ARC
  8
0
 10
-66.000000
 20
72.437622
 40
3.219460
 50
90.000000
 51
126.502182
  0
ARC
  8
0
 10
-66.911003
 20
73.768425
 40
1.608898
 50
128.615768
 51
136.395111
  0
POLYLINE
  8
0
 66
     1
  0
VERTEX
  8
0
 10
-66.000000
 20
77.512329
  0
VERTEX
  8
0
 10
-66.333580
 20
77.497360
  0
VERTEX
  8
0
 10
-66.619995
 20
77.465393
  0
VERTEX
  8
0
 10
-66.739304
 20
77.445335
  0
VERTEX
  8
0
 10
-66.869873
 20
77.418457
  0
VERTEX
  8
0
 10
-67.033630
 20
77.378372
  0
VERTEX
  8
0
 10
-67.210266
 20
77.324585
  0
VERTEX
  8
0
 10
-67.427254
 20
77.244469
  0
VERTEX
  8
0
 10
-67.653564
 20
77.136856
  0
VERTEX
  8
0
 10
-67.932007
 20
76.961258
  0
VERTEX
  8
0
 10
-68.165039
 20
76.761368
  0
VERTEX
  8
0
 10
-68.312355
 20
76.580879
  0
VERTEX
  8
0
 10
-68.420593
 20
76.385895
  0
VERTEX
  8
0
 10
-68.476768
 20
76.210182
  0
VERTEX
  8
0
 10
-68.500000
 20
76.010406
  0
VERTEX
  8
0
 10
-68.483818
 20
75.756363
  0
VERTEX
  8
0
 10
-68.420593
 20
75.501999
  0
VERTEX
  8
0
 10
-68.317139
 20
75.245827
  0
VERTEX
  8
0
 10
-68.165039
 20
74.993607
  0
VERTEX
  8
0
 10
-67.920021
 20
74.710632
  0
VERTEX
  8
0
 10
-67.653564
 20
74.485199
  0
VERTEX
  8
0
 10
-67.429634
 20
74.343147
  0
VERTEX
  8
0
 10
-67.210266
 20
74.231003
  0
VERTEX
  8
0
 10
-67.073151
 20
74.171288
  0
VERTEX
  8
0
 10
-66.869873
 20
74.103897
  0
VERTEX
  8
0
 10
-66.439392
 20
74.008461
  0
VERTEX
  8
0
 10
-66.000000
 20
73.976791
  0
SEQEND
  0
POLYLINE
  8
0
 66
     1
  0
VERTEX
  8
0
 10
43.139530
 20
78.593849
  0
VERTEX
  8
0
 10
42.419903
 20
78.054413
  0
VERTEX
  8
0
 10
41.693241
 20
77.524429
  0
VERTEX
  8
0
 10
40.999290
 20
77.033432
  0
VERTEX
  8
0
 10
40.354435
 20
76.592117
  0
VERTEX
  8
0
 10
39.704922
 20
76.155991
  0
VERTEX
  8
0
 10
39.163315
 20
75.795555
  0
VERTEX
  8
0
 10
38.773861
 20
75.536118
  0
VERTEX
  8
0
 10
38.361378
 20
75.187630
  0
VERTEX
  8
0
 10
37.867180
 20
74.554611
  0
VERTEX
  8
0
 10
37.494774
 20
73.803276
  0
VERTEX
  8
0
 10
37.194714
 20
72.965111
  0
VERTEX
  8
0
 10
36.979202
 20
72.072838
  0
VERTEX
  8
0
 10
36.871639
 20
71.387924
  0
VERTEX
  8
0
 10
36.808987
 20
70.695770
  0
VERTEX
  8
0
 10
36.788673
 20
70.000000
  0
VERTEX
  8
0
 10
36.810913
 20
69.294212
  0
VERTEX
  8
0
 10
36.875496
 20
68.592041
  0
VERTEX
  8
0
 10
36.979202
 20
67.927162
  0
VERTEX
  8
0
 10
37.195663
 20
67.041718
  0
VERTEX
  8
0
 10
37.494774
 20
66.196724
  0
VERTEX
  8
0
 10
37.890762
 20
65.428246
  0
VERTEX
  8
0
 10
38.361378
 20
64.812370
  0
VERTEX
  8
0
 10
38.682758
 20
64.533173
  0
VERTEX
  8
0
 10
39.163315
 20
64.204445
  0
VERTEX
  8
0
 10
39.766773
 20
63.803310
  0
VERTEX
  8
0
 10
40.365582
 20
63.401279
  0
VERTEX
  8
0
 10
40.999290
 20
62.966568
  0
VERTEX
  8
0
 10
41.719616
 20
62.457249
  0
VERTEX
  8
0
 10
42.433086
 20
61.936420
  0
VERTEX
  8
0
 10
43.139530
 20
61.406151
  0
SEQEND
  0
POLYLINE
  8
0
 66
     1
  0
VERTEX
  8
0
 10
19.860470
 20
78.593849
  0
VERTEX
  8
0
 10
20.580099
 20
78.054413
  0
VERTEX
  8
0
 10
21.306759
 20
77.524429
  0
VERTEX
  8
0
 10
22.000710
 20
77.033432
  0
VERTEX
  8
0
 10
22.645565
 20
76.592117
  0
VERTEX
  8
0
 10
23.295076
 20
76.155991
  0
VERTEX
  8
0
 10
23.836685
 20
75.795555
  0
VERTEX
  8
0
 10
24.226141
 20
75.536118
  0
VERTEX
  8
0
 10
24.638622
 20
75.187630
  0
VERTEX
  8
0
 10
25.132818
 20
74.554611
  0
VERTEX
  8
0
 10
25.505226
 20
73.803276
  0
VERTEX
  8
0
 10
25.805288
 20
72.965111
  0
VERTEX
  8
0
 10
26.020798
 20
72.072838
  0
VERTEX
  8
0
 10
26.128361
 20
71.387924
  0
VERTEX
  8
0
 10
26.191013
 20
70.695770
  0
VERTEX
  8
0
 10
26.211327
 20
70.000000
  0
VERTEX
  8
0
 10
26.189085
 20
69.294212
  0
VERTEX
  8
0
 10
26.124504
 20
68.592041
  0
VERTEX
  8
0
 10
26.020798
 20
67.927162
  0
VERTEX
  8
0
 10
25.804335
 20
67.041718
  0
VERTEX
  8
0
 10
25.505226
 20
66.196724
  0
VERTEX
  8
0
 10
25.109236
 20
65.428246
  0
VERTEX
  8
0
 10
24.638622
 20
64.812370
  0
VERTEX
  8
0
 10
24.317242
 20
64.533173
  0
VERTEX
  8
0
 10
23.836685
 20
64.204445
  0
VERTEX
  8
0
 10
23.233227
 20
63.803310
  0
VERTEX
  8
0
 10
22.634420
 20
63.401279
  0
VERTEX
  8
0
 10
22.000710
 20
62.966568
  0
VERTEX
  8
0
 10
21.280386
 20
62.457249
  0
VERTEX
  8
0
 10
20.566912
 20
61.936420
  0
VERTEX
  8
0
 10
19.860470
 20
61.406151
  0
SEQEND
  0
POLYLINE
  8
0
 66
     1
  0
VERTEX
  8
0
 10
19.860470
 20
78.593849
  0
VERTEX
  8
0
 10
20.580099
 20
78.054413
  0
VERTEX
  8
0
 10
21.306759
 20
77.524429
  0
VERTEX
  8
0
 10
22.000710
 20
77.033432
  0
VERTEX
  8
0
 10
22.645565
 20
76.592117
  0
VERTEX
  8
0
 10
23.295076
 20
76.155991
  0
VERTEX
  8
0
 10
23.836685
 20
75.795555
  0
VERTEX
  8
0
 10
24.226141
 20
75.536118
  0
VERTEX
  8
0
 10
24.638622
 20
75.187630
  0
VERTEX
  8
0
 10
25.132818
 20
74.554611
  0
VERTEX
  8
0
 10
25.505226
 20
73.803276
  0
VERTEX
  8
0
 10
25.805288
 20
72.965111
  0
VERTEX
  8
0
 10
26.020798
 20
72.072838
  0
VERTEX
  8
0
 10
26.128361
 20
71.387924
  0
VERTEX
  8
0
 10
26.191013
 20
70.695770
  0
VERTEX
  8
0
 10
26.211327
 20
70.000000
  0
VERTEX
  8
0
 10
26.189085
 20
69.294212
  0
VERTEX
  8
0
 10
26.124504
 20
68.592041
  0
VERTEX
  8
0
 10
26.020798
 20
67.927162
  0
VERTEX
  8
0
 10
25.804335
 20
67.041718
  0
VERTEX
  8
0
 10
25.505226
 20
66.196724
  0
VERTEX
  8
0
 10
25.109236
 20
65.428246
  0
VERTEX
  8
0
 10
24.638622
 20
64.812370
  0
VERTEX
  8
0
 10
24.317242
 20
64.533173
  0
VERTEX
  8
0
 10
23.836685
 20
64.204445
  0
VERTEX
  8
0
 10
23.233227
 20
63.803310
  0
VERTEX
  8
0
 10
22.634420
 20
63.401279
  0
VERTEX
  8
0
 10
22.000710
 20
62.966568
  0
VERTEX
  8
0
 10
21.280386
 20
62.457249
  0
VERTEX
  8
0
 10
20.566912
 20
61.936420
  0
VERTEX
  8
0
 10
19.860470
 20
61.406151
  0
SEQEND
  0
POLYLINE
  8
0
 66
     1
  0
VERTEX
  8
0
 10
43.139530
 20
78.593849
  0
VERTEX
  8
0
 10
42.419903
 20
78.054413
  0
VERTEX
  8
0
 10
41.693241
 20
77.524429
  0
VERTEX
  8
0
 10
40.999290
 20
77.033432
  0
VERTEX
  8
0
 10
40.354435
 20
76.592117
  0
VERTEX
  8
0
 10
39.704922
 20
76.155991
  0
VERTEX
  8
0
 10
39.163315
 20
75.795555
  0
VERTEX
  8
0
 10
38.773861
 20
75.536118
  0
VERTEX
  8
0
 10
38.361378
 20
75.187630
  0
VERTEX
  8
0
 10
37.867180
 20
74.554611
  0
VERTEX
  8
0
 10
37.494774
 20
73.803276
  0
VERTEX
  8
0
 10
37.194714
 20
72.965111
  0
VERTEX
  8
0
 10
36.979202
 20
72.072838
  0
VERTEX
  8
0
 10
36.871639
 20
71.387924
  0
VERTEX
  8
0
 10
36.808987
 20
70.695770
  0
VERTEX
  8
0
 10
36.788673
 20
70.000000
  0
VERTEX
  8
0
 10
36.810913
 20
69.294212
  0
VERTEX
  8
0
 10
36.875496
 20
68.592041
  0
VERTEX
  8
0
 10
36.979202
 20
67.927162
  0
VERTEX
  8
0
 10
37.195663
 20
67.041718
  0
VERTEX
  8
0
 10
37.494774
 20
66.196724
  0
VERTEX
  8
0
 10
37.890762
 20
65.428246
  0
VERTEX
  8
0
 10
38.361378
 20
64.812370
  0
VERTEX
  8
0
 10
38.682758
 20
64.533173
  0
VERTEX
  8
0
 10
39.163315
 20
64.204445
  0
VERTEX
  8
0
 10
39.766773
 20
63.803310
  0
VERTEX
  8
0
 10
40.365582
 20
63.401279
  0
VERTEX
  8
0
 10
40.999290
 20
62.966568
  0
VERTEX
  8
0
 10
41.719616
 20
62.457249
  0
VERTEX
  8
0
 10
42.433086
 20
61.936420
  0
VERTEX
  8
0
 10
43.139530
 20
61.406151
  0
SEQEND
  0
POLYLINE
  8
0
 66
     1
  0
VERTEX
  8
0
 10
-9.500000
 20
94.500000
  0
VERTEX
  8
0
 10
-8.479396
 20
94.445961
  0
VERTEX
  8
0
 10
-7.394319
 20
94.202606
  0
VERTEX
  8
0
 10
-6.379741
 20
93.813583
  0
VERTEX
  8
0
 10
-5.570635
 20
93.322510
  0
VERTEX
  8
0
 10
-5.101974
 20
92.773033
  0
VERTEX
  8
0
 10
-4.900393
 20
91.931931
  0
VERTEX
  8
0
 10
-4.894737
 20
90.981934
  0
VERTEX
  8
0
 10
-4.933159
 20
90.303993
  0
VERTEX
  8
0
 10
-4.997815
 20
89.643410
  0
VERTEX
  8
0
 10
-5.101974
 20
88.934959
  0
VERTEX
  8
0
 10
-5.263698
 20
88.116234
  0
VERTEX
  8
0
 10
-5.474414
 20
87.302307
  0
VERTEX
  8
0
 10
-5.750656
 20
86.440216
  0
VERTEX
  8
0
 10
-6.023037
 20
85.710594
  0
VERTEX
  8
0
 10
-6.332122
 20
85.003273
  0
VERTEX
  8
0
 10
-6.691757
 20
84.310776
  0
VERTEX
  8
0
 10
-7.115791
 20
83.625626
  0
VERTEX
  8
0
 10
-7.632101
 20
82.928673
  0
VERTEX
  8
0
 10
-8.207239
 20
82.276550
  0
VERTEX
  8
0
 10
-8.832705
 20
81.672096
  0
VERTEX
  8
0
 10
-9.500000
 20
81.118164
  0
SEQEND
  0
POLYLINE
  8
0
 66
     1
  0
VERTEX
  8
0
 10
-9.500000
 20
45.500000
  0
VERTEX
  8
0
 10
-8.479396
 20
45.554039
  0
VERTEX
  8
0
 10
-7.394319
 20
45.797390
  0
VERTEX
  8
0
 10
-6.379741
 20
46.186417
  0
VERTEX
  8
0
 10
-5.570635
 20
46.677486
  0
VERTEX
  8
0
 10
-5.101974
 20
47.226967
  0
VERTEX
  8
0
 10
-4.900393
 20
48.068073
  0
VERTEX
  8
0
 10
-4.894737
 20
49.018070
  0
VERTEX
  8
0
 10
-4.933159
 20
49.696011
  0
VERTEX
  8
0
 10
-4.997815
 20
50.356590
  0
VERTEX
  8
0
 10
-5.101974
 20
51.065041
  0
VERTEX
  8
0
 10
-5.263698
 20
51.883770
  0
VERTEX
  8
0
 10
-5.474414
 20
52.697701
  0
VERTEX
  8
0
 10
-5.750656
 20
53.559788
  0
VERTEX
  8
0
 10
-6.023037
 20
54.289406
  0
VERTEX
  8
0
 10
-6.332122
 20
54.996727
  0
VERTEX
  8
0
 10
-6.691758
 20
55.689224
  0
VERTEX
  8
0
 10
-7.115791
 20
56.374374
  0
VERTEX
  8
0
 10
-7.632101
 20
57.071327
  0
VERTEX
  8
0
 10
-8.207239
 20
57.723450
  0
VERTEX
  8
0
 10
-8.832705
 20
58.327900
  0
VERTEX
  8
0
 10
-9.500000
 20
58.881836
  0
SEQEND
  0
POLYLINE
  8
0
 66
     1
  0
VERTEX
  8
0
 10
72.500000
 20
94.500000
  0
VERTEX
  8
0
 10
71.479393
 20
94.445961
  0
VERTEX
  8
0
 10
70.394318
 20
94.202606
  0
VERTEX
  8
0
 10
69.379738
 20
93.813583
  0
VERTEX
  8
0
 10
68.570633
 20
93.322510
  0
VERTEX
  8
0
 10
68.101974
 20
92.773033
  0
VERTEX
  8
0
 10
67.900391
 20
91.931931
  0
VERTEX
  8
0
 10
67.894737
 20
90.981934
  0
VERTEX
  8
0
 10
67.933159
 20
90.303993
  0
VERTEX
  8
0
 10
67.997818
 20
89.643410
  0
VERTEX
  8
0
 10
68.101974
 20
88.934959
  0
VERTEX
  8
0
 10
68.263695
 20
88.116234
  0
VERTEX
  8
0
 10
68.474411
 20
87.302307
  0
VERTEX
  8
0
 10
68.750656
 20
86.440216
  0
VERTEX
  8
0
 10
69.023041
 20
85.710594
  0
VERTEX
  8
0
 10
69.332123
 20
85.003273
  0
VERTEX
  8
0
 10
69.691757
 20
84.310776
  0
VERTEX
  8
0
 10
70.115791
 20
83.625626
  0
VERTEX
  8
0
 10
70.632103
 20
82.928673
  0
VERTEX
  8
0
 10
71.207237
 20
82.276550
  0
VERTEX
  8
0
 10
71.832703
 20
81.672096
  0
VERTEX
  8
0
 10
72.500000
 20
81.118164
  0
SEQEND
  0
POLYLINE
  8
0
 66
     1
  0
VERTEX
  8
0
 10
72.500000
 20
45.500000
  0
VERTEX
  8
0
 10
71.479393
 20
45.554039
  0
VERTEX
  8
0
 10
70.394318
 20
45.797390
  0
VERTEX
  8
0
 10
69.379738
 20
46.186417
  0
VERTEX
  8
0
 10
68.570633
 20
46.677486
  0
VERTEX
  8
0
 10
68.101974
 20
47.226967
  0
VERTEX
  8
0
 10
67.900391
 20
48.068073
  0
VERTEX
  8
0
 10
67.894737
 20
49.018070
  0
VERTEX
  8
0
 10
67.933159
 20
49.696011
  0
VERTEX
  8
0
 10
67.997818
 20
50.356590
  0
VERTEX
  8
0
 10
68.101974
 20
51.065041
  0
VERTEX
  8
0
 10
68.263695
 20
51.883770
  0
VERTEX
  8
0
 10
68.474411
 20
52.697701
  0
VERTEX
  8
0
 10
68.750656
 20
53.559788
  0
VERTEX
  8
0
 10
69.023033
 20
54.289406
  0
VERTEX
  8
0
 10
69.332123
 20
54.996727
  0
VERTEX
  8
0
 10
69.691757
 20
55.689224
  0
VERTEX
  8
0
 10
70.115791
 20
56.374374
  0
VERTEX
  8
0
 10
70.632103
 20
57.071327
  0
VERTEX
  8
0
 10
71.207237
 20
57.723450
  0
VERTEX
  8
0
 10
71.832703
 20
58.327900
  0
VERTEX
  8
0
 10
72.500000
 20
58.881836
  0
SEQEND
  0
POLYLINE
  8
0
 66
     1
  0
VERTEX
  8
0
 10
-4.894737
 20
112.000000
  0
VERTEX
  8
0
 10
-5.064043
 20
111.691544
  0
VERTEX
  8
0
 10
-5.267761
 20
111.323715
  0
VERTEX
  8
0
 10
-5.567093
 20
110.787880
  0
VERTEX
  8
0
 10
-5.915787
 20
110.172295
  0
VERTEX
  8
0
 10
-6.251386
 20
109.586044
  0
VERTEX
  8
0
 10
-6.590247
 20
109.001671
  0
VERTEX
  8
0
 10
-6.955261
 20
108.381195
  0
VERTEX
  8
0
 10
-7.380021
 20
107.670464
  0
VERTEX
  8
0
 10
-7.810109
 20
106.962936
  0
VERTEX
  8
0
 10
-8.238159
 20
106.270248
  0
VERTEX
  8
0
 10
-8.654158
 20
105.607780
  0
VERTEX
  8
0
 10
-9.074771
 20
104.948235
  0
VERTEX
  8
0
 10
-9.500000
 20
104.291672
  0
SEQEND
  0
POLYLINE
  8
0
 66
     1
  0
VERTEX
  8
0
 10
-4.894737
 20
28.000000
  0
VERTEX
  8
0
 10
-5.064043
 20
28.308453
  0
VERTEX
  8
0
 10
-5.267761
 20
28.676285
  0
VERTEX
  8
0
 10
-5.567093
 20
29.212122
  0
VERTEX
  8
0
 10
-5.915787
 20
29.827705
  0
VERTEX
  8
0
 10
-6.251386
 20
30.413958
  0
VERTEX
  8
0
 10
-6.590247
 20
30.998329
  0
VERTEX
  8
0
 10
-6.955261
 20
31.618805
  0
VERTEX
  8
0
 10
-7.380021
 20
32.329536
  0
VERTEX
  8
0
 10
-7.810109
 20
33.037064
  0
VERTEX
  8
0
 10
-8.238159
 20
33.729748
  0
VERTEX
  8
0
 10
-8.654158
 20
34.392220
  0
VERTEX
  8
0
 10
-9.074771
 20
35.051765
  0
VERTEX
  8
0
 10
-9.500000
 20
35.708332
  0
SEQEND
  0
POLYLINE
  8
0
 66
     1
  0
VERTEX
  8
0
 10
67.894737
 20
112.000000
  0
VERTEX
  8
0
 10
68.064041
 20
111.691544
  0
VERTEX
  8
0
 10
68.267761
 20
111.323715
  0
VERTEX
  8
0
 10
68.567093
 20
110.787880
  0
VERTEX
  8
0
 10
68.915787
 20
110.172295
  0
VERTEX
  8
0
 10
69.251389
 20
109.586044
  0
VERTEX
  8
0
 10
69.590248
 20
109.001671
  0
VERTEX
  8
0
 10
69.955261
 20
108.381195
  0
VERTEX
  8
0
 10
70.380020
 20
107.670464
  0
VERTEX
  8
0
 10
70.810112
 20
106.962936
  0
VERTEX
  8
0
 10
71.238159
 20
106.270248
  0
VERTEX
  8
0
 10
71.654160
 20
105.607780
  0
VERTEX
  8
0
 10
72.074768
 20
104.948235
  0
VERTEX
  8
0
 10
72.500000
 20
104.291672
  0
SEQEND
  0
POLYLINE
  8
0
 66
     1
  0
VERTEX
  8
0
 10
67.894737
 20
28.000000
  0
VERTEX
  8
0
 10
68.064041
 20
28.308453
  0
VERTEX
  8
0
 10
68.267761
 20
28.676285
  0
VERTEX
  8
0
 10
68.567093
 20
29.212122
  0
VERTEX
  8
0
 10
68.915787
 20
29.827705
  0
VERTEX
  8
0
 10
69.251389
 20
30.413958
  0
VERTEX
  8
0
 10
69.590248
 20
30.998329
  0
VERTEX
  8
0
 10
69.955261
 20
31.618805
  0
VERTEX
  8
0
 10
70.380020
 20
32.329536
  0
VERTEX
  8
0
 10
70.810112
 20
33.037064
  0
VERTEX
  8
0
 10
71.238159
 20
33.729748
  0
VERTEX
  8
0
 10
71.654160
 20
34.392220
  0
VERTEX
  8
0
 10
72.074768
 20
35.051765
  0
VERTEX
  8
0
 10
72.500000
 20
35.708332
  0
SEQEND
  0
POLYLINE
  8
0
 66
     1
  0
VERTEX
  8
0
 10
19.860466
 20
26.500000
  0
VERTEX
  8
0
 10
20.644079
 20
26.512121
  0
VERTEX
  8
0
 10
21.425274
 20
26.348099
  0
VERTEX
  8
0
 10
21.983383
 20
26.074448
  0
VERTEX
  8
0
 10
22.253633
 20
25.804909
  0
VERTEX
  8
0
 10
22.486259
 20
25.518814
  0
VERTEX
  8
0
 10
22.672617
 20
25.283596
  0
VERTEX
  8
0
 10
22.867310
 20
25.035538
  0
VERTEX
  8
0
 10
23.089346
 20
24.744625
  0
VERTEX
  8
0
 10
23.317642
 20
24.440231
  0
VERTEX
  8
0
 10
23.575165
 20
24.098053
  0
VERTEX
  8
0
 10
23.836681
 20
23.755135
  0
VERTEX
  8
0
 10
24.125317
 20
23.388300
  0
VERTEX
  8
0
 10
24.391514
 20
23.067490
  0
VERTEX
  8
0
 10
24.562649
 20
22.876358
  0
VERTEX
  8
0
 10
24.719448
 20
22.707962
  0
VERTEX
  8
0
 10
24.813730
 20
22.609901
  0
VERTEX
  8
0
 10
24.910355
 20
22.514174
  0
SEQEND
  0
POLYLINE
  8
0
 66
     1
  0
VERTEX
  8
0
 10
43.139530
 20
16.336784
  0
VERTEX
  8
0
 10
43.470188
 20
17.271460
  0
VERTEX
  8
0
 10
43.760067
 20
18.334829
  0
VERTEX
  8
0
 10
44.000717
 20
19.483276
  0
VERTEX
  8
0
 10
44.183681
 20
20.673189
  0
VERTEX
  8
0
 10
44.300514
 20
21.860952
  0
VERTEX
  8
0
 10
44.342766
 20
23.002953
  0
VERTEX
  8
0
 10
44.301987
 20
24.055574
  0
VERTEX
  8
0
 10
44.169720
 20
24.975204
  0
VERTEX
  8
0
 10
43.937523
 20
25.718227
  0
VERTEX
  8
0
 10
43.596943
 20
26.241032
  0
VERTEX
  8
0
 10
43.139530
 20
26.500000
  0
VERTEX
  8
0
 10
42.376080
 20
26.522615
  0
VERTEX
  8
0
 10
41.586178
 20
26.354061
  0
VERTEX
  8
0
 10
41.016617
 20
26.074448
  0
VERTEX
  8
0
 10
40.745396
 20
25.804403
  0
VERTEX
  8
0
 10
40.513741
 20
25.518814
  0
VERTEX
  8
0
 10
40.327595
 20
25.283705
  0
VERTEX
  8
0
 10
40.132690
 20
25.035538
  0
VERTEX
  8
0
 10
39.910580
 20
24.744587
  0
VERTEX
  8
0
 10
39.682358
 20
24.440231
  0
VERTEX
  8
0
 10
39.424858
 20
24.098064
  0
VERTEX
  8
0
 10
39.163319
 20
23.755135
  0
VERTEX
  8
0
 10
38.874676
 20
23.388296
  0
VERTEX
  8
0
 10
38.608486
 20
23.067490
  0
VERTEX
  8
0
 10
38.446606
 20
22.886114
  0
VERTEX
  8
0
 10
38.280552
 20
22.707962
  0
SEQEND
  0
POINT
  8
0
 10
-210.000000
 20
200.000000
  0
POINT
  8
0
 10
-159.000000
 20
200.000000
  0
LINE
  8
0
 10
-204.204437
 20
149.947083
 11
-203.735779
 21
151.696152
  0
LINE
  8
0
 10
-215.795547
 20
149.947083
 11
-216.264221
 21
151.696152
  0
LINE
  8
0
 10
-204.204453
 20
250.052917
 11
-203.735794
 21
248.303833
  0
LINE
  8
0
 10
-215.795563
 20
250.052917
 11
-216.264221
 21
248.303848
  0
LINE
  8
0
 10
-248.700226
 20
229.576904
 11
-250.449310
 21
230.045563
  0
LINE
  8
0
 10
-254.964462
 20
218.726974
 11
-256.244873
 21
220.007370
  0
LINE
  8
0
 10
-254.964478
 20
181.273087
 11
-256.244904
 21
179.992661
  0
LINE
  8
0
 10
-248.700287
 20
170.423126
 11
-250.449341
 21
169.954468
  0
LINE
  8
0
 10
-203.225143
 20
180.045090
 11
-199.157440
 21
167.525970
  0
LINE
  8
0
 10
-196.106018
 20
184.155258
 11
-187.298019
 21
174.373001
  0
LINE
  8
0
 10
-189.331085
 20
195.889786
 11
-176.455383
 21
193.152969
  0
LINE
  8
0
 10
-189.331085
 20
204.110214
 11
-176.455383
 21
206.847031
  0
LINE
  8
0
 10
-187.297974
 20
225.626968
 11
-196.105988
 21
215.844681
  0
LINE
  8
0
 10
-199.157379
 20
232.473999
 11
-203.225082
 21
219.954910
  0
LINE
  8
0
 10
-220.842590
 20
232.474030
 11
-216.774887
 21
219.954910
  0
LINE
  8
0
 10
-232.701996
 20
225.626984
 11
-223.893997
 21
215.844727
  0
LINE
  8
0
 10
-243.544617
 20
206.847061
 11
-230.668900
 21
204.110245
  0
LINE
  8
0
 10
-243.544617
 20
193.153000
 11
-230.668930
 21
195.889801
  0
LINE
  8
0
 10
-223.894028
 20
184.155334
 11
-232.702042
 21
174.373047
  0
LINE
  8
0
 10
-216.774948
 20
180.045090
 11
-220.842636
 21
167.526016
  0
LINE
  8
0
 10
-207.980423
 20
183.500000
 11
-212.019669
 21
183.500000
  0
LINE
  8
0
 10
-207.980362
 20
216.500000
 11
-212.019592
 21
216.500000
  0
LINE
  8
0
 10
-223.279602
 20
209.999054
 11
-225.299210
 21
206.500977
  0
LINE
  8
0
 10
-194.700775
 20
193.499054
 11
-196.720413
 21
190.000916
  0
LINE
  8
0
 10
-196.720383
 20
209.999023
 11
-194.700775
 21
206.500961
  0
LINE
  8
0
 10
-225.299255
 20
193.499069
 11
-223.279633
 21
190.000992
  0
LINE
  8
0
 10
-253.500000
 20
215.191437
 11
-253.500000
 21
184.808624
  0
LINE
  8
0
 10
-244.906189
 20
169.923630
 11
-218.593842
 21
154.732193
  0
LINE
  8
0
 10
-201.406158
 20
245.267807
 11
-176.987823
 21
231.169861
  0
LINE
  8
0
 10
-218.593842
 20
245.267822
 11
-244.906128
 21
230.076401
  0
LINE
  8
0
 10
-176.987808
 20
168.830124
 11
-201.406143
 21
154.732193
  0
LINE
  8
0
 10
-159.000000
 20
174.500000
 11
-159.500000
 21
174.500000
  0
LINE
  8
0
 10
-159.000000
 20
225.500000
 11
-159.500000
 21
225.500000
  0
LINE
  8
0
 10
-164.500000
 20
169.500000
 11
-174.487808
 21
169.500000
  0
LINE
  8
0
 10
-164.500000
 20
230.500000
 11
-174.487808
 21
230.500000
  0
LINE
  8
0
 10
-159.000000
 20
225.500000
 11
-159.000000
 21
174.500000
  0
LINE
  8
0
 10
-159.500000
 20
225.500000
 11
-159.500000
 21
174.500000
  0
LINE
  8
0
  6
CENTER
 10
-210.000000
 20
260.000000
 11
-210.000000
 21
140.000000
  0
LINE
  8
0
  6
CENTER
 10
-150.000000
 20
200.000000
 11
-270.000000
 21
200.000000
  0
LINE
  8
0
  6
CENTER
 10
-195.750046
 20
175.318253
 11
-189.250031
 21
164.059921
  0
LINE
  8
0
  6
CENTER
 10
-230.749985
 20
235.940063
 11
-224.249985
 21
224.681732
  0
LINE
  8
0
  6
CENTER
 10
-189.249985
 20
235.940048
 11
-195.749985
 21
224.681717
  0
LINE
  8
0
  6
CENTER
 10
-224.250031
 20
175.318298
 11
-230.750031
 21
164.059967
  0
LINE
  8
0
  6
CENTER
 10
-173.020721
 20
178.649994
 11
-162.974823
 21
172.850006
  0
LINE
  8
0
  6
CENTER
 10
-257.025177
 20
227.150009
 11
-246.979279
 21
221.350006
  0
LINE
  8
0
  6
CENTER
 10
-162.974823
 20
227.149994
 11
-173.020721
 21
221.349991
  0
LINE
  8
0
  6
CENTER
 10
-246.979294
 20
178.650024
 11
-257.025208
 21
172.850021
  0
LINE
  8
0
 10
-167.997787
 20
227.136780
 11
-170.497787
 21
225.693405
  0
LINE
  8
0
 10
-170.497787
 20
225.693405
 11
-170.497787
 21
222.806656
  0
LINE
  8
0
 10
-167.997787
 20
221.363266
 11
-170.497787
 21
222.806641
  0
LINE
  8
0
 10
-165.497787
 20
222.806656
 11
-167.997787
 21
221.363281
  0
LINE
  8
0
 10
-165.497787
 20
225.693405
 11
-165.497787
 21
222.806656
  0
LINE
  8
0
 10
-167.997803
 20
227.136780
 11
-165.497803
 21
225.693405
  0
LINE
  8
0
 10
-210.000000
 20
251.386749
 11
-212.500000
 21
249.943375
  0
LINE
  8
0
 10
-212.500000
 20
249.943375
 11
-212.500000
 21
247.056625
  0
LINE
  8
0
 10
-210.000015
 20
245.613235
 11
-212.500015
 21
247.056610
  0
LINE
  8
0
 10
-207.500000
 20
247.056625
 11
-210.000000
 21
245.613251
  0
LINE
  8
0
 10
-207.500000
 20
249.943375
 11
-207.500000
 21
247.056625
  0
LINE
  8
0
 10
-210.000015
 20
251.386749
 11
-207.500015
 21
249.943359
  0
LINE
  8
0
 10
-252.002228
 20
227.136749
 11
-254.502228
 21
225.693375
  0
LINE
  8
0
 10
-254.502228
 20
225.693375
 11
-254.502228
 21
222.806625
  0
LINE
  8
0
 10
-252.002228
 20
221.363251
 11
-254.502228
 21
222.806625
  0
LINE
  8
0
 10
-249.502228
 20
222.806610
 11
-252.002228
 21
221.363235
  0
LINE
  8
0
 10
-249.502228
 20
225.693375
 11
-249.502228
 21
222.806625
  0
LINE
  8
0
 10
-252.002228
 20
227.136749
 11
-249.502228
 21
225.693375
  0
LINE
  8
0
 10
-252.002243
 20
178.636780
 11
-254.502243
 21
177.193390
  0
LINE
  8
0
 10
-254.502243
 20
177.193390
 11
-254.502243
 21
174.306641
  0
LINE
  8
0
 10
-252.002228
 20
172.863281
 11
-254.502228
 21
174.306656
  0
LINE
  8
0
 10
-249.502243
 20
174.306641
 11
-252.002243
 21
172.863266
  0
LINE
  8
0
 10
-249.502243
 20
177.193390
 11
-249.502243
 21
174.306641
  0
LINE
  8
0
 10
-252.002243
 20
178.636780
 11
-249.502243
 21
177.193405
  0
LINE
  8
0
 10
-210.000000
 20
154.386749
 11
-212.500000
 21
152.943375
  0
LINE
  8
0
 10
-212.500000
 20
152.943375
 11
-212.500000
 21
150.056625
  0
LINE
  8
0
 10
-209.999985
 20
148.613251
 11
-212.499985
 21
150.056641
  0
LINE
  8
0
 10
-207.500000
 20
150.056625
 11
-210.000000
 21
148.613251
  0
LINE
  8
0
 10
-207.500000
 20
152.943375
 11
-207.500000
 21
150.056625
  0
LINE
  8
0
 10
-209.999985
 20
154.386765
 11
-207.499985
 21
152.943390
  0
LINE
  8
0
 10
-167.997772
 20
178.636765
 11
-170.497772
 21
177.193390
  0
LINE
  8
0
 10
-170.497772
 20
177.193375
 11
-170.497772
 21
174.306625
  0
LINE
  8
0
 10
-167.997772
 20
172.863251
 11
-170.497772
 21
174.306625
  0
LINE
  8
0
 10
-165.497772
 20
174.306625
 11
-167.997772
 21
172.863251
  0
LINE
  8
0
 10
-165.497772
 20
177.193375
 11
-165.497772
 21
174.306625
  0
LINE
  8
0
 10
-167.997772
 20
178.636749
 11
-165.497772
 21
177.193375
  0
CIRCLE
  8
0
 10
-210.000000
 20
200.000000
 40
8.500000
  0
CIRCLE
  8
0
 10
-210.000000
 20
200.000000
 40
7.500000
  0
CIRCLE
  8
0
 10
-210.000000
 20
200.000000
 40
15.000000
  0
ARC
  8
0
  6
CENTER
 10
-210.000000
 20
200.000000
 40
34.999996
 50
290.165710
 51
309.834137
  0
CIRCLE
  8
0
  6
CENTER
 10
-210.000000
 20
200.000000
 40
48.500000
  0
ARC
  8
0
 10
-210.000000
 20
200.000000
 40
24.999994
 50
259.110046
 51
280.889740
  0
CIRCLE
  8
0
 10
-210.000000
 20
200.000000
 40
42.599998
  0
CIRCLE
  8
0
 10
-192.500046
 20
169.689087
 40
4.000000
  0
CIRCLE
  8
0
 10
-175.000000
 20
200.000000
 40
4.000000
  0
CIRCLE
  8
0
 10
-192.499985
 20
230.310883
 40
4.000000
  0
CIRCLE
  8
0
 10
-227.499985
 20
230.310898
 40
4.000000
  0
CIRCLE
  8
0
 10
-245.000000
 20
200.000031
 40
4.000000
  0
CIRCLE
  8
0
 10
-227.500031
 20
169.689133
 40
4.000000
  0
CIRCLE
  8
0
 10
-192.500046
 20
169.689087
 40
3.375000
  0
CIRCLE
  8
0
 10
-175.000000
 20
200.000000
 40
3.375000
  0
CIRCLE
  8
0
 10
-192.499985
 20
230.310883
 40
3.375000
  0
CIRCLE
  8
0
 10
-227.499985
 20
230.310898
 40
3.375000
  0
CIRCLE
  8
0
 10
-245.000000
 20
200.000031
 40
3.375000
  0
CIRCLE
  8
0
 10
-227.500031
 20
169.689133
 40
3.375000
  0
ARC
  8
0
 10
-192.500046
 20
169.689087
 40
6.999998
 50
197.999985
 51
42.000015
  0
ARC
  8
0
 10
-175.000000
 20
200.000000
 40
6.999998
 50
257.999969
 51
102.000015
  0
ARC
  8
0
 10
-192.499985
 20
230.310883
 40
6.999998
 50
318.000000
 51
162.000015
  0
ARC
  8
0
 10
-227.499985
 20
230.310898
 40
7.000003
 50
18.000103
 51
222.000015
  0
ARC
  8
0
 10
-245.000000
 20
200.000031
 40
6.999998
 50
77.999985
 51
282.000031
  0
ARC
  8
0
 10
-227.500031
 20
169.689133
 40
6.999998
 50
137.999985
 51
341.999908
  0
ARC
  8
0
 10
-210.000000
 20
151.500000
 40
5.999994
 50
195.000046
 51
345.000000
  0
ARC
  8
0
 10
-210.000000
 20
248.500000
 40
6.000009
 50
15.000010
 51
164.999954
  0
ARC
  8
0
 10
-252.002228
 20
224.250015
 40
5.999994
 50
74.999954
 51
225.000000
  0
ARC
  8
0
 10
-252.002243
 20
175.750015
 40
5.999996
 50
134.999893
 51
284.999908
  0
ARC
  8
0
 10
-192.390289
 20
187.500916
 40
4.999997
 50
149.999985
 51
222.000000
  0
ARC
  8
0
 10
-190.370636
 20
190.999054
 40
4.999992
 50
78.000069
 51
149.999985
  0
ARC
  8
0
 10
-190.370636
 20
209.000961
 40
5.000010
 50
209.999924
 51
281.999878
  0
ARC
  8
0
 10
-192.390259
 20
212.499023
 40
4.999995
 50
137.999878
 51
210.000015
  0
ARC
  8
0
 10
-207.980362
 20
221.500000
 40
5.000000
 50
270.000000
 51
341.999939
  0
ARC
  8
0
 10
-212.019592
 20
221.500000
 40
5.000013
 50
198.000015
 51
270.000000
  0
ARC
  8
0
 10
-227.609726
 20
212.499069
 40
4.999997
 50
329.999969
 51
42.000000
  0
ARC
  8
0
 10
-229.629333
 20
209.000977
 40
4.999996
 50
257.999908
 51
329.999969
  0
ARC
  8
0
 10
-229.629379
 20
190.999069
 40
4.999997
 50
30.000017
 51
101.999931
  0
ARC
  8
0
 10
-227.609756
 20
187.500992
 40
5.000006
 50
318.000000
 51
30.000017
  0
ARC
  8
0
 10
-212.019669
 20
178.500000
 40
5.000000
 50
89.999825
 51
161.999939
  0
ARC
  8
0
 10
-207.980423
 20
178.500000
 40
4.999999
 50
18.000063
 51
90.000000
  0
ARC
  8
0
 10
-210.000000
 20
200.000000
 40
25.000004
 50
319.110016
 51
340.889893
  0
ARC
  8
0
 10
-210.000000
 20
200.000000
 40
24.999996
 50
19.110151
 51
40.889858
  0
ARC
  8
0
 10
-210.000000
 20
200.000000
 40
25.000002
 50
79.110115
 51
100.889786
  0
ARC
  8
0
 10
-210.000000
 20
200.000000
 40
24.999994
 50
139.110046
 51
160.889740
  0
ARC
  8
0
 10
-210.000000
 20
200.000000
 40
24.999994
 50
199.110046
 51
220.889755
  0
ARC
  8
0
 10
-193.368713
 20
185.598602
 40
2.999993
 50
221.999954
 51
319.110199
  0
ARC
  8
0
 10
-189.212402
 20
192.797531
 40
3.000010
 50
340.890076
 51
77.999763
  0
ARC
  8
0
 10
-189.212402
 20
207.202469
 40
3.000008
 50
282.000244
 51
19.110186
  0
ARC
  8
0
 10
-193.368668
 20
214.401352
 40
3.000005
 50
40.889793
 51
138.000046
  0
ARC
  8
0
 10
-205.843704
 20
221.603821
 40
2.999994
 50
342.000031
 51
79.110023
  0
ARC
  8
0
 10
-214.156265
 20
221.603836
 40
2.999991
 50
100.889740
 51
197.999969
  0
ARC
  8
0
 10
-226.631302
 20
214.401382
 40
2.999993
 50
41.999950
 51
139.110214
  0
ARC
  8
0
 10
-230.787598
 20
207.202499
 40
3.000000
 50
160.889725
 51
258.000061
  0
ARC
  8
0
 10
-230.787613
 20
192.797562
 40
3.000005
 50
101.999947
 51
199.110001
  0
ARC
  8
0
 10
-226.631348
 20
185.598663
 40
2.999995
 50
220.889572
 51
318.000061
  0
ARC
  8
0
 10
-214.156311
 20
178.396179
 40
3.000014
 50
161.999847
 51
259.109985
  0
ARC
  8
0
 10
-205.843765
 20
178.396164
 40
3.000006
 50
280.889679
 51
17.999969
  0
ARC
  8
0
 10
-198.906143
 20
150.402069
 40
4.999997
 50
120.000015
 51
164.999985
  0
ARC
  8
0
 10
-198.906158
 20
249.597931
 40
4.999992
 50
195.000061
 51
239.999985
  0
ARC
  8
0
 10
-221.093842
 20
249.597946
 40
4.999997
 50
300.000031
 51
345.000000
  0
ARC
  8
0
 10
-247.406128
 20
234.406525
 40
4.999992
 50
254.999939
 51
300.000031
  0
ARC
  8
0
 10
-258.500000
 20
215.191437
 40
5.000000
 50
0.000000
 51
45.000000
  0
ARC
  8
0
 10
-258.500000
 20
184.808609
 40
4.999995
 50
315.000122
 51
0.000000
  0
ARC
  8
0
 10
-247.406189
 20
165.593491
 40
4.999997
 50
59.999981
 51
105.000008
  0
ARC
  8
0
 10
-221.093842
 20
150.402069
 40
4.999992
 50
15.000055
 51
59.999981
  0
ARC
  8
0
 10
-174.487808
 20
164.500000
 40
5.000000
 50
90.000000
 51
119.999931
  0
ARC
  8
0
 10
-174.487808
 20
235.500000
 40
4.999997
 50
239.999985
 51
270.000000
  0
ARC
  8
0
 10
-210.000000
 20
200.000000
 40
54.999996
 50
37.119316
 51
322.880676
  0
ARC
  8
0
 10
-156.575485
 20
240.432922
 40
11.999998
 50
217.119370
 51
238.149902
  0
ARC
  8
0
 10
-156.575470
 20
159.567093
 40
12.000008
 50
121.850319
 51
142.880737
  0
ARC
  8
0
  6
CENTER
 10
-210.000000
 20
200.000000
 40
35.000004
 50
348.453308
 51
11.546725
  0
ARC
  8
0
  6
CENTER
 10
-210.000000
 20
200.000000
 40
35.000008
 50
48.453312
 51
71.546684
  0
ARC
  8
0
  6
CENTER
 10
-210.000000
 20
200.000000
 40
35.000011
 50
110.165710
 51
129.834137
  0
ARC
  8
0
  6
CENTER
 10
-210.000000
 20
200.000000
 40
35.000008
 50
170.165771
 51
189.834198
  0
ARC
  8
0
  6
CENTER
 10
-210.000000
 20
200.000000
 40
35.000008
 50
230.165741
 51
249.834152
  0
ARC
  8
0
 10
-210.000000
 20
200.000000
 40
34.999992
 50
251.546631
 51
288.453247
  0
ARC
  8
0
 10
-210.000000
 20
200.000000
 40
35.000000
 50
311.546600
 51
348.453308
  0
ARC
  8
0
 10
-210.000000
 20
200.000000
 40
34.999992
 50
11.546725
 51
48.453312
  0
ARC
  8
0
 10
-210.000000
 20
200.000000
 40
34.999996
 50
71.546684
 51
108.453232
  0
ARC
  8
0
 10
-210.000000
 20
200.000000
 40
35.000004
 50
131.478271
 51
168.453232
  0
ARC
  8
0
 10
-210.000000
 20
200.000000
 40
35.000000
 50
191.546646
 51
228.453247
  0
ARC
  8
0
 10
-164.500000
 20
225.500000
 40
5.000000
 50
0.000000
 51
90.000000
  0
ARC
  8
0
 10
-164.500000
 20
174.500000
 40
5.000000
 50
270.000000
 51
0.000000
  0
CIRCLE
  8
0
 10
-167.997787
 20
224.250031
 40
5.000000
  0
CIRCLE
  8
0
 10
-210.000000
 20
248.500000
 40
5.000000
  0
CIRCLE
  8
0
 10
-252.002228
 20
224.250000
 40
5.000000
  0
CIRCLE
  8
0
 10
-252.002243
 20
175.750015
 40
5.000000
  0
CIRCLE
  8
0
 10
-210.000000
 20
151.500000
 40
5.000000
  0
CIRCLE
  8
0
 10
-167.997772
 20
175.750000
 40
5.000000
  0
CIRCLE
  8
0
 10
-167.997787
 20
224.250031
 40
4.400000
  0
CIRCLE
  8
0
 10
-210.000000
 20
248.500000
 40
4.400000
  0
CIRCLE
  8
0
 10
-252.002228
 20
224.250000
 40
4.400000
  0
CIRCLE
  8
0
 10
-252.002243
 20
175.750015
 40
4.400000
  0
CIRCLE
  8
0
 10
-210.000000
 20
151.500000
 40
4.400000
  0
CIRCLE
  8
0
 10
-167.997772
 20
175.750000
 40
4.400000
  0
POINT
  8
0
 10
260.000000
 20
200.000000
  0
POINT
  8
0
 10
315.000000
 20
200.000000
  0
LINE
  8
0
 10
254.204437
 20
250.052917
 11
253.735779
 21
248.303848
  0
LINE
  8
0
 10
265.795563
 20
250.052917
 11
266.264221
 21
248.303848
  0
LINE
  8
0
 10
254.204437
 20
149.947083
 11
253.735779
 21
151.696167
  0
LINE
  8
0
 10
265.795532
 20
149.947083
 11
266.264191
 21
151.696152
  0
LINE
  8
0
 10
298.700226
 20
170.423080
 11
300.449310
 21
169.954422
  0
LINE
  8
0
 10
304.964447
 20
181.273026
 11
306.244873
 21
179.992615
  0
LINE
  8
0
 10
304.964478
 20
218.726913
 11
306.244904
 21
220.007324
  0
LINE
  8
0
 10
298.700287
 20
229.576874
 11
300.449341
 21
230.045532
  0
LINE
  8
0
 10
253.225143
 20
219.954910
 11
249.157440
 21
232.474030
  0
LINE
  8
0
 10
246.106018
 20
215.844742
 11
237.298035
 21
225.626999
  0
LINE
  8
0
 10
239.331085
 20
204.110214
 11
226.455383
 21
206.847031
  0
LINE
  8
0
 10
239.331085
 20
195.889786
 11
226.455383
 21
193.152969
  0
LINE
  8
0
 10
237.297974
 20
174.373032
 11
246.105972
 21
184.155319
  0
LINE
  8
0
 10
249.157379
 20
167.526001
 11
253.225082
 21
180.045090
  0
LINE
  8
0
 10
270.842590
 20
167.525970
 11
266.774872
 21
180.045074
  0
LINE
  8
0
 10
282.701996
 20
174.373016
 11
273.893982
 21
184.155273
  0
LINE
  8
0
 10
293.544617
 20
193.152924
 11
280.668884
 21
195.889755
  0
LINE
  8
0
 10
293.544617
 20
206.847000
 11
280.668945
 21
204.110184
  0
LINE
  8
0
 10
273.894043
 20
215.844666
 11
282.702057
 21
225.626953
  0
LINE
  8
0
 10
266.774933
 20
219.954910
 11
270.842651
 21
232.473984
  0
LINE
  8
0
 10
257.980438
 20
216.500000
 11
262.019653
 21
216.500000
  0
LINE
  8
0
 10
257.980347
 20
183.500000
 11
262.019592
 21
183.500000
  0
LINE
  8
0
 10
273.279602
 20
190.000931
 11
275.299225
 21
193.499008
  0
LINE
  8
0
 10
244.700760
 20
206.500961
 11
246.720413
 21
209.999084
  0
LINE
  8
0
 10
246.720383
 20
190.000977
 11
244.700775
 21
193.499054
  0
LINE
  8
0
 10
275.299255
 20
206.500916
 11
273.279633
 21
209.999008
  0
LINE
  8
0
 10
303.500000
 20
184.808563
 11
303.500000
 21
215.191376
  0
LINE
  8
0
 10
294.906189
 20
230.076370
 11
268.593842
 21
245.267807
  0
LINE
  8
0
 10
251.406143
 20
154.732193
 11
226.987808
 21
168.830139
  0
LINE
  8
0
 10
268.593842
 20
154.732178
 11
294.906128
 21
169.923584
  0
LINE
  8
0
 10
226.987823
 20
231.169876
 11
251.406158
 21
245.267807
  0
LINE
  8
0
 10
209.000000
 20
225.500000
 11
209.500000
 21
225.500000
  0
LINE
  8
0
 10
209.000000
 20
174.500000
 11
209.500000
 21
174.500000
  0
LINE
  8
0
 10
214.500000
 20
230.500000
 11
224.487808
 21
230.500000
  0
LINE
  8
0
 10
214.500000
 20
169.500000
 11
224.487808
 21
169.500000
  0
LINE
  8
0
 10
209.000000
 20
174.500000
 11
209.000000
 21
225.500000
  0
LINE
  8
0
 10
209.500000
 20
174.500000
 11
209.500000
 21
225.500000
  0
LINE
  8
0
  6
CENTER
 10
260.000000
 20
140.000000
 11
260.000000
 21
260.000000
  0
LINE
  8
0
  6
CENTER
 10
200.000000
 20
200.000000
 11
320.000000
 21
200.000000
  0
LINE
  8
0
 10
251.641495
 20
200.833878
 11
259.166107
 21
208.358505
  0
LINE
  8
0
 10
260.833893
 20
191.641495
 11
268.358521
 21
199.166107
  0
LINE
  8
0
 10
268.358521
 20
200.833893
 11
260.833893
 21
208.358505
  0
LINE
  8
0
 10
259.166107
 20
191.641495
 11
251.641495
 21
199.166107
  0
LINE
  8
0
 10
259.611633
 20
192.610199
 11
252.610199
 21
199.611633
  0
LINE
  8
0
 10
260.388367
 20
192.610199
 11
267.389801
 21
199.611618
  0
LINE
  8
0
 10
252.610199
 20
200.388382
 11
259.611633
 21
207.389801
  0
LINE
  8
0
 10
267.389801
 20
200.388367
 11
260.388367
 21
207.389801
  0
LINE
  8
0
 10
260.388367
 20
207.389801
 11
260.833862
 21
208.358521
  0
LINE
  8
0
 10
259.611633
 20
207.389801
 11
259.166107
 21
208.358505
  0
LINE
  8
0
 10
252.610199
 20
200.388382
 11
251.641495
 21
200.833893
  0
LINE
  8
0
 10
251.641479
 20
199.166138
 11
252.610199
 21
199.611649
  0
LINE
  8
0
 10
259.166107
 20
191.641495
 11
259.611633
 21
192.610199
  0
LINE
  8
0
 10
260.833862
 20
191.641510
 11
260.388367
 21
192.610214
  0
LINE
  8
0
 10
267.389801
 20
199.611633
 11
268.358490
 21
199.166122
  0
LINE
  8
0
 10
268.358521
 20
200.833878
 11
267.389801
 21
200.388367
  0
CIRCLE
  8
0
 10
260.000000
 20
200.000000
 40
8.500000
  0
CIRCLE
  8
0
 10
260.000000
 20
200.000000
 40
15.000000
  0
ARC
  8
0
 10
260.000000
 20
200.000000
 40
24.999994
 50
79.110039
 51
100.889740
  0
CIRCLE
  8
0
 10
260.000000
 20
200.000000
 40
42.599998
  0
CIRCLE
  8
0
 10
242.500046
 20
230.310913
 40
4.000000
  0
CIRCLE
  8
0
 10
225.000000
 20
200.000000
 40
4.000000
  0
CIRCLE
  8
0
 10
242.499985
 20
169.689117
 40
4.000000
  0
CIRCLE
  8
0
 10
277.499969
 20
169.689087
 40
4.000000
  0
CIRCLE
  8
0
 10
295.000000
 20
199.999969
 40
4.000000
  0
CIRCLE
  8
0
 10
277.500031
 20
230.310867
 40
4.000000
  0
CIRCLE
  8
0
 10
242.500046
 20
230.310913
 40
3.375000
  0
CIRCLE
  8
0
 10
225.000000
 20
200.000000
 40
3.375000
  0
CIRCLE
  8
0
 10
242.499985
 20
169.689117
 40
3.375000
  0
CIRCLE
  8
0
 10
277.499969
 20
169.689087
 40
3.375000
  0
CIRCLE
  8
0
 10
295.000000
 20
199.999969
 40
3.375000
  0
CIRCLE
  8
0
 10
277.500031
 20
230.310867
 40
3.375000
  0
ARC
  8
0
 10
242.500046
 20
230.310913
 40
6.999998
 50
17.999983
 51
222.000015
  0
ARC
  8
0
 10
225.000000
 20
200.000000
 40
6.999998
 50
77.999985
 51
282.000031
  0
ARC
  8
0
 10
242.499985
 20
169.689117
 40
6.999998
 50
137.999985
 51
342.000031
  0
ARC
  8
0
 10
277.499969
 20
169.689087
 40
6.999984
 50
198.000015
 51
41.999931
  0
ARC
  8
0
 10
295.000000
 20
199.999969
 40
7.000013
 50
258.000000
 51
102.000015
  0
ARC
  8
0
 10
277.500031
 20
230.310867
 40
7.000010
 50
318.000061
 51
161.999985
  0
ARC
  8
0
 10
260.000000
 20
248.500000
 40
6.000009
 50
15.000010
 51
164.999954
  0
ARC
  8
0
 10
260.000000
 20
151.500000
 40
6.000009
 50
195.000015
 51
344.999908
  0
ARC
  8
0
 10
302.002228
 20
175.749985
 40
6.000009
 50
254.999985
 51
44.999897
  0
ARC
  8
0
 10
302.002258
 20
224.249969
 40
5.999985
 50
314.999786
 51
105.000008
  0
ARC
  8
0
 10
242.390289
 20
212.499084
 40
4.999997
 50
329.999969
 51
42.000000
  0
ARC
  8
0
 10
240.370636
 20
209.000961
 40
5.000007
 50
258.000122
 51
329.999817
  0
ARC
  8
0
 10
240.370636
 20
190.999039
 40
5.000010
 50
29.999931
 51
101.999893
  0
ARC
  8
0
 10
242.390259
 20
187.500977
 40
4.999995
 50
317.999878
 51
30.000017
  0
ARC
  8
0
 10
257.980347
 20
178.500000
 40
5.000000
 50
90.000000
 51
161.999939
  0
ARC
  8
0
 10
262.019592
 20
178.500000
 40
4.999999
 50
18.000063
 51
90.000000
  0
ARC
  8
0
 10
277.609711
 20
187.500931
 40
4.999984
 50
149.999893
 51
222.000229
  0
ARC
  8
0
 10
279.629333
 20
190.999008
 40
5.000007
 50
78.000107
 51
149.999893
  0
ARC
  8
0
 10
279.629364
 20
209.000931
 40
4.999992
 50
210.000259
 51
282.000244
  0
ARC
  8
0
 10
277.609741
 20
212.499008
 40
4.999984
 50
137.999771
 51
210.000107
  0
ARC
  8
0
 10
262.019653
 20
221.500000
 40
5.000000
 50
270.000000
 51
341.999939
  0
ARC
  8
0
 10
257.980438
 20
221.500000
 40
5.000013
 50
198.000015
 51
270.000000
  0
ARC
  8
0
 10
260.000000
 20
200.000000
 40
25.000004
 50
139.110016
 51
160.889893
  0
ARC
  8
0
 10
260.000000
 20
200.000000
 40
24.999996
 50
199.110153
 51
220.889862
  0
ARC
  8
0
 10
260.000000
 20
200.000000
 40
25.000002
 50
259.110107
 51
280.889832
  0
ARC
  8
0
 10
260.000000
 20
200.000000
 40
24.999994
 50
319.110046
 51
340.889771
  0
ARC
  8
0
 10
260.000000
 20
200.000000
 40
24.999994
 50
19.110041
 51
40.889759
  0
ARC
  8
0
 10
243.368713
 20
214.401398
 40
2.999993
 50
41.999950
 51
139.110214
  0
ARC
  8
0
 10
239.212402
 20
207.202469
 40
3.000010
 50
160.890091
 51
258.000061
  0
ARC
  8
0
 10
239.212402
 20
192.797531
 40
3.000008
 50
102.000237
 51
199.110184
  0
ARC
  8
0
 10
243.368668
 20
185.598648
 40
3.000005
 50
220.889786
 51
318.000061
  0
ARC
  8
0
 10
255.843704
 20
178.396179
 40
3.000009
 50
162.000122
 51
259.110016
  0
ARC
  8
0
 10
264.156250
 20
178.396164
 40
2.999994
 50
280.890015
 51
17.999880
  0
ARC
  8
0
 10
276.631317
 20
185.598618
 40
3.000016
 50
221.999557
 51
319.109833
  0
ARC
  8
0
 10
280.787598
 20
192.797501
 40
2.999986
 50
340.889618
 51
78.000336
  0
ARC
  8
0
 10
280.787628
 20
207.202438
 40
3.000002
 50
281.999664
 51
19.110100
  0
ARC
  8
0
 10
276.631348
 20
214.401321
 40
3.000005
 50
40.889793
 51
137.999832
  0
ARC
  8
0
 10
264.156311
 20
221.603821
 40
3.000009
 50
342.000122
 51
79.109970
  0
ARC
  8
0
 10
255.843765
 20
221.603836
 40
3.000006
 50
100.889687
 51
197.999969
  0
ARC
  8
0
 10
248.906158
 20
249.597931
 40
4.999997
 50
300.000031
 51
344.999939
  0
ARC
  8
0
 10
248.906143
 20
150.402069
 40
5.000007
 50
15.000010
 51
59.999981
  0
ARC
  8
0
 10
271.093842
 20
150.402054
 40
4.999997
 50
120.000015
 51
165.000031
  0
ARC
  8
0
 10
297.406128
 20
165.593460
 40
5.000007
 50
74.999992
 51
120.000015
  0
ARC
  8
0
 10
308.500000
 20
184.808563
 40
5.000000
 50
180.000000
 51
225.000122
  0
ARC
  8
0
 10
308.500000
 20
215.191376
 40
4.999995
 50
134.999878
 51
180.000000
  0
ARC
  8
0
 10
297.406189
 20
234.406494
 40
4.999997
 50
239.999985
 51
285.000061
  0
ARC
  8
0
 10
271.093842
 20
249.597931
 40
4.999992
 50
195.000061
 51
239.999985
  0
ARC
  8
0
 10
224.487808
 20
235.500000
 40
5.000000
 50
270.000000
 51
300.000031
  0
ARC
  8
0
 10
224.487808
 20
164.500000
 40
4.999997
 50
59.999981
 51
90.000000
  0
ARC
  8
0
 10
260.000000
 20
200.000000
 40
54.999996
 50
217.119308
 51
142.880722
  0
ARC
  8
0
 10
206.575470
 20
159.567093
 40
12.000001
 50
37.119267
 51
58.149681
  0
ARC
  8
0
 10
206.575485
 20
240.432922
 40
12.000010
 50
301.850067
 51
322.880615
  0
ARC
  8
0
 10
260.000000
 20
200.000000
 40
34.999992
 50
71.546631
 51
108.453232
  0
ARC
  8
0
 10
260.000000
 20
200.000000
 40
35.000000
 50
131.546600
 51
168.453308
  0
ARC
  8
0
 10
260.000000
 20
200.000000
 40
34.999992
 50
191.546722
 51
228.453308
  0
ARC
  8
0
 10
260.000000
 20
200.000000
 40
35.000008
 50
251.546722
 51
288.453247
  0
ARC
  8
0
 10
260.000000
 20
200.000000
 40
35.000004
 50
311.478271
 51
348.453217
  0
ARC
  8
0
 10
260.000000
 20
200.000000
 40
35.000011
 50
11.546618
 51
48.453262
  0
CIRCLE
  8
0
 10
260.000000
 20
200.000000
 40
8.400000
  0
CIRCLE
  8
0
 10
260.000000
 20
200.000000
 40
8.400000
  0
ARC
  8
0
 10
260.000000
 20
200.000000
 40
7.399999
 50
176.991623
 51
183.008377
  0
ARC
  8
0
 10
260.000000
 20
200.000000
 40
7.399999
 50
266.991608
 51
273.008392
  0
ARC
  8
0
 10
260.000000
 20
200.000000
 40
7.400000
 50
356.991516
 51
3.008379
  0
ARC
  8
0
 10
260.000000
 20
200.000000
 40
7.399999
 50
86.991623
 51
93.008377
  0
CIRCLE
  8
0
 10
260.000000
 20
248.500000
 40
2.600000
  0
CIRCLE
  8
0
 10
217.997772
 20
224.250000
 40
2.600000
  0
CIRCLE
  8
0
 10
217.997787
 20
175.749969
 40
2.600000
  0
CIRCLE
  8
0
 10
260.000000
 20
151.500000
 40
2.600000
  0
CIRCLE
  8
0
 10
302.002228
 20
175.750000
 40
2.600000
  0
CIRCLE
  8
0
 10
302.002258
 20
224.249969
 40
2.600000
  0
ARC
  8
0
 10
214.500000
 20
225.500000
 40
5.000000
 50
90.000000
 51
180.000000
  0
ARC
  8
0
 10
214.500000
 20
174.500000
 40
5.000000
 50
180.000000
 51
270.000000
  0
POINT
  8
0
 10
-100.000000
 20
-80.000000
  0
POINT
  8
0
 10
-80.000000
 20
-80.000000
  0
LINE
  8
0
 10
-100.000000
 20
-25.000000
 11
-100.000000
 21
-135.000000
  0
LINE
  8
0
 10
-100.000008
 20
-25.000000
 11
-140.000000
 21
-25.000000
  0
LINE
  8
0
 10
-99.999992
 20
-135.000000
 11
-140.000000
 21
-135.000000
  0
LINE
  8
0
 10
-110.000000
 20
-25.000000
 11
-110.000000
 21
-135.000000
  0
LINE
  8
0
 10
-140.000000
 20
-25.000004
 11
-140.000000
 21
-135.000000
  0
LINE
  8
0
 10
-100.000000
 20
-45.189095
 11
-110.000000
 21
-45.189095
  0
LINE
  8
0
 10
-100.000000
 20
-114.810867
 11
-110.000000
 21
-114.810867
  0
LINE
  8
0
  6
CENTER
 10
-119.000000
 20
-40.000000
 11
-137.000000
 21
-40.000000
  0
LINE
  8
0
  6
CENTER
 10
-119.000000
 20
-120.000000
 11
-137.000000
 21
-120.000000
  0
LINE
  8
0
  6
CENTER
 10
-128.000000
 20
-31.000004
 11
-128.000000
 21
-49.000000
  0
LINE
  8
0
  6
CENTER
 10
-128.000000
 20
-111.000000
 11
-128.000000
 21
-129.000000
  0
LINE
  8
0
 10
-112.000000
 20
-41.989117
 11
-112.000000
 21
-57.389118
  0
LINE
  8
0
 10
-120.000000
 20
-43.989117
 11
-120.000000
 21
-55.389118
  0
LINE
  8
0
 10
-119.199997
 20
-43.189117
 11
-119.199997
 21
-56.189117
  0
LINE
  8
0
 10
-112.000000
 20
-102.610909
 11
-110.000000
 21
-102.610909
  0
LINE
  8
0
 10
-112.000000
 20
-118.010910
 11
-110.000000
 21
-118.010910
  0
LINE
  8
0
 10
-112.000000
 20
-72.300003
 11
-110.000000
 21
-72.300003
  0
LINE
  8
0
 10
-112.000000
 20
-87.699997
 11
-110.000000
 21
-87.699997
  0
LINE
  8
0
 10
-112.000000
 20
-41.989117
 11
-110.000000
 21
-41.989117
  0
LINE
  8
0
 10
-112.000000
 20
-57.389118
 11
-110.000000
 21
-57.389118
  0
LINE
  8
0
 10
-119.199997
 20
-43.189117
 11
-112.000000
 21
-43.189117
  0
LINE
  8
0
 10
-119.199997
 20
-56.189117
 11
-112.000000
 21
-56.189117
  0
LINE
  8
0
 10
-119.199997
 20
-86.500000
 11
-112.000000
 21
-86.500000
  0
LINE
  8
0
 10
-119.199997
 20
-73.500000
 11
-112.000000
 21
-73.500000
  0
LINE
  8
0
 10
-119.199997
 20
-103.810913
 11
-112.000000
 21
-103.810913
  0
LINE
  8
0
 10
-119.199997
 20
-116.810913
 11
-112.000000
 21
-116.810913
  0
LINE
  8
0
 10
-112.000000
 20
-102.610909
 11
-112.000000
 21
-118.010910
  0
LINE
  8
0
 10
-112.000000
 20
-72.300003
 11
-112.000000
 21
-87.699997
  0
LINE
  8
0
 10
-119.199997
 20
-103.810913
 11
-119.199997
 21
-116.810913
  0
LINE
  8
0
 10
-119.199997
 20
-73.500000
 11
-119.199997
 21
-86.500000
  0
LINE
  8
0
 10
-120.000000
 20
-104.610909
 11
-120.000000
 21
-116.010910
  0
LINE
  8
0
 10
-120.000000
 20
-74.300003
 11
-120.000000
 21
-85.699997
  0
LINE
  8
0
 10
-119.200005
 20
-116.810913
 11
-120.000000
 21
-116.010910
  0
LINE
  8
0
 10
-120.000000
 20
-104.610916
 11
-119.199997
 21
-103.810913
  0
LINE
  8
0
 10
-119.199997
 20
-86.500000
 11
-120.000000
 21
-85.699997
  0
LINE
  8
0
 10
-120.000000
 20
-74.300003
 11
-119.199997
 21
-73.500000
  0
LINE
  8
0
 10
-119.199997
 20
-56.189117
 11
-120.000000
 21
-55.389114
  0
LINE
  8
0
 10
-119.999992
 20
-43.989113
 11
-119.199997
 21
-43.189114
  0
LINE
  8
0
 10
-112.000000
 20
-111.465607
 11
-110.000000
 21
-110.310913
  0
LINE
  8
0
 10
-112.000000
 20
-81.154701
 11
-110.000000
 21
-80.000000
  0
LINE
  8
0
 10
-112.000000
 20
-50.843819
 11
-110.000000
 21
-49.689121
  0
LINE
  8
0
 10
-112.000000
 20
-50.035530
 11
-110.000000
 21
-48.880829
  0
LINE
  8
0
 10
-112.000000
 20
-80.346413
 11
-110.000000
 21
-79.191711
  0
LINE
  8
0
 10
-112.000000
 20
-110.657318
 11
-110.000000
 21
-109.502617
  0
CIRCLE
  8
0
 10
-128.000000
 20
-40.000004
 40
6.500000
  0
CIRCLE
  8
0
 10
-128.000000
 20
-120.000000
 40
6.500000
  0
POINT
  8
0
 10
260.000000
 20
-80.000000
  0
POINT
  8
0
 10
280.000000
 20
-80.000000
  0
LINE
  8
0
 10
260.000000
 20
-25.000000
 11
260.000000
 21
-135.000000
  0
LINE
  8
0
 10
254.000000
 20
-25.000000
 11
254.000000
 21
-135.000000
  0
LINE
  8
0
 10
254.000000
 20
-25.000000
 11
260.000000
 21
-25.000000
  0
LINE
  8
0
 10
254.000000
 20
-135.000000
 11
260.000000
 21
-135.000000
  0
POINT
  8
0
 10
120.000000
 20
-80.000000
  0
POINT
  8
0
 10
175.000000
 20
-80.000000
  0
LINE
  8
0
 10
167.000000
 20
-135.000000
 11
73.000000
 21
-135.000000
  0
LINE
  8
0
 10
167.000000
 20
-25.000000
 11
73.000000
 21
-25.000000
  0
LINE
  8
0
 10
175.000000
 20
-32.999996
 11
175.000000
 21
-127.000000
  0
LINE
  8
0
 10
65.000000
 20
-33.000004
 11
65.000000
 21
-127.000000
  0
LINE
  8
0
  6
CENTER
 10
120.000000
 20
-20.000000
 11
120.000000
 21
-140.000000
  0
LINE
  8
0
  6
CENTER
 10
164.000000
 20
-28.999996
 11
164.000000
 21
-42.999996
  0
LINE
  8
0
  6
CENTER
 10
76.000000
 20
-29.000004
 11
76.000000
 21
-43.000004
  0
LINE
  8
0
  6
CENTER
 10
76.000000
 20
-117.000000
 11
76.000000
 21
-131.000000
  0
LINE
  8
0
  6
CENTER
 10
164.000000
 20
-117.000000
 11
164.000000
 21
-131.000000
  0
LINE
  8
0
  6
CENTER
 10
171.000000
 20
-36.000000
 11
157.000000
 21
-36.000000
  0
LINE
  8
0
  6
CENTER
 10
83.000000
 20
-36.000000
 11
69.000000
 21
-36.000000
  0
LINE
  8
0
  6
CENTER
 10
171.000000
 20
-124.000000
 11
157.000000
 21
-124.000000
  0
LINE
  8
0
  6
CENTER
 10
83.000000
 20
-124.000000
 11
69.000000
 21
-124.000000
  0
LINE
  8
0
  6
CENTER
 10
180.000000
 20
-80.000000
 11
60.000000
 21
-80.000000
  0
LINE
  8
0
 10
157.886749
 20
-80.000000
 11
156.443375
 21
-77.500000
  0
LINE
  8
0
 10
156.443375
 20
-77.500000
 11
153.556625
 21
-77.500000
  0
LINE
  8
0
 10
152.113251
 20
-80.000000
 11
153.556625
 21
-77.500000
  0
LINE
  8
0
 10
153.556625
 20
-82.500000
 11
152.113251
 21
-80.000000
  0
LINE
  8
0
 10
156.443375
 20
-82.500000
 11
153.556625
 21
-82.500000
  0
LINE
  8
0
 10
157.886749
 20
-80.000000
 11
156.443375
 21
-82.500000
  0
LINE
  8
0
 10
105.386772
 20
-49.689102
 11
103.943398
 21
-47.189102
  0
LINE
  8
0
 10
103.943398
 20
-47.189098
 11
101.056641
 21
-47.189098
  0
LINE
  8
0
 10
99.613274
 20
-49.689102
 11
101.056648
 21
-47.189102
  0
LINE
  8
0
 10
101.056648
 20
-52.189102
 11
99.613266
 21
-49.689102
  0
LINE
  8
0
 10
103.943398
 20
-52.189102
 11
101.056641
 21
-52.189102
  0
LINE
  8
0
 10
105.386772
 20
-49.689102
 11
103.943398
 21
-52.189102
  0
LINE
  8
0
 10
105.386719
 20
-110.310867
 11
103.943344
 21
-107.810867
  0
LINE
  8
0
 10
103.943344
 20
-107.810867
 11
101.056587
 21
-107.810867
  0
LINE
  8
0
 10
99.613213
 20
-110.310867
 11
101.056595
 21
-107.810867
  0
LINE
  8
0
 10
101.056595
 20
-112.810867
 11
99.613213
 21
-110.310867
  0
LINE
  8
0
 10
103.943344
 20
-112.810867
 11
101.056587
 21
-112.810867
  0
LINE
  8
0
 10
105.386719
 20
-110.310867
 11
103.943344
 21
-112.810867
  0
ARC
  8
0
 10
167.000000
 20
-32.999996
 40
8.000000
 50
359.999969
 51
90.000000
  0
ARC
  8
0
 10
73.000000
 20
-33.000004
 40
8.000000
 50
90.000000
 51
180.000000
  0
ARC
  8
0
 10
73.000000
 20
-127.000000
 40
8.000000
 50
180.000061
 51
270.000000
  0
ARC
  8
0
 10
167.000000
 20
-127.000000
 40
8.000000
 50
270.000000
 51
0.000000
  0
CIRCLE
  8
0
 10
164.000000
 20
-35.999996
 40
4.500000
  0
CIRCLE
  8
0
 10
76.000000
 20
-36.000004
 40
4.500000
  0
CIRCLE
  8
0
 10
76.000000
 20
-124.000000
 40
4.500000
  0
CIRCLE
  8
0
 10
164.000000
 20
-124.000000
 40
4.500000
  0
CIRCLE
  8
0
 10
120.000000
 20
-80.000000
 40
17.500000
  0
CIRCLE
  8
0
 10
155.000000
 20
-80.000000
 40
8.133802
  0
CIRCLE
  8
0
 10
137.500015
 20
-49.689117
 40
8.133802
  0
CIRCLE
  8
0
 10
102.500023
 20
-49.689102
 40
8.133802
  0
CIRCLE
  8
0
 10
85.000000
 20
-79.999969
 40
8.133802
  0
CIRCLE
  8
0
 10
102.499969
 20
-110.310867
 40
8.133802
  0
CIRCLE
  8
0
 10
137.499954
 20
-110.310913
 40
8.133802
  0
CIRCLE
  8
0
 10
102.500015
 20
-49.689098
 40
8.000000
  0
CIRCLE
  8
0
 10
102.499969
 20
-110.310867
 40
8.000000
  0
CIRCLE
  8
0
 10
155.000000
 20
-80.000000
 40
8.000000
  0
CIRCLE
  8
0
 10
137.500015
 20
-49.689117
 40
4.200000
  0
CIRCLE
  8
0
 10
137.499969
 20
-110.310913
 40
4.200000
  0
CIRCLE
  8
0
 10
85.000000
 20
-80.000000
 40
4.200000
  0
POINT
  8
0
 10
-100.000000
 20
-200.000000
  0
POINT
  8
0
 10
-80.000000
 20
-200.000000
  0
LINE
  8
0
 10
-100.000000
 20
-150.000000
 11
-100.000000
 21
-265.000000
  0
LINE
  8
0
 10
-110.000000
 20
-150.000000
 11
-110.000000
 21
-255.000000
  0
LINE
  8
0
 10
-140.000000
 20
-255.000000
 11
-140.000000
 21
-265.000000
  0
LINE
  8
0
 10
-140.000000
 20
-265.000000
 11
-100.000000
 21
-265.000000
  0
LINE
  8
0
 10
-140.000000
 20
-255.000000
 11
-110.000000
 21
-255.000000
  0
LINE
  8
0
 10
-110.000000
 20
-150.000000
 11
-100.000000
 21
-150.000000
  0
LINE
  8
0
 10
-110.000000
 20
-200.000000
 11
-100.000000
 21
-200.000000
  0
LINE
  8
0
 10
-112.000000
 20
-157.300003
 11
-112.000000
 21
-172.699997
  0
LINE
  8
0
 10
-120.000000
 20
-159.300003
 11
-120.000000
 21
-170.699997
  0
LINE
  8
0
 10
-119.199997
 20
-158.500000
 11
-119.199997
 21
-171.500000
  0
LINE
  8
0
 10
-119.199997
 20
-241.500000
 11
-112.000000
 21
-241.500000
  0
LINE
  8
0
 10
-119.199997
 20
-228.500000
 11
-112.000000
 21
-228.500000
  0
LINE
  8
0
 10
-119.199997
 20
-211.000031
 11
-112.000000
 21
-211.000031
  0
LINE
  8
0
 10
-119.199997
 20
-224.000031
 11
-112.000000
 21
-224.000031
  0
LINE
  8
0
 10
-119.199997
 20
-189.000046
 11
-112.000000
 21
-189.000046
  0
LINE
  8
0
 10
-119.199997
 20
-176.000046
 11
-112.000000
 21
-176.000046
  0
LINE
  8
0
 10
-119.199997
 20
-158.500000
 11
-112.000000
 21
-158.500000
  0
LINE
  8
0
 10
-119.199997
 20
-171.500000
 11
-112.000000
 21
-171.500000
  0
LINE
  8
0
 10
-119.199997
 20
-211.000031
 11
-119.199997
 21
-224.000031
  0
LINE
  8
0
 10
-120.000000
 20
-211.800034
 11
-120.000000
 21
-223.200027
  0
LINE
  8
0
 10
-120.000000
 20
-229.300003
 11
-120.000000
 21
-240.699997
  0
LINE
  8
0
 10
-119.199997
 20
-228.500000
 11
-119.199997
 21
-241.500000
  0
LINE
  8
0
 10
-119.199997
 20
-176.000046
 11
-119.199997
 21
-189.000046
  0
LINE
  8
0
 10
-120.000000
 20
-176.800034
 11
-120.000000
 21
-188.200043
  0
LINE
  8
0
 10
-112.000000
 20
-227.300003
 11
-110.000000
 21
-227.300003
  0
LINE
  8
0
 10
-112.000000
 20
-242.699997
 11
-110.000000
 21
-242.699997
  0
LINE
  8
0
 10
-112.000000
 20
-209.800034
 11
-110.000000
 21
-209.800034
  0
LINE
  8
0
 10
-112.000000
 20
-225.200027
 11
-110.000000
 21
-225.200027
  0
LINE
  8
0
 10
-112.000000
 20
-174.800034
 11
-110.000000
 21
-174.800034
  0
LINE
  8
0
 10
-112.000000
 20
-190.200043
 11
-110.000000
 21
-190.200043
  0
LINE
  8
0
 10
-112.000000
 20
-172.699997
 11
-110.000000
 21
-172.699997
  0
LINE
  8
0
 10
-112.000000
 20
-157.300003
 11
-110.000000
 21
-157.300003
  0
LINE
  8
0
 10
-112.000000
 20
-209.800034
 11
-112.000000
 21
-225.200027
  0
LINE
  8
0
 10
-112.000000
 20
-227.300003
 11
-112.000000
 21
-242.699997
  0
LINE
  8
0
 10
-112.000000
 20
-174.800034
 11
-112.000000
 21
-190.200043
  0
LINE
  8
0
 10
-119.200005
 20
-241.500000
 11
-120.000000
 21
-240.699997
  0
LINE
  8
0
 10
-120.000000
 20
-229.300003
 11
-119.199997
 21
-228.500000
  0
LINE
  8
0
 10
-119.200005
 20
-224.000031
 11
-120.000000
 21
-223.200043
  0
LINE
  8
0
 10
-120.000000
 20
-211.800034
 11
-119.199997
 21
-211.000031
  0
LINE
  8
0
 10
-119.199997
 20
-189.000046
 11
-120.000000
 21
-188.200043
  0
LINE
  8
0
 10
-120.000000
 20
-176.800034
 11
-119.199997
 21
-176.000031
  0
LINE
  8
0
 10
-119.199997
 20
-171.500000
 11
-120.000000
 21
-170.699997
  0
LINE
  8
0
 10
-120.000000
 20
-159.300003
 11
-119.199997
 21
-158.500000
  0
LINE
  8
0
 10
-112.000000
 20
-236.154694
 11
-110.000000
 21
-235.000000
  0
LINE
  8
0
 10
-112.000000
 20
-218.654739
 11
-110.000000
 21
-217.500031
  0
LINE
  8
0
 10
-112.000000
 20
-183.654739
 11
-110.000000
 21
-182.500046
  0
LINE
  8
0
 10
-112.000000
 20
-166.154694
 11
-110.000000
 21
-165.000000
  0
LINE
  8
0
 10
-112.000000
 20
-235.346405
 11
-110.000000
 21
-234.191711
  0
LINE
  8
0
 10
-112.000000
 20
-217.846436
 11
-110.000000
 21
-216.691742
  0
LINE
  8
0
 10
-112.000000
 20
-182.846451
 11
-110.000000
 21
-181.691742
  0
LINE
  8
0
 10
-112.000000
 20
-165.346405
 11
-110.000000
 21
-164.191711
  0
POINT
  8
0
 10
-280.000000
 20
-80.000000
  0
POINT
  8
0
 10
-230.000000
 20
-80.000000
  0
LINE
  8
0
 10
-280.000000
 20
-135.000000
 11
-345.000000
 21
-135.000000
  0
LINE
  8
0
 10
-280.000000
 20
-25.000000
 11
-345.000000
 21
-25.000000
  0
LINE
  8
0
 10
-345.000000
 20
-25.000004
 11
-345.000000
 21
-135.000000
  0
LINE
  8
0
 10
-335.000000
 20
-25.000004
 11
-335.000000
 21
-135.000000
  0
LINE
  8
0
 10
-230.000000
 20
-44.999996
 11
-230.000000
 21
-115.000000
  0
LINE
  8
0
 10
-279.999969
 20
-135.000000
 11
-230.000000
 21
-115.000015
  0
LINE
  8
0
 10
-230.000000
 20
-44.999989
 11
-280.000000
 21
-24.999992
  0
LINE
  8
0
 10
-241.535904
 20
-80.000000
 11
-243.267944
 21
-76.999992
  0
LINE
  8
0
 10
-243.267944
 20
-77.000000
 11
-246.732056
 21
-77.000000
  0
LINE
  8
0
 10
-248.464111
 20
-79.999992
 11
-246.732056
 21
-76.999992
  0
LINE
  8
0
 10
-246.732056
 20
-83.000000
 11
-248.464096
 21
-80.000000
  0
LINE
  8
0
 10
-243.267944
 20
-83.000000
 11
-246.732056
 21
-83.000000
  0
LINE
  8
0
 10
-241.535904
 20
-80.000000
 11
-243.267944
 21
-83.000000
  0
LINE
  8
0
 10
-259.035889
 20
-49.689117
 11
-260.767944
 21
-46.689117
  0
LINE
  8
0
 10
-260.767944
 20
-46.689117
 11
-264.232025
 21
-46.689117
  0
LINE
  8
0
 10
-265.964081
 20
-49.689117
 11
-264.232025
 21
-46.689117
  0
LINE
  8
0
 10
-264.232025
 20
-52.689117
 11
-265.964081
 21
-49.689117
  0
LINE
  8
0
 10
-260.767944
 20
-52.689117
 11
-264.232025
 21
-52.689117
  0
LINE
  8
0
 10
-259.035889
 20
-49.689117
 11
-260.767944
 21
-52.689117
  0
LINE
  8
0
 10
-294.035889
 20
-49.689102
 11
-295.767914
 21
-46.689102
  0
LINE
  8
0
 10
-295.767914
 20
-46.689098
 11
-299.232025
 21
-46.689098
  0
LINE
  8
0
 10
-300.964081
 20
-49.689102
 11
-299.232025
 21
-46.689102
  0
LINE
  8
0
 10
-299.232025
 20
-52.689102
 11
-300.964081
 21
-49.689102
  0
LINE
  8
0
 10
-295.767914
 20
-52.689102
 11
-299.232025
 21
-52.689102
  0
LINE
  8
0
 10
-294.035858
 20
-49.689102
 11
-295.767914
 21
-52.689102
  0
LINE
  8
0
 10
-311.535889
 20
-79.999969
 11
-313.267944
 21
-76.999969
  0
LINE
  8
0
 10
-313.267944
 20
-76.999969
 11
-316.732056
 21
-76.999969
  0
LINE
  8
0
 10
-318.464111
 20
-79.999969
 11
-316.732056
 21
-76.999969
  0
LINE
  8
0
 10
-316.732056
 20
-82.999969
 11
-318.464111
 21
-79.999969
  0
LINE
  8
0
 10
-313.267944
 20
-82.999969
 11
-316.732056
 21
-82.999969
  0
LINE
  8
0
 10
-311.535889
 20
-79.999969
 11
-313.267944
 21
-82.999977
  0
LINE
  8
0
 10
-294.035919
 20
-110.310867
 11
-295.767975
 21
-107.310867
  0
LINE
  8
0
 10
-295.767975
 20
-107.310867
 11
-299.232086
 21
-107.310867
  0
LINE
  8
0
 10
-300.964142
 20
-110.310867
 11
-299.232086
 21
-107.310867
  0
LINE
  8
0
 10
-299.232086
 20
-113.310867
 11
-300.964142
 21
-110.310867
  0
LINE
  8
0
 10
-295.767975
 20
-113.310867
 11
-299.232086
 21
-113.310867
  0
LINE
  8
0
 10
-294.035919
 20
-110.310867
 11
-295.767975
 21
-113.310867
  0
LINE
  8
0
 10
-259.035950
 20
-110.310913
 11
-260.768005
 21
-107.310913
  0
LINE
  8
0
 10
-260.768005
 20
-107.310913
 11
-264.232086
 21
-107.310913
  0
LINE
  8
0
 10
-265.964142
 20
-110.310905
 11
-264.232117
 21
-107.310905
  0
LINE
  8
0
 10
-264.232086
 20
-113.310913
 11
-265.964142
 21
-110.310913
  0
LINE
  8
0
 10
-260.768005
 20
-113.310913
 11
-264.232086
 21
-113.310913
  0
LINE
  8
0
 10
-259.035950
 20
-110.310905
 11
-260.768005
 21
-113.310905
  0
LINE
  8
0
 10
-301.649170
 20
-116.797379
 11
-301.048431
 21
-115.756866
  0
LINE
  8
0
 10
-301.042938
 20
-117.147369
 11
-300.442200
 21
-116.106873
  0
LINE
  8
0
 10
-237.307953
 20
-80.349998
 11
-238.509430
 21
-80.349998
  0
LINE
  8
0
 10
-237.307953
 20
-79.650002
 11
-238.509430
 21
-79.650002
  0
LINE
  8
0
 10
-301.649109
 20
-43.202599
 11
-301.048370
 21
-44.243103
  0
LINE
  8
0
 10
-301.042877
 20
-42.852596
 11
-300.442169
 21
-43.893101
  0
LINE
  8
0
 10
-258.951599
 20
-44.243122
 11
-258.350861
 21
-43.202614
  0
LINE
  8
0
 10
-259.557800
 20
-43.893120
 11
-258.957092
 21
-42.852619
  0
LINE
  8
0
 10
-259.557861
 20
-116.106911
 11
-258.957123
 21
-117.147415
  0
LINE
  8
0
 10
-258.951660
 20
-115.756912
 11
-258.350922
 21
-116.797409
  0
LINE
  8
0
 10
-321.490570
 20
-80.349998
 11
-322.692047
 21
-80.349998
  0
LINE
  8
0
 10
-321.490570
 20
-79.650002
 11
-322.692047
 21
-79.650002
  0
CIRCLE
  8
0
 10
-280.000000
 20
-80.000000
 40
17.500000
  0
CIRCLE
  8
0
 10
-315.000000
 20
-79.999969
 40
6.500000
  0
CIRCLE
  8
0
 10
-297.500031
 20
-110.310867
 40
6.500000
  0
CIRCLE
  8
0
 10
-262.500031
 20
-110.310913
 40
6.500000
  0
CIRCLE
  8
0
 10
-245.000000
 20
-80.000000
 40
6.500000
  0
CIRCLE
  8
0
 10
-262.500000
 20
-49.689117
 40
6.500000
  0
CIRCLE
  8
0
 10
-297.499969
 20
-49.689102
 40
6.500000
  0
ARC
  8
0
 10
-297.499969
 20
-49.689102
 40
7.700006
 50
122.605309
 51
117.394913
  0
ARC
  8
0
 10
-315.000000
 20
-79.999969
 40
7.700007
 50
182.605469
 51
177.394989
  0
ARC
  8
0
 10
-297.500031
 20
-110.310867
 40
7.699997
 50
242.605270
 51
237.394684
  0
ARC
  8
0
 10
-262.500031
 20
-110.310913
 40
7.699983
 50
302.605164
 51
297.394714
  0
ARC
  8
0
 10
-245.000000
 20
-80.000000
 40
7.700006
 50
2.605238
 51
357.394775
  0
ARC
  8
0
 10
-262.500000
 20
-49.689117
 40
7.700011
 50
62.605072
 51
57.394672
  0
CIRCLE
  8
0
 10
-262.500000
 20
-49.689117
 40
5.700000
  0
CIRCLE
  8
0
 10
-297.499969
 20
-49.689102
 40
5.700000
  0
CIRCLE
  8
0
 10
-315.000000
 20
-79.999969
 40
5.700000
  0
CIRCLE
  8
0
 10
-297.500031
 20
-110.310867
 40
5.700000
  0
CIRCLE
  8
0
 10
-262.500031
 20
-110.310913
 40
5.700000
  0
CIRCLE
  8
0
 10
-245.000000
 20
-80.000000
 40
5.700000
  0
ENDSEC
  0
EOF
