  0
SECTION
  2
HEADER
  9
$ACADVER
  1
AC1012
  9
$DWGCODEPAGE
  3
dos932
  9
$INSBASE
 10
0.0
 20
0.0
 30
0.0
  9
$EXTMIN
 10
-281.25
 20
-195.0
 30
0.0
  9
$EXTMAX
 10
285.59998798370361
 20
195.5
 30
0.0
  9
$LIMMIN
 10
-281.25
 20
-195.0
  9
$LIMMAX
 10
285.59998798370361
 20
195.5
  9
$ORTHOMODE
 70
               0
  9
$REGENMODE
 70
               1
  9
$FILLMODE
 70
               1
  9
$QTEXTMODE
 70
               0
  9
$MIRRTEXT
 70
               1
  9
$DRAGMODE
 70
               2
  9
$LTSCALE
 40
1.0
  9
$OSMODE
 70
               0
  9
$ATTMODE
 70
               1
  9
$TEXTSIZE
 40
3.2000000476837158
  9
$TRACEWID
 40
0.05
  9
$TEXTSTYLE
  7
MX_NOTE_STANDARD
  9
$CLAYER
  8
0
  9
$CELTYPE
  6
CONTINUOUS
  9
$CECOLOR
 62
             256
  9
$CELTSCALE
 40
1.0
  9
$DELOBJ
 70
               1
  9
$DISPSILH
 70
               0
  9
$DIMSCALE
 40
1.0
  9
$DIMASZ
 40
2.5
  9
$DIMEXO
 40
1.5
  9
$DIMDLI
 40
3.75
  9
$DIMRND
 40
0.0
  9
$DIMDLE
 40
0.0
  9
$DIMEXE
 40
1.5
  9
$DIMTP
 40
0.0
  9
$DIMTM
 40
0.0
  9
$DIMTXT
 40
3.2000000476837158
  9
$DIMCEN
 40
2.5
  9
$DIMTSZ
 40
0.0
  9
$DIMTOL
 70
               0
  9
$DIMLIM
 70
               0
  9
$DIMTIH
 70
               0
  9
$DIMTOH
 70
               0
  9
$DIMSE1
 70
               0
  9
$DIMSE2
 70
               0
  9
$DIMTAD
 70
               1
  9
$DIMZIN
 70
               8
  9
$DIMBLK
  1

  9
$DIMASO
 70
               1
  9
$DIMSHO
 70
               1
  9
$DIMPOST
  1

  9
$DIMAPOST
  1

  9
$DIMALT
 70
               0
  9
$DIMALTD
 70
               4
  9
$DIMALTF
 40
0.03937007874016
  9
$DIMLFAC
 40
1.0
  9
$DIMTOFL
 70
               1
  9
$DIMTVP
 40
0.0
  9
$DIMTIX
 70
               0
  9
$DIMSOXD
 70
               0
  9
$DIMSAH
 70
               0
  9
$DIMBLK1
  1

  9
$DIMBLK2
  1

  9
$DIMSTYLE
  2
MXDIMSTYLE
  9
$DIMCLRD
 70
               0
  9
$DIMCLRE
 70
               0
  9
$DIMCLRT
 70
               0
  9
$DIMTFAC
 40
1.0
  9
$DIMGAP
 40
1.0
  9
$DIMJUST
 70
               0
  9
$DIMSD1
 70
               0
  9
$DIMSD2
 70
               0
  9
$DIMTOLJ
 70
               1
  9
$DIMTZIN
 70
               0
  9
$DIMALTZ
 70
               0
  9
$DIMALTTZ
 70
               0
  9
$DIMFIT
 70
               3
  9
$DIMUPT
 70
               1
  9
$DIMUNIT
 70
               2
  9
$DIMDEC
 70
               4
  9
$DIMTDEC
 70
               4
  9
$DIMALTU
 70
               2
  9
$DIMALTTD
 70
               4
  9
$DIMTXSTY
  7
MX_NOTE_STANDARD
  9
$DIMAUNIT
 70
               0
  9
$LUNITS
 70
               2
  9
$LUPREC
 70
               4
  9
$SKETCHINC
 40
0.1
  9
$FILLETRAD
 40
0.0
  9
$AUNITS
 70
               0
  9
$AUPREC
 70
               0
  9
$MENU
  1
acad
  9
$ELEVATION
 40
0.0
  9
$PELEVATION
 40
0.0
  9
$THICKNESS
 40
0.0
  9
$LIMCHECK
 70
               0
  9
$BLIPMODE
 70
               1
  9
$CHAMFERA
 40
0.0
  9
$CHAMFERB
 40
0.0
  9
$CHAMFERC
 40
0.0
  9
$CHAMFERD
 40
0.0
  9
$SKPOLY
 70
               0
  9
$TDCREATE
 40
2453517.689733796
  9
$TDUPDATE
 40
2453517.689733796
  9
$TDINDWG
 40
0.0000000000
  9
$TDUSRTIMER
 40
0.0000000000
  9
$USRTIMER
 70
               1
  9
$ANGBASE
 50
0.0
  9
$ANGDIR
 70
               0
  9
$PDMODE
 70
               0
  9
$PDSIZE
 40
0.0
  9
$PLINEWID
 40
0.0
  9
$COORDS
 70
               1
  9
$SPLFRAME
 70
               0
  9
$SPLINETYPE
 70
               6
  9
$SPLINESEGS
 70
               8
  9
$ATTDIA
 70
               0
  9
$ATTREQ
 70
               1
  9
$HANDLING
 70
               1
  9
$HANDSEED
  5
4E3
  9
$SURFTAB1
 70
               6
  9
$SURFTAB2
 70
               6
  9
$SURFTYPE
 70
               6
  9
$SURFU
 70
               6
  9
$SURFV
 70
               6
  9
$UCSNAME
  2

  9
$UCSORG
 10
0.0
 20
0.0
 30
0.0
  9
$UCSXDIR
 10
1.0
 20
0.0
 30
0.0
  9
$UCSYDIR
 10
0.0
 20
1.0
 30
0.0
  9
$PUCSNAME
  2

  9
$PUCSORG
 10
0.0
 20
0.0
 30
0.0
  9
$PUCSXDIR
 10
1.0
 20
0.0
 30
0.0
  9
$PUCSYDIR
 10
0.0
 20
1.0
 30
0.0
  9
$USERI1
 70
               0
  9
$USERI2
 70
               0
  9
$USERI3
 70
               0
  9
$USERI4
 70
               0
  9
$USERI5
 70
               0
  9
$USERR1
 40
0.0
  9
$USERR2
 40
0.0
  9
$USERR3
 40
0.0
  9
$USERR4
 40
0.0
  9
$USERR5
 40
0.0
  9
$WORLDVIEW
 70
               1
  9
$SHADEDGE
 70
               3
  9
$SHADEDIF
 70
              70
  9
$TILEMODE
 70
               1
  9
$MAXACTVP
 70
              16
  9
$PINSBASE
 10
0.0
 20
0.0
 30
0.0
  9
$PLIMCHECK
 70
               0
  9
$PEXTMIN
 10
1.0000000000000000E+20
 20
1.0000000000000000E+20
 30
1.0000000000000000E+20
  9
$PEXTMAX
 10
-1.0000000000000000E+20
 20
-1.0000000000000000E+20
 30
-1.0000000000000000E+20
  9
$PLIMMIN
 10
0.0
 20
0.0
  9
$PLIMMAX
 10
12.0
 20
9.0
  9
$UNITMODE
 70
               0
  9
$VISRETAIN
 70
               0
  9
$PLINEGEN
 70
               1
  9
$PSLTSCALE
 70
               0
  9
$TREEDEPTH
 70
            3020
  9
$PICKSTYLE
 70
               1
  9
$CMLSTYLE
  2
Standard
  9
$CMLJUST
 70
               0
  9
$CMLSCALE
 40
1.0
  9
$SAVEIMAGES
 70
               0
  0
ENDSEC
  0
SECTION
  2
CLASSES
  0
CLASS
  1
LWPOLYLINE
  2
AcDbPolyline
  3
"AutoCAD"
 90
        0
280
               0
281
               1
  0
CLASS
  1
IMAGE
  2
AcDbRasterImage
  3
ISM
 90
      127
280
               0
281
               1
  0
CLASS
  1
OLE2FRAME
  2
AcDbOle2Frame
  3
""
 90
        0
280
               0
281
               1
  0
CLASS
  1
HATCH
  2
AcDbHatch
  3
"ACAD_SEDONA"
 90
        0
280
               0
281
               1
  0
CLASS
  1
DICTIONARYVAR
  2
AcDbDictionaryVar
  3
"AutoCAD"
 90
        0
280
               0
281
               0
  0
CLASS
  1
RASTERVARIABLES
  2
AcDbRasterVariables
  3
ISM
 90
        0
280
               0
281
               0
  0
CLASS
  1
IMAGEDEF
  2
AcDbRasterImageDef
  3
ISM
 90
        0
280
               0
281
               0
  0
CLASS
  1
IMAGEDEF_REACTOR
  2
AcDbRasterImageDefReactor
  3
ISM
 90
        1
280
               0
281
               0
  0
CLASS
  1
IDBUFFER
  2
AcDbIdBuffer
  3
"Acad"
 90
        0
280
               0
281
               0
  0
CLASS
  1
SPATIAL_FILTER
  2
AcDbSpatialFilter
  3
"Acad"
 90
        0
280
               0
281
               0
  0
CLASS
  1
XRECORD
  2
AcDbXrecord
  3
"<Built In>"
 90
        0
280
               0
281
               0
  0
CLASS
  1
SORTENTSTABLE
  2
AcDbSortentsTable
  3
"AutoCAD"
 90
        0
280
               0
281
               0
  0
CLASS
  1
LAYER_INDEX
  2
AcDbLayerIndex
  3
"Acad"
 90
        0
280
               0
281
               0
  0
CLASS
  1
SPATIAL_INDEX
  2
AcDbSpatialIndex
  3
"Acad"
 90
        0
280
               0
281
               0
  0
CLASS
  1
OBJECT_PTR
  2
CAseDLPNTableRecord
  3
"ASE-LPNTableRecord"
 90
        1
280
               0
281
               0
  0
CLASS
  1
LAYOUT
  2
AcDbLayout
  3
"AutoCAD 2000"
 90
        1
280
               0
281
               0
  0
CLASS
  1
PLOTSETTINGS
  2
AcDbPlotSettings
  3
"AutoCAD 2000"
 90
        1
280
               0
281
               0
  0
CLASS
  1
ACDBDICTIONARYWDFLT
  2
AcDbDictionaryWithDefault
  3
"AutoCAD 2000"
 90
        1
280
               0
281
               0
  0
CLASS
  1
ACDBPLACEHOLDER
  2
AcDbPlaceHolder
  3
"AutoCAD 2000"
 90
        1
280
               0
281
               0
  0
ENDSEC
  0
SECTION
  2
TABLES
  0
TABLE
  2
VPORT
  5
7
100
AcDbSymbolTable
 70
               1
  0
VPORT
  5
15
100
AcDbSymbolTableRecord
100
AcDbViewportTableRecord
  2
*ACTIVE
 70
               0
 10
0.0
 20
0.0
 11
1.0
 21
1.0
 12
2.1749939918518066
 22
0.25
 13
0.0
 23
0.0
 14
1.0
 24
1.0
 15
0.0
 25
0.0
 16
0.0
 26
0.0
 36
1.0
 17
0.0
 27
0.0
 37
0.0
 40
394.40500000000003
 41
1.7320508075688772
 42
50.0
 43
0.0
 44
0.0
 50
0.0
 51
0.0
 71
               0
 72
             100
 73
               1
 74
               1
 75
               0
 76
               0
 77
               0
 78
               0
  0
ENDTAB
  0
TABLE
  2
LTYPE
  5
4
100
AcDbSymbolTable
 70
               4
  0
LTYPE
  5
11
100
AcDbSymbolTableRecord
100
AcDbLinetypeTableRecord
  2
BYBLOCK
 70
              64
  3

 72
              65
 73
               0
 40
0.0
  0
LTYPE
  5
12
100
AcDbSymbolTableRecord
100
AcDbLinetypeTableRecord
  2
BYLAYER
 70
              64
  3

 72
              65
 73
               0
 40
0.0
  0
LTYPE
  5
13
100
AcDbSymbolTableRecord
100
AcDbLinetypeTableRecord
  2
CONTINUOUS
 70
              64
  3
Solid line
 72
              65
 73
               0
 40
0.0
  0
LTYPE
  5
51
100
AcDbSymbolTableRecord
100
AcDbLinetypeTableRecord
  2
DASHED
 70
              64
  3
Dashed __ __ __ __ __ __ __ __ __ __ __ __ __ _
 72
              65
 73
               2
 40
4.0
 49
2.0
 74
               0
 49
-2.0
 74
               0
  0
ENDTAB
  0
TABLE
  2
LAYER
  5
2
100
AcDbSymbolTable
 70
               2
  0
LAYER
  5
14
100
AcDbSymbolTableRecord
100
AcDbLayerTableRecord
  2
0
 70
               0
 62
               7
  6
CONTINUOUS
  0
LAYER
  5
1D
100
AcDbSymbolTableRecord
100
AcDbLayerTableRecord
  2
DEFPOINTS
 70
               0
 62
               7
  6
CONTINUOUS
  0
ENDTAB
  0
TABLE
  2
STYLE
  5
3
100
AcDbSymbolTable
 70
               1
  0
STYLE
  5
17
100
AcDbSymbolTableRecord
100
AcDbTextStyleTableRecord
  2
MX_NOTE_STANDARD
 70
               0
 40
0.0
 41
1.0
 50
0.0
 71
               0
 42
3.2000000476837158
  3
txt.shx
  4
extfont.shx
  0
ENDTAB
  0
TABLE
  2
VIEW
  5
5
100
AcDbSymbolTable
 70
               0
  0
ENDTAB
  0
TABLE
  2
UCS
  5
6
100
AcDbSymbolTable
 70
               0
  0
ENDTAB
  0
TABLE
  2
APPID
  5
8
100
AcDbSymbolTable
 70
               1
  0
APPID
  5
16
100
AcDbSymbolTableRecord
100
AcDbRegAppTableRecord
  2
ACAD
 70
               0
  0
ENDTAB
  0
TABLE
  2
DIMSTYLE
  5
9
100
AcDbSymbolTable
 70
               1
  0
DIMSTYLE
105
18
100
AcDbSymbolTableRecord
100
AcDbDimStyleTableRecord
  2
MXDIMSTYLE
 70
               0
  3

  4

  5

  6

  7

 40
1.0
 41
2.5
 42
1.5
 43
3.75
 44
1.5
 45
0.0
 46
0.0
 47
0.0
 48
0.0
 71
               0
 72
               0
 73
               0
 74
               0
 75
               0
 76
               0
 77
               1
 78
               8
140
3.2000000476837158
141
2.5
142
0.0
143
0.03937007874016
144
1.0
145
0.0
146
1.0
147
1.0
170
               0
171
               4
172
               1
173
               0
174
               0
175
               0
176
               0
177
               0
178
               0
270
               2
271
               4
272
               4
273
               2
274
               4
275
               0
280
               0
281
               0
282
               0
283
               1
284
               0
285
               0
286
               0
287
               3
288
               1
340
17
  0
ENDTAB
  0
TABLE
  2
BLOCK_RECORD
  5
1
100
AcDbSymbolTable
 70
              22
  0
BLOCK_RECORD
  5
A
100
AcDbSymbolTableRecord
100
AcDbBlockTableRecord
  2
*MODEL_SPACE
  0
BLOCK_RECORD
  5
B
100
AcDbSymbolTableRecord
100
AcDbBlockTableRecord
  2
*PAPER_SPACE
  0
BLOCK_RECORD
  5
1E
100
AcDbSymbolTableRecord
100
AcDbBlockTableRecord
  2
RAG8-1
  0
BLOCK_RECORD
  5
1F
100
AcDbSymbolTableRecord
100
AcDbBlockTableRecord
  2
RAG8-2
  0
BLOCK_RECORD
  5
20
100
AcDbSymbolTableRecord
100
AcDbBlockTableRecord
  2
RAG8-3
  0
BLOCK_RECORD
  5
21
100
AcDbSymbolTableRecord
100
AcDbBlockTableRecord
  2
RAG8-4
  0
BLOCK_RECORD
  5
22
100
AcDbSymbolTableRecord
100
AcDbBlockTableRecord
  2
RAG8-5
  0
BLOCK_RECORD
  5
23
100
AcDbSymbolTableRecord
100
AcDbBlockTableRecord
  2
RAG8-6
  0
BLOCK_RECORD
  5
24
100
AcDbSymbolTableRecord
100
AcDbBlockTableRecord
  2
RAG8-7
  0
BLOCK_RECORD
  5
25
100
AcDbSymbolTableRecord
100
AcDbBlockTableRecord
  2
RAG8-8
  0
BLOCK_RECORD
  5
26
100
AcDbSymbolTableRecord
100
AcDbBlockTableRecord
  2
RAG8-9
  0
BLOCK_RECORD
  5
27
100
AcDbSymbolTableRecord
100
AcDbBlockTableRecord
  2
RAG8-10
  0
BLOCK_RECORD
  5
28
100
AcDbSymbolTableRecord
100
AcDbBlockTableRecord
  2
RAG8-11
  0
BLOCK_RECORD
  5
29
100
AcDbSymbolTableRecord
100
AcDbBlockTableRecord
  2
RAG8-12
  0
BLOCK_RECORD
  5
2A
100
AcDbSymbolTableRecord
100
AcDbBlockTableRecord
  2
RAG8-13
  0
BLOCK_RECORD
  5
2B
100
AcDbSymbolTableRecord
100
AcDbBlockTableRecord
  2
RAG8-14
  0
BLOCK_RECORD
  5
2C
100
AcDbSymbolTableRecord
100
AcDbBlockTableRecord
  2
RAG8-15
  0
BLOCK_RECORD
  5
2D
100
AcDbSymbolTableRecord
100
AcDbBlockTableRecord
  2
RAG8-16
  0
BLOCK_RECORD
  5
2E
100
AcDbSymbolTableRecord
100
AcDbBlockTableRecord
  2
RAG8-17
  0
BLOCK_RECORD
  5
2F
100
AcDbSymbolTableRecord
100
AcDbBlockTableRecord
  2
RAG8-18
  0
BLOCK_RECORD
  5
30
100
AcDbSymbolTableRecord
100
AcDbBlockTableRecord
  2
RAG8-19
  0
BLOCK_RECORD
  5
31
100
AcDbSymbolTableRecord
100
AcDbBlockTableRecord
  2
RAG8-20
  0
BLOCK_RECORD
  5
32
100
AcDbSymbolTableRecord
100
AcDbBlockTableRecord
  2
RAG8-21
  0
BLOCK_RECORD
  5
33
100
AcDbSymbolTableRecord
100
AcDbBlockTableRecord
  2
RAG8-22
  0
ENDTAB
  0
ENDSEC
  0
SECTION
  2
BLOCKS
  0
BLOCK
  5
D
100
AcDbEntity
  8
0
100
AcDbBlockBegin
  2
*MODEL_SPACE
 70
               0
 10
0.0
 20
0.0
 30
0.0
  3
*MODEL_SPACE
  1

  0
ENDBLK
  5
E
100
AcDbEntity
  8
0
100
AcDbBlockEnd
  0
BLOCK
  5
F
100
AcDbEntity
 67
               1
  8
0
100
AcDbBlockBegin
  2
*PAPER_SPACE
 70
               0
 10
0.0
 20
0.0
 30
0.0
  3
*PAPER_SPACE
  1

  0
ENDBLK
  5
10
100
AcDbEntity
 67
               1
  8
0
100
AcDbBlockEnd
  0
BLOCK
  5
34
100
AcDbEntity
  8
0
100
AcDbBlockBegin
  2
RAG8-1
 70
               0
 10
0.0
 20
0.0
 30
0.0
  3
RAG8-1
  1

  0
LINE
  5
35
100
AcDbEntity
  8
0
  6
CONTINUOUS
 62
               7
100
AcDbLine
 10
-30.581857366745851
 20
-50.349999999999909
 30
0.0
 11
-30.581857366745851
 21
-61.0
 31
0.0
  0
LINE
  5
36
100
AcDbEntity
  8
0
  6
CONTINUOUS
 62
               7
100
AcDbLine
 10
30.581857366745837
 20
-50.349999999999909
 30
0.0
 11
30.581857366745837
 21
-61.0
 31
0.0
  0
LINE
  5
37
100
AcDbEntity
  8
0
  6
CONTINUOUS
 62
               7
100
AcDbLine
 10
30.581857366745837
 20
-8.0
 30
0.0
 11
30.581857366745837
 21
-45.650000000000091
 31
0.0
  0
LINE
  5
38
100
AcDbEntity
  8
0
  6
CONTINUOUS
 62
               7
100
AcDbLine
 10
-30.581857366745851
 20
-8.0
 30
0.0
 11
-30.581857366745851
 21
-45.650000000000091
 31
0.0
  0
LINE
  5
39
100
AcDbEntity
  8
0
  6
CONTINUOUS
 62
               7
100
AcDbLine
 10
23.00000000000005
 20
-17.386751345948085
 30
0.0
 11
18.000000000000107
 21
-20.273502691896255
 31
0.0
  0
LINE
  5
3A
100
AcDbEntity
  8
0
  6
CONTINUOUS
 62
               7
100
AcDbLine
 10
18.000000000000107
 20
-20.273502691896255
 30
0.0
 11
13.000000000000107
 21
-17.386751345948142
 31
0.0
  0
LINE
  5
3B
100
AcDbEntity
  8
0
  6
CONTINUOUS
 62
               7
100
AcDbLine
 10
23.00000000000005
 20
-11.613248654051858
 30
0.0
 11
18.00000000000005
 21
-8.7264973081037454
 31
0.0
  0
CIRCLE
  5
3C
100
AcDbEntity
  8
0
  6
CONTINUOUS
 62
               7
100
AcDbCircle
 10
18.000000000000078
 20
-14.5
 30
0.0
 40
4.0
  0
LINE
  5
3D
100
AcDbEntity
  8
0
  6
CONTINUOUS
 62
               7
100
AcDbLine
 10
18.00000000000005
 20
-8.7264973081037454
 30
0.0
 11
13.000000000000078
 21
-11.613248654051915
 31
0.0
  0
CIRCLE
  5
3E
100
AcDbEntity
  8
0
  6
CONTINUOUS
 62
               7
100
AcDbCircle
 10
18.000000000000078
 20
-14.5
 30
0.0
 40
5.0
  0
LINE
  5
3F
100
AcDbEntity
  8
0
  6
CONTINUOUS
 62
               7
100
AcDbLine
 10
17.400000000000055
 20
-10.545256013342964
 30
0.0
 11
17.400000000000055
 21
-18.454743986657036
 31
0.0
  0
LINE
  5
40
100
AcDbEntity
  8
0
  6
CONTINUOUS
 62
               7
100
AcDbLine
 10
18.600000000000072
 20
-10.545256013342964
 30
0.0
 11
18.600000000000072
 21
-18.454743986657036
 31
0.0
  0
LINE
  5
41
100
AcDbEntity
  8
0
  6
CONTINUOUS
 62
               7
100
AcDbLine
 10
13.000000000000078
 20
-11.613248654051915
 30
0.0
 11
13.000000000000107
 21
-17.386751345948142
 31
0.0
  0
LINE
  5
42
100
AcDbEntity
  8
0
  6
CONTINUOUS
 62
               7
100
AcDbLine
 10
23.00000000000005
 20
-11.613248654051858
 30
0.0
 11
23.00000000000005
 21
-17.386751345948085
 31
0.0
  0
LINE
  5
43
100
AcDbEntity
  8
0
  6
CONTINUOUS
 62
               7
100
AcDbLine
 10
-12.999999999999943
 20
-11.613248654051858
 30
0.0
 11
-12.999999999999943
 21
-17.386751345948085
 31
0.0
  0
LINE
  5
44
100
AcDbEntity
  8
0
  6
CONTINUOUS
 62
               7
100
AcDbLine
 10
-22.999999999999915
 20
-11.613248654051915
 30
0.0
 11
-22.999999999999886
 21
-17.386751345948142
 31
0.0
  0
LINE
  5
45
100
AcDbEntity
  8
0
  6
CONTINUOUS
 62
               7
100
AcDbLine
 10
-17.39999999999992
 20
-10.545256013342964
 30
0.0
 11
-17.39999999999992
 21
-18.454743986657036
 31
0.0
  0
LINE
  5
46
100
AcDbEntity
  8
0
  6
CONTINUOUS
 62
               7
100
AcDbLine
 10
-18.599999999999937
 20
-10.545256013342964
 30
0.0
 11
-18.599999999999937
 21
-18.454743986657036
 31
0.0
  0
CIRCLE
  5
47
100
AcDbEntity
  8
0
  6
CONTINUOUS
 62
               7
100
AcDbCircle
 10
-17.999999999999915
 20
-14.5
 30
0.0
 40
5.0
  0
LINE
  5
48
100
AcDbEntity
  8
0
  6
CONTINUOUS
 62
               7
100
AcDbLine
 10
-17.999999999999943
 20
-8.7264973081037454
 30
0.0
 11
-22.999999999999915
 21
-11.613248654051915
 31
0.0
  0
CIRCLE
  5
49
100
AcDbEntity
  8
0
  6
CONTINUOUS
 62
               7
100
AcDbCircle
 10
-17.999999999999915
 20
-14.5
 30
0.0
 40
4.0
  0
LINE
  5
4A
100
AcDbEntity
  8
0
  6
CONTINUOUS
 62
               7
100
AcDbLine
 10
-12.999999999999943
 20
-11.613248654051858
 30
0.0
 11
-17.999999999999943
 21
-8.7264973081037454
 31
0.0
  0
LINE
  5
4B
100
AcDbEntity
  8
0
  6
CONTINUOUS
 62
               7
100
AcDbLine
 10
-17.999999999999886
 20
-20.273502691896255
 30
0.0
 11
-22.999999999999886
 21
-17.386751345948142
 31
0.0
  0
LINE
  5
4C
100
AcDbEntity
  8
0
  6
CONTINUOUS
 62
               7
100
AcDbLine
 10
-12.999999999999943
 20
-17.386751345948085
 30
0.0
 11
-17.999999999999886
 21
-20.273502691896255
 31
0.0
  0
LINE
  5
4D
100
AcDbEntity
  8
0
  6
CONTINUOUS
 62
               7
100
AcDbLine
 10
22.0
 20
-5.5
 30
0.0
 11
22.0
 21
-6.0
 31
0.0
  0
LINE
  5
4E
100
AcDbEntity
  8
0
  6
CONTINUOUS
 62
               7
100
AcDbLine
 10
-22.0
 20
-5.5
 30
0.0
 11
-22.0
 21
-6.0
 31
0.0
  0
LINE
  5
4F
100
AcDbEntity
  8
0
  6
CONTINUOUS
 62
               7
100
AcDbLine
 10
23.0
 20
-5.5
 30
0.0
 11
-23.0
 21
-5.5
 31
0.0
  0
LINE
  5
50
100
AcDbEntity
  8
0
  6
CONTINUOUS
 62
               7
100
AcDbLine
 10
-23.0
 20
0.0
 30
0.0
 11
-23.0
 21
-5.5
 31
0.0
  0
LINE
  5
52
100
AcDbEntity
  8
0
  6
DASHED
 62
               2
100
AcDbLine
 10
-9.0
 20
0.0
 30
0.0
 11
-9.0
 21
-6.0
 31
0.0
  0
LINE
  5
53
100
AcDbEntity
  8
0
  6
CONTINUOUS
 62
               7
100
AcDbLine
 10
23.0
 20
0.0
 30
0.0
 11
23.0
 21
-5.5
 31
0.0
  0
LINE
  5
54
100
AcDbEntity
  8
0
  6
CONTINUOUS
 62
               7
100
AcDbLine
 10
23.0
 20
0.0
 30
0.0
 11
-23.0
 21
0.0
 31
0.0
  0
LINE
  5
55
100
AcDbEntity
  8
0
  6
DASHED
 62
               2
100
AcDbLine
 10
9.0
 20
0.0
 30
0.0
 11
9.0
 21
-6.0
 31
0.0
  0
LINE
  5
56
100
AcDbEntity
  8
0
  6
CONTINUOUS
 62
               7
100
AcDbLine
 10
-33.0
 20
-8.0
 30
0.0
 11
-33.0
 21
-45.650000000000091
 31
0.0
  0
LINE
  5
57
100
AcDbEntity
  8
0
  6
CONTINUOUS
 62
               7
100
AcDbLine
 10
33.0
 20
-8.0
 30
0.0
 11
33.0
 21
-45.650000000000091
 31
0.0
  0
LINE
  5
58
100
AcDbEntity
  8
0
  6
CONTINUOUS
 62
               7
100
AcDbLine
 10
-33.0
 20
-61.0
 30
0.0
 11
33.0
 21
-61.0
 31
0.0
  0
LINE
  5
59
100
AcDbEntity
  8
0
  6
CONTINUOUS
 62
               7
100
AcDbLine
 10
-23.0
 20
-61.0
 30
0.0
 11
-23.0
 21
-64.0
 31
0.0
  0
LINE
  5
5A
100
AcDbEntity
  8
0
  6
CONTINUOUS
 62
               7
100
AcDbLine
 10
23.0
 20
-61.0
 30
0.0
 11
23.0
 21
-64.0
 31
0.0
  0
LINE
  5
5B
100
AcDbEntity
  8
0
  6
CONTINUOUS
 62
               7
100
AcDbLine
 10
-24.0
 20
-6.0
 30
0.0
 11
-24.0
 21
-8.0
 31
0.0
  0
LINE
  5
5C
100
AcDbEntity
  8
0
  6
CONTINUOUS
 62
               7
100
AcDbLine
 10
24.0
 20
-6.0
 30
0.0
 11
24.0
 21
-8.0
 31
0.0
  0
LINE
  5
5D
100
AcDbEntity
  8
0
  6
CONTINUOUS
 62
               7
100
AcDbLine
 10
-23.0
 20
-64.0
 30
0.0
 11
23.0
 21
-64.0
 31
0.0
  0
LINE
  5
5E
100
AcDbEntity
  8
0
  6
CONTINUOUS
 62
               7
100
AcDbLine
 10
-24.0
 20
-6.0
 30
0.0
 11
24.0
 21
-6.0
 31
0.0
  0
LINE
  5
5F
100
AcDbEntity
  8
0
  6
CONTINUOUS
 62
               7
100
AcDbLine
 10
-33.0
 20
-8.0
 30
0.0
 11
33.0
 21
-8.0
 31
0.0
  0
CIRCLE
  5
60
100
AcDbEntity
  8
0
  6
CONTINUOUS
 62
               7
100
AcDbCircle
 10
-18.0
 20
-26.0
 30
0.0
 40
2.75
  0
CIRCLE
  5
61
100
AcDbEntity
  8
0
  6
CONTINUOUS
 62
               7
100
AcDbCircle
 10
18.0
 20
-26.0
 30
0.0
 40
2.75
  0
LINE
  5
62
100
AcDbEntity
  8
0
  6
CONTINUOUS
 62
               7
100
AcDbLine
 10
21.523243250030873
 20
-61.0
 30
0.0
 11
21.523243250030873
 21
-64.0
 31
0.0
  0
LINE
  5
63
100
AcDbEntity
  8
0
  6
CONTINUOUS
 62
               7
100
AcDbLine
 10
-21.523243250030873
 20
-61.0
 30
0.0
 11
-21.523243250030873
 21
-64.0
 31
0.0
  0
CIRCLE
  5
64
100
AcDbEntity
  8
0
  6
CONTINUOUS
 62
               7
100
AcDbCircle
 10
18.0
 20
-26.0
 30
0.0
 40
4.75
  0
CIRCLE
  5
65
100
AcDbEntity
  8
0
  6
CONTINUOUS
 62
               7
100
AcDbCircle
 10
-18.0
 20
-26.0
 30
0.0
 40
4.75
  0
LINE
  5
66
100
AcDbEntity
  8
0
  6
CONTINUOUS
 62
               2
100
AcDbLine
 10
17.900000000000091
 20
-48.0
 30
0.0
 11
35.352773094329564
 21
-48.0
 31
0.0
  0
LINE
  5
67
100
AcDbEntity
  8
0
  6
CONTINUOUS
 62
               7
100
AcDbLine
 10
24.688854381999818
 20
-49.599999999999909
 30
0.0
 11
25.200000381999871
 21
-49.599999999999909
 31
0.0
  0
LINE
  5
68
100
AcDbEntity
  8
0
  6
CONTINUOUS
 62
               7
100
AcDbLine
 10
25.200000381999871
 20
-49.599999999999909
 30
0.0
 11
25.200000381999871
 21
-50.349999999999909
 31
0.0
  0
LINE
  5
69
100
AcDbEntity
  8
0
  6
CONTINUOUS
 62
               7
100
AcDbLine
 10
24.688854381999818
 20
-46.400000000000091
 30
0.0
 11
25.200000381999871
 21
-46.400000000000091
 31
0.0
  0
LINE
  5
6A
100
AcDbEntity
  8
0
  6
CONTINUOUS
 62
               7
100
AcDbLine
 10
25.200000381999871
 20
-46.400000000000091
 30
0.0
 11
25.200000381999871
 21
-45.650000000000091
 31
0.0
  0
LINE
  5
6B
100
AcDbEntity
  8
0
  6
CONTINUOUS
 62
               7
100
AcDbLine
 10
25.200000381999871
 20
-45.650000000000091
 30
0.0
 11
33.0
 21
-45.650000000000091
 31
0.0
  0
LINE
  5
6C
100
AcDbEntity
  8
0
  6
CONTINUOUS
 62
               7
100
AcDbLine
 10
25.200000381999871
 20
-50.349999999999909
 30
0.0
 11
33.0
 21
-50.349999999999909
 31
0.0
  0
ARC
  5
6D
100
AcDbEntity
  8
0
  6
CONTINUOUS
 62
               7
100
AcDbCircle
 10
22.900000000000091
 20
-48.0
 30
0.0
 40
2.3999999999999999
100
AcDbArc
 50
41.810314895777545
 51
318.18968510422252
  0
ARC
  5
6E
100
AcDbEntity
  8
0
  6
CONTINUOUS
 62
               7
100
AcDbCircle
 10
-22.900000000000091
 20
-48.0
 30
0.0
 40
2.3999999999999999
100
AcDbArc
 50
221.81031489577748
 51
138.18968510422241
  0
LINE
  5
6F
100
AcDbEntity
  8
0
  6
CONTINUOUS
 62
               2
100
AcDbLine
 10
-17.900000000000091
 20
-48.0
 30
0.0
 11
-34.694130107507476
 21
-48.0
 31
0.0
  0
LINE
  5
70
100
AcDbEntity
  8
0
  6
CONTINUOUS
 62
               7
100
AcDbLine
 10
-25.200000381999871
 20
-45.650000000000091
 30
0.0
 11
-33.0
 21
-45.650000000000091
 31
0.0
  0
LINE
  5
71
100
AcDbEntity
  8
0
  6
CONTINUOUS
 62
               7
100
AcDbLine
 10
-25.200000381999871
 20
-46.400000000000091
 30
0.0
 11
-25.200000381999871
 21
-45.650000000000091
 31
0.0
  0
LINE
  5
72
100
AcDbEntity
  8
0
  6
CONTINUOUS
 62
               7
100
AcDbLine
 10
-24.688854381999818
 20
-46.400000000000091
 30
0.0
 11
-25.200000381999871
 21
-46.400000000000091
 31
0.0
  0
LINE
  5
73
100
AcDbEntity
  8
0
  6
CONTINUOUS
 62
               7
100
AcDbLine
 10
-25.200000381999871
 20
-49.599999999999909
 30
0.0
 11
-25.200000381999871
 21
-50.349999999999909
 31
0.0
  0
LINE
  5
74
100
AcDbEntity
  8
0
  6
CONTINUOUS
 62
               7
100
AcDbLine
 10
-24.688854381999818
 20
-49.599999999999909
 30
0.0
 11
-25.200000381999871
 21
-49.599999999999909
 31
0.0
  0
LINE
  5
75
100
AcDbEntity
  8
0
  6
CONTINUOUS
 62
               7
100
AcDbLine
 10
-25.200000381999871
 20
-50.349999999999909
 30
0.0
 11
-33.0
 21
-50.349999999999909
 31
0.0
  0
LINE
  5
76
100
AcDbEntity
  8
0
  6
CONTINUOUS
 62
               7
100
AcDbLine
 10
33.0
 20
-50.349999999999909
 30
0.0
 11
33.0
 21
-61.0
 31
0.0
  0
LINE
  5
77
100
AcDbEntity
  8
0
  6
CONTINUOUS
 62
               7
100
AcDbLine
 10
-33.0
 20
-50.349999999999909
 30
0.0
 11
-33.0
 21
-61.0
 31
0.0
  0
LINE
  5
78
100
AcDbEntity
  8
0
  6
CONTINUOUS
 62
               2
100
AcDbLine
 10
11.000000000000092
 20
-14.5
 30
0.0
 11
25.00000000000005
 21
-14.5
 31
0.0
  0
LINE
  5
79
100
AcDbEntity
  8
0
  6
CONTINUOUS
 62
               2
100
AcDbLine
 10
-10.999999999999943
 20
-14.5
 30
0.0
 11
-24.999999999999901
 21
-14.5
 31
0.0
  0
CIRCLE
  5
7A
100
AcDbEntity
  8
0
  6
CONTINUOUS
 62
               7
100
AcDbCircle
 10
6.5
 20
-84.499984741210938
 30
0.0
 40
2.0999994277954102
  0
CIRCLE
  5
7B
100
AcDbEntity
  8
0
  6
CONTINUOUS
 62
               2
100
AcDbCircle
 10
6.5
 20
-84.499984741210938
 30
0.0
 40
2.5
  0
CIRCLE
  5
7C
100
AcDbEntity
  8
0
  6
CONTINUOUS
 62
               7
100
AcDbCircle
 10
-6.5
 20
-84.499984741210938
 30
0.0
 40
2.0999994277954102
  0
CIRCLE
  5
7D
100
AcDbEntity
  8
0
  6
CONTINUOUS
 62
               2
100
AcDbCircle
 10
-6.5
 20
-84.499984741210938
 30
0.0
 40
2.5
  0
LINE
  5
7E
100
AcDbEntity
  8
0
  6
CONTINUOUS
 62
               2
100
AcDbLine
 10
6.5
 20
-88.5
 30
0.0
 11
6.5
 21
-80.5
 31
0.0
  0
LINE
  5
7F
100
AcDbEntity
  8
0
  6
CONTINUOUS
 62
               2
100
AcDbLine
 10
10.5
 20
-84.5
 30
0.0
 11
2.5
 21
-84.5
 31
0.0
  0
LINE
  5
80
100
AcDbEntity
  8
0
  6
CONTINUOUS
 62
               2
100
AcDbLine
 10
-10.5
 20
-84.5
 30
0.0
 11
-2.5
 21
-84.5
 31
0.0
  0
LINE
  5
81
100
AcDbEntity
  8
0
  6
CONTINUOUS
 62
               2
100
AcDbLine
 10
-6.5
 20
-88.5
 30
0.0
 11
-6.5
 21
-80.5
 31
0.0
  0
LINE
  5
82
100
AcDbEntity
  8
0
  6
CONTINUOUS
 62
               7
100
AcDbLine
 10
-14.0
 20
-94.0
 30
0.0
 11
-14.0
 21
-75.0
 31
0.0
  0
LINE
  5
83
100
AcDbEntity
  8
0
  6
CONTINUOUS
 62
               7
100
AcDbLine
 10
14.0
 20
-94.0
 30
0.0
 11
14.0
 21
-75.0
 31
0.0
  0
LINE
  5
84
100
AcDbEntity
  8
0
  6
CONTINUOUS
 62
               7
100
AcDbLine
 10
-22.5
 20
-75.0
 30
0.0
 11
22.5
 21
-75.0
 31
0.0
  0
LINE
  5
85
100
AcDbEntity
  8
0
  6
CONTINUOUS
 62
               7
100
AcDbLine
 10
-10.0
 20
-96.0
 30
0.0
 11
10.0
 21
-96.0
 31
0.0
  0
LINE
  5
86
100
AcDbEntity
  8
0
  6
CONTINUOUS
 62
               7
100
AcDbLine
 10
10.0
 20
-96.0
 30
0.0
 11
10.0
 21
-94.0
 31
0.0
  0
LINE
  5
87
100
AcDbEntity
  8
0
  6
CONTINUOUS
 62
               7
100
AcDbLine
 10
-10.0
 20
-96.0
 30
0.0
 11
-10.0
 21
-94.0
 31
0.0
  0
LINE
  5
88
100
AcDbEntity
  8
0
  6
CONTINUOUS
 62
               7
100
AcDbLine
 10
-22.5
 20
-94.0
 30
0.0
 11
22.5
 21
-94.0
 31
0.0
  0
LINE
  5
89
100
AcDbEntity
  8
0
  6
CONTINUOUS
 62
               7
100
AcDbLine
 10
-14.5
 20
-78.600000000000023
 30
0.0
 11
-14.900000000000034
 21
-79.0
 31
0.0
  0
LINE
  5
8A
100
AcDbEntity
  8
0
  6
CONTINUOUS
 62
               7
100
AcDbLine
 10
-21.099999999999966
 20
-79.0
 30
0.0
 11
-21.5
 21
-78.600000000000023
 31
0.0
  0
LINE
  5
8B
100
AcDbEntity
  8
0
  6
CONTINUOUS
 62
               7
100
AcDbLine
 10
-21.5
 20
-78.600000000000023
 30
0.0
 11
-14.5
 21
-78.600000000000023
 31
0.0
  0
LINE
  5
8C
100
AcDbEntity
  8
0
  6
CONTINUOUS
 62
               7
100
AcDbLine
 10
-21.099999999999966
 20
-79.0
 30
0.0
 11
-14.900000000000034
 21
-79.0
 31
0.0
  0
LINE
  5
8D
100
AcDbEntity
  8
0
  6
CONTINUOUS
 62
               7
100
AcDbLine
 10
-14.5
 20
-78.600000000000023
 30
0.0
 11
-14.5
 21
-75.0
 31
0.0
  0
LINE
  5
8E
100
AcDbEntity
  8
0
  6
CONTINUOUS
 62
               7
100
AcDbLine
 10
-21.5
 20
-78.600000000000023
 30
0.0
 11
-21.5
 21
-75.0
 31
0.0
  0
LINE
  5
8F
100
AcDbEntity
  8
0
  6
CONTINUOUS
 62
               7
100
AcDbLine
 10
21.5
 20
-78.600000000000023
 30
0.0
 11
21.099999999999966
 21
-79.0
 31
0.0
  0
LINE
  5
90
100
AcDbEntity
  8
0
  6
CONTINUOUS
 62
               7
100
AcDbLine
 10
14.900000000000034
 20
-79.0
 30
0.0
 11
14.5
 21
-78.600000000000023
 31
0.0
  0
LINE
  5
91
100
AcDbEntity
  8
0
  6
CONTINUOUS
 62
               7
100
AcDbLine
 10
14.5
 20
-78.600000000000023
 30
0.0
 11
21.5
 21
-78.600000000000023
 31
0.0
  0
LINE
  5
92
100
AcDbEntity
  8
0
  6
CONTINUOUS
 62
               7
100
AcDbLine
 10
14.900000000000034
 20
-79.0
 30
0.0
 11
21.099999999999966
 21
-79.0
 31
0.0
  0
LINE
  5
93
100
AcDbEntity
  8
0
  6
CONTINUOUS
 62
               7
100
AcDbLine
 10
21.5
 20
-78.600000000000023
 30
0.0
 11
21.5
 21
-75.0
 31
0.0
  0
LINE
  5
94
100
AcDbEntity
  8
0
  6
CONTINUOUS
 62
               7
100
AcDbLine
 10
14.5
 20
-78.600000000000023
 30
0.0
 11
14.5
 21
-75.0
 31
0.0
  0
LINE
  5
95
100
AcDbEntity
  8
0
  6
CONTINUOUS
 62
               7
100
AcDbLine
 10
-3.0000000000000568
 20
-102.5
 30
0.0
 11
-3.0000000000000568
 21
-96.0
 31
0.0
  0
LINE
  5
96
100
AcDbEntity
  8
0
  6
CONTINUOUS
 62
               7
100
AcDbLine
 10
2.9999999999999432
 20
-97.5
 30
0.0
 11
2.9999999999999432
 21
-96.0
 31
0.0
  0
LINE
  5
97
100
AcDbEntity
  8
0
  6
CONTINUOUS
 62
               7
100
AcDbLine
 10
-3.0000000000000568
 20
-102.5
 30
0.0
 11
-2.5000000000000568
 21
-103.0
 31
0.0
  0
LINE
  5
98
100
AcDbEntity
  8
0
  6
CONTINUOUS
 62
               7
100
AcDbLine
 10
2.4999999999999432
 20
-102.5
 30
0.0
 11
-3.0000000000000568
 21
-102.5
 31
0.0
  0
LINE
  5
99
100
AcDbEntity
  8
0
  6
CONTINUOUS
 62
               7
100
AcDbLine
 10
2.4999999999999432
 20
-103.0
 30
0.0
 11
-2.5000000000000568
 21
-103.0
 31
0.0
  0
LINE
  5
9A
100
AcDbEntity
  8
0
  6
CONTINUOUS
 62
               7
100
AcDbLine
 10
2.4999999999999432
 20
-103.0
 30
0.0
 11
2.4999999999999432
 21
-98.0
 31
0.0
  0
LINE
  5
9B
100
AcDbEntity
  8
0
  6
CONTINUOUS
 62
               7
100
AcDbLine
 10
2.4999999999999432
 20
-98.0
 30
0.0
 11
2.9999999999999432
 21
-97.5
 31
0.0
  0
LINE
  5
9C
100
AcDbEntity
  8
0
  6
CONTINUOUS
 62
               7
100
AcDbLine
 10
22.5
 20
-94.0
 30
0.0
 11
22.5
 21
-64.0
 31
0.0
  0
LINE
  5
9D
100
AcDbEntity
  8
0
  6
CONTINUOUS
 62
               7
100
AcDbLine
 10
-22.5
 20
-94.0
 30
0.0
 11
-22.5
 21
-64.0
 31
0.0
  0
LINE
  5
9E
100
AcDbEntity
  8
0
  6
CONTINUOUS
 62
               2
100
AcDbLine
 10
10.5
 20
-26.0
 30
0.0
 11
25.5
 21
-26.0
 31
0.0
  0
LINE
  5
9F
100
AcDbEntity
  8
0
  6
CONTINUOUS
 62
               2
100
AcDbLine
 10
-25.5
 20
-26.0
 30
0.0
 11
-10.5
 21
-26.0
 31
0.0
  0
LINE
  5
A0
100
AcDbEntity
  8
0
  6
CONTINUOUS
 62
               2
100
AcDbLine
 10
22.900000000000091
 20
-53.0
 30
0.0
 11
22.900000000000091
 21
-43.0
 31
0.0
  0
LINE
  5
A1
100
AcDbEntity
  8
0
  6
CONTINUOUS
 62
               2
100
AcDbLine
 10
-22.900000000000091
 20
-53.0
 30
0.0
 11
-22.900000000000091
 21
-43.0
 31
0.0
  0
LINE
  5
A2
100
AcDbEntity
  8
0
  6
CONTINUOUS
 62
               2
100
AcDbLine
 10
-18.0
 20
-33.5
 30
0.0
 11
-17.999999999999886
 21
-6.7264973081037738
 31
0.0
  0
LINE
  5
A3
100
AcDbEntity
  8
0
  6
CONTINUOUS
 62
               2
100
AcDbLine
 10
18.0
 20
-33.5
 30
0.0
 11
18.000000000000107
 21
-6.7264973081037738
 31
0.0
  0
CIRCLE
  5
A4
100
AcDbEntity
  8
0
  6
CONTINUOUS
 62
               2
100
AcDbCircle
 10
-17.999999999999915
 20
-14.5
 30
0.0
 40
3.625
  0
CIRCLE
  5
A5
100
AcDbEntity
  8
0
  6
CONTINUOUS
 62
               2
100
AcDbCircle
 10
18.000000000000075
 20
-14.5
 30
0.0
 40
3.625
  0
LINE
  5
A6
100
AcDbEntity
  8
0
  6
CONTINUOUS
 62
               2
100
AcDbLine
 10
-28.0
 20
-11.0
 30
0.0
 11
-28.0
 21
-5.0
 31
0.0
  0
LINE
  5
A7
100
AcDbEntity
  8
0
  6
CONTINUOUS
 62
               2
100
AcDbLine
 10
28.0
 20
-11.0
 30
0.0
 11
28.0
 21
-5.0
 31
0.0
  0
LINE
  5
A8
100
AcDbEntity
  8
0
  6
CONTINUOUS
 62
               2
100
AcDbLine
 10
0.0
 20
6.0
 30
0.0
 11
0.0
 21
-107.99999999999997
 31
0.0
  0
ENDBLK
  5
A9
100
AcDbEntity
  8
0
100
AcDbBlockEnd
  0
BLOCK
  5
AA
100
AcDbEntity
  8
0
100
AcDbBlockBegin
  2
RAG8-2
 70
               0
 10
0.0
 20
0.0
 30
0.0
  3
RAG8-2
  1

  0
LINE
  5
AB
100
AcDbEntity
  8
0
  6
CONTINUOUS
 62
               7
100
AcDbLine
 10
21.708293346092432
 20
-50.350000000000129
 30
0.0
 11
21.708293346092432
 21
-61.000000000000107
 31
0.0
  0
LINE
  5
AC
100
AcDbEntity
  8
0
  6
CONTINUOUS
 62
               7
100
AcDbLine
 10
-21.708293346092432
 20
-50.350000000000129
 30
0.0
 11
-21.708293346092432
 21
-61.000000000000107
 31
0.0
  0
LINE
  5
AD
100
AcDbEntity
  8
0
  6
CONTINUOUS
 62
               7
100
AcDbLine
 10
21.708293346092432
 20
-8.0
 30
0.0
 11
21.708293346092432
 21
-45.650000000000198
 31
0.0
  0
LINE
  5
AE
100
AcDbEntity
  8
0
  6
CONTINUOUS
 62
               7
100
AcDbLine
 10
-21.708293346092432
 20
-8.0
 30
0.0
 11
-21.708293346092432
 21
-45.650000000000198
 31
0.0
  0
LINE
  5
AF
100
AcDbEntity
  8
0
  6
CONTINUOUS
 62
               7
100
AcDbLine
 10
26.997395868953816
 20
-10.500000000000114
 30
0.0
 11
34.0
 21
-10.500000000000114
 31
0.0
  0
LINE
  5
B0
100
AcDbEntity
  8
0
  6
CONTINUOUS
 62
               2
100
AcDbLine
 10
26.997395868953816
 20
-10.875000000000114
 30
0.0
 11
34.375
 21
-10.875000000000114
 31
0.0
  0
LINE
  5
B1
100
AcDbEntity
  8
0
  6
CONTINUOUS
 62
               2
100
AcDbLine
 10
26.997395868953816
 20
-18.125000000000114
 30
0.0
 11
34.375
 21
-18.125000000000114
 31
0.0
  0
LINE
  5
B2
100
AcDbEntity
  8
0
  6
CONTINUOUS
 62
               7
100
AcDbLine
 10
26.997395868953816
 20
-18.500000000000114
 30
0.0
 11
34.0
 21
-18.500000000000114
 31
0.0
  0
LINE
  5
B3
100
AcDbEntity
  8
0
  6
CONTINUOUS
 62
               7
100
AcDbLine
 10
34.5
 20
-18.000000000000114
 30
0.0
 11
34.5
 21
-11.000000000000114
 31
0.0
  0
LINE
  5
B4
100
AcDbEntity
  8
0
  6
CONTINUOUS
 62
               7
100
AcDbLine
 10
34.0
 20
-10.500000000000114
 30
0.0
 11
34.5
 21
-11.000000000000114
 31
0.0
  0
LINE
  5
B5
100
AcDbEntity
  8
0
  6
CONTINUOUS
 62
               7
100
AcDbLine
 10
34.0
 20
-18.500000000000114
 30
0.0
 11
34.5
 21
-18.000000000000114
 31
0.0
  0
LINE
  5
B6
100
AcDbEntity
  8
0
  6
CONTINUOUS
 62
               2
100
AcDbLine
 10
34.0
 20
-10.500000000000114
 30
0.0
 11
34.0
 21
-18.500000000000114
 31
0.0
  0
LINE
  5
B7
100
AcDbEntity
  8
0
  6
CONTINUOUS
 62
               2
100
AcDbLine
 10
37.5
 20
-14.500000000000114
 30
0.0
 11
22.0
 21
-14.500000000000114
 31
0.0
  0
LINE
  5
B8
100
AcDbEntity
  8
0
  6
CONTINUOUS
 62
               7
100
AcDbLine
 10
12.0
 20
-50.350000000000129
 30
0.0
 11
12.0
 21
-61.000000000000107
 31
0.0
  0
LINE
  5
B9
100
AcDbEntity
  8
0
  6
CONTINUOUS
 62
               7
100
AcDbLine
 10
12.5
 20
-50.350000000000129
 30
0.0
 11
12.5
 21
-61.000000000000107
 31
0.0
  0
LINE
  5
BA
100
AcDbEntity
  8
0
  6
CONTINUOUS
 62
               7
100
AcDbLine
 10
12.0
 20
-8.0
 30
0.0
 11
12.0
 21
-45.650000000000198
 31
0.0
  0
LINE
  5
BB
100
AcDbEntity
  8
0
  6
CONTINUOUS
 62
               7
100
AcDbLine
 10
12.5
 20
-8.0
 30
0.0
 11
12.5
 21
-45.650000000000198
 31
0.0
  0
LINE
  5
BC
100
AcDbEntity
  8
0
  6
CONTINUOUS
 62
               7
100
AcDbLine
 10
-12.0
 20
-50.350000000000129
 30
0.0
 11
-12.0
 21
-61.000000000000107
 31
0.0
  0
LINE
  5
BD
100
AcDbEntity
  8
0
  6
CONTINUOUS
 62
               7
100
AcDbLine
 10
-12.5
 20
-50.350000000000129
 30
0.0
 11
-12.5
 21
-61.000000000000107
 31
0.0
  0
LINE
  5
BE
100
AcDbEntity
  8
0
  6
CONTINUOUS
 62
               7
100
AcDbLine
 10
-12.0
 20
-8.0
 30
0.0
 11
-12.0
 21
-45.650000000000198
 31
0.0
  0
LINE
  5
BF
100
AcDbEntity
  8
0
  6
CONTINUOUS
 62
               7
100
AcDbLine
 10
-12.5
 20
-8.0
 30
0.0
 11
-12.5
 21
-45.650000000000198
 31
0.0
  0
LINE
  5
C0
100
AcDbEntity
  8
0
  6
CONTINUOUS
 62
               2
100
AcDbLine
 10
27.48514145923599
 20
-48.000000000000107
 30
0.0
 11
-27.841867068950251
 21
-48.000000000000107
 31
0.0
  0
LINE
  5
C1
100
AcDbEntity
  8
0
  6
CONTINUOUS
 62
               7
100
AcDbLine
 10
25.0
 20
-50.350000000000129
 30
0.0
 11
-25.0
 21
-50.350000000000129
 31
0.0
  0
LINE
  5
C2
100
AcDbEntity
  8
0
  6
CONTINUOUS
 62
               7
100
AcDbLine
 10
25.0
 20
-49.600000000000129
 30
0.0
 11
-25.0
 21
-49.600000000000129
 31
0.0
  0
LINE
  5
C3
100
AcDbEntity
  8
0
  6
CONTINUOUS
 62
               7
100
AcDbLine
 10
25.0
 20
-46.400000000000198
 30
0.0
 11
-25.0
 21
-46.400000000000198
 31
0.0
  0
LINE
  5
C4
100
AcDbEntity
  8
0
  6
CONTINUOUS
 62
               7
100
AcDbLine
 10
25.0
 20
-45.650000000000198
 30
0.0
 11
-25.0
 21
-45.650000000000198
 31
0.0
  0
LINE
  5
C5
100
AcDbEntity
  8
0
  6
CONTINUOUS
 62
               2
100
AcDbLine
 10
5.0
 20
-23.0
 30
0.0
 11
-5.0
 21
-23.0
 31
0.0
  0
LINE
  5
C6
100
AcDbEntity
  8
0
  6
CONTINUOUS
 62
               7
100
AcDbLine
 10
2.0
 20
-40.000000000000107
 30
0.0
 11
2.0
 21
-42.000000000000107
 31
0.0
  0
LINE
  5
C7
100
AcDbEntity
  8
0
  6
CONTINUOUS
 62
               7
100
AcDbLine
 10
-2.0
 20
-40.000000000000107
 30
0.0
 11
-2.0
 21
-42.000000000000107
 31
0.0
  0
ARC
  5
C8
100
AcDbEntity
  8
0
  6
CONTINUOUS
 62
               7
100
AcDbCircle
 10
0.0
 20
-40.000000000000107
 30
0.0
 40
2.0
100
AcDbArc
 50
0.0
 51
180.0
  0
ARC
  5
C9
100
AcDbEntity
  8
0
  6
CONTINUOUS
 62
               7
100
AcDbCircle
 10
0.0
 20
-42.000000000000107
 30
0.0
 40
2.0
100
AcDbArc
 50
180.0
 51
0.0
  0
CIRCLE
  5
CA
100
AcDbEntity
  8
0
  6
CONTINUOUS
 62
               7
100
AcDbCircle
 10
0.0
 20
-23.0
 30
0.0
 40
2.0
  0
LINE
  5
CB
100
AcDbEntity
  8
0
  6
CONTINUOUS
 62
               2
100
AcDbLine
 10
5.0
 20
-41.000000000000107
 30
0.0
 11
-5.0
 21
-41.000000000000107
 31
0.0
  0
LINE
  5
CC
100
AcDbEntity
  8
0
  6
CONTINUOUS
 62
               2
100
AcDbLine
 10
5.0
 20
-40.000000000000107
 30
0.0
 11
-5.0
 21
-40.000000000000107
 31
0.0
  0
LINE
  5
CD
100
AcDbEntity
  8
0
  6
CONTINUOUS
 62
               2
100
AcDbLine
 10
5.0
 20
-42.000000000000107
 30
0.0
 11
-5.0
 21
-42.000000000000107
 31
0.0
  0
CIRCLE
  5
CE
100
AcDbEntity
  8
0
  6
CONTINUOUS
 62
               7
100
AcDbCircle
 10
-18.0
 20
-32.000000000000107
 30
0.0
 40
2.75
  0
CIRCLE
  5
CF
100
AcDbEntity
  8
0
  6
CONTINUOUS
 62
               7
100
AcDbCircle
 10
18.0
 20
-32.000000000000107
 30
0.0
 40
2.75
  0
LINE
  5
D0
100
AcDbEntity
  8
0
  6
CONTINUOUS
 62
               7
100
AcDbLine
 10
-10.0
 20
-96.000000000000114
 30
0.0
 11
10.0
 21
-96.000000000000114
 31
0.0
  0
LINE
  5
D1
100
AcDbEntity
  8
0
  6
CONTINUOUS
 62
               7
100
AcDbLine
 10
22.0
 20
-5.5
 30
0.0
 11
22.0
 21
-6.0
 31
0.0
  0
LINE
  5
D2
100
AcDbEntity
  8
0
  6
CONTINUOUS
 62
               7
100
AcDbLine
 10
-22.0
 20
-5.5
 30
0.0
 11
-22.0
 21
-6.0
 31
0.0
  0
LINE
  5
D3
100
AcDbEntity
  8
0
  6
CONTINUOUS
 62
               7
100
AcDbLine
 10
23.0
 20
-5.5
 30
0.0
 11
-23.0
 21
-5.5
 31
0.0
  0
LINE
  5
D4
100
AcDbEntity
  8
0
  6
CONTINUOUS
 62
               7
100
AcDbLine
 10
23.0
 20
0.0
 30
0.0
 11
23.0
 21
-5.5
 31
0.0
  0
LINE
  5
D5
100
AcDbEntity
  8
0
  6
CONTINUOUS
 62
               7
100
AcDbLine
 10
-23.0
 20
0.0
 30
0.0
 11
-23.0
 21
-5.5
 31
0.0
  0
LINE
  5
D6
100
AcDbEntity
  8
0
  6
CONTINUOUS
 62
               7
100
AcDbLine
 10
25.0
 20
-8.0
 30
0.0
 11
25.0
 21
-61.000000000000107
 31
0.0
  0
LINE
  5
D7
100
AcDbEntity
  8
0
  6
CONTINUOUS
 62
               7
100
AcDbLine
 10
-25.0
 20
-8.0
 30
0.0
 11
-25.0
 21
-61.000000000000107
 31
0.0
  0
LINE
  5
D8
100
AcDbEntity
  8
0
  6
CONTINUOUS
 62
               7
100
AcDbLine
 10
25.0
 20
-61.000000000000107
 30
0.0
 11
-25.0
 21
-61.000000000000107
 31
0.0
  0
LINE
  5
D9
100
AcDbEntity
  8
0
  6
CONTINUOUS
 62
               7
100
AcDbLine
 10
23.0
 20
-61.000000000000107
 30
0.0
 11
23.0
 21
-64.000000000000114
 31
0.0
  0
LINE
  5
DA
100
AcDbEntity
  8
0
  6
CONTINUOUS
 62
               7
100
AcDbLine
 10
-23.0
 20
-61.000000000000107
 30
0.0
 11
-23.0
 21
-64.000000000000114
 31
0.0
  0
LINE
  5
DB
100
AcDbEntity
  8
0
  6
CONTINUOUS
 62
               7
100
AcDbLine
 10
24.0
 20
-6.0
 30
0.0
 11
24.0
 21
-8.0
 31
0.0
  0
LINE
  5
DC
100
AcDbEntity
  8
0
  6
CONTINUOUS
 62
               7
100
AcDbLine
 10
-24.0
 20
-6.0
 30
0.0
 11
-24.0
 21
-8.0
 31
0.0
  0
LINE
  5
DD
100
AcDbEntity
  8
0
  6
CONTINUOUS
 62
               7
100
AcDbLine
 10
23.0
 20
-64.000000000000114
 30
0.0
 11
-23.0
 21
-64.000000000000114
 31
0.0
  0
LINE
  5
DE
100
AcDbEntity
  8
0
  6
CONTINUOUS
 62
               7
100
AcDbLine
 10
24.0
 20
-6.0
 30
0.0
 11
-24.0
 21
-6.0
 31
0.0
  0
LINE
  5
DF
100
AcDbEntity
  8
0
  6
CONTINUOUS
 62
               7
100
AcDbLine
 10
25.0
 20
-8.0
 30
0.0
 11
-25.0
 21
-8.0
 31
0.0
  0
LINE
  5
E0
100
AcDbEntity
  8
0
  6
CONTINUOUS
 62
               7
100
AcDbLine
 10
23.0
 20
0.0
 30
0.0
 11
-23.0
 21
0.0
 31
0.0
  0
LINE
  5
E1
100
AcDbEntity
  8
0
  6
CONTINUOUS
 62
               7
100
AcDbLine
 10
22.5
 20
-94.000000000000114
 30
0.0
 11
22.5
 21
-64.000000000000114
 31
0.0
  0
LINE
  5
E2
100
AcDbEntity
  8
0
  6
CONTINUOUS
 62
               7
100
AcDbLine
 10
-22.5
 20
-94.000000000000114
 30
0.0
 11
-22.5
 21
-64.000000000000114
 31
0.0
  0
LINE
  5
E3
100
AcDbEntity
  8
0
  6
CONTINUOUS
 62
               7
100
AcDbLine
 10
14.5
 20
-78.600000000000136
 30
0.0
 11
14.5
 21
-75.000000000000114
 31
0.0
  0
LINE
  5
E4
100
AcDbEntity
  8
0
  6
CONTINUOUS
 62
               7
100
AcDbLine
 10
21.5
 20
-78.600000000000136
 30
0.0
 11
21.5
 21
-75.000000000000114
 31
0.0
  0
LINE
  5
E5
100
AcDbEntity
  8
0
  6
CONTINUOUS
 62
               7
100
AcDbLine
 10
14.899999999999977
 20
-79.000000000000114
 30
0.0
 11
21.099999999999966
 21
-79.000000000000114
 31
0.0
  0
LINE
  5
E6
100
AcDbEntity
  8
0
  6
CONTINUOUS
 62
               7
100
AcDbLine
 10
14.5
 20
-78.600000000000136
 30
0.0
 11
21.5
 21
-78.600000000000136
 31
0.0
  0
LINE
  5
E7
100
AcDbEntity
  8
0
  6
CONTINUOUS
 62
               7
100
AcDbLine
 10
14.899999999999977
 20
-79.000000000000114
 30
0.0
 11
14.5
 21
-78.600000000000136
 31
0.0
  0
LINE
  5
E8
100
AcDbEntity
  8
0
  6
CONTINUOUS
 62
               7
100
AcDbLine
 10
21.5
 20
-78.600000000000136
 30
0.0
 11
21.099999999999966
 21
-79.000000000000114
 31
0.0
  0
LINE
  5
E9
100
AcDbEntity
  8
0
  6
CONTINUOUS
 62
               7
100
AcDbLine
 10
-21.5
 20
-78.600000000000136
 30
0.0
 11
-21.5
 21
-75.000000000000114
 31
0.0
  0
LINE
  5
EA
100
AcDbEntity
  8
0
  6
CONTINUOUS
 62
               7
100
AcDbLine
 10
-14.5
 20
-78.600000000000136
 30
0.0
 11
-14.5
 21
-75.000000000000114
 31
0.0
  0
LINE
  5
EB
100
AcDbEntity
  8
0
  6
CONTINUOUS
 62
               7
100
AcDbLine
 10
-21.100000000000023
 20
-79.000000000000114
 30
0.0
 11
-14.900000000000034
 21
-79.000000000000114
 31
0.0
  0
LINE
  5
EC
100
AcDbEntity
  8
0
  6
CONTINUOUS
 62
               7
100
AcDbLine
 10
-21.5
 20
-78.600000000000136
 30
0.0
 11
-14.5
 21
-78.600000000000136
 31
0.0
  0
LINE
  5
ED
100
AcDbEntity
  8
0
  6
CONTINUOUS
 62
               7
100
AcDbLine
 10
-21.100000000000023
 20
-79.000000000000114
 30
0.0
 11
-21.5
 21
-78.600000000000136
 31
0.0
  0
LINE
  5
EE
100
AcDbEntity
  8
0
  6
CONTINUOUS
 62
               7
100
AcDbLine
 10
-14.5
 20
-78.600000000000136
 30
0.0
 11
-14.900000000000034
 21
-79.000000000000114
 31
0.0
  0
LINE
  5
EF
100
AcDbEntity
  8
0
  6
CONTINUOUS
 62
               7
100
AcDbLine
 10
-14.0
 20
-94.000000000000114
 30
0.0
 11
-14.0
 21
-75.000000000000114
 31
0.0
  0
LINE
  5
F0
100
AcDbEntity
  8
0
  6
CONTINUOUS
 62
               7
100
AcDbLine
 10
14.0
 20
-94.000000000000114
 30
0.0
 11
14.0
 21
-75.000000000000114
 31
0.0
  0
LINE
  5
F1
100
AcDbEntity
  8
0
  6
CONTINUOUS
 62
               7
100
AcDbLine
 10
-22.5
 20
-75.000000000000114
 30
0.0
 11
22.5
 21
-75.000000000000114
 31
0.0
  0
LINE
  5
F2
100
AcDbEntity
  8
0
  6
CONTINUOUS
 62
               7
100
AcDbLine
 10
-22.5
 20
-94.000000000000114
 30
0.0
 11
22.5
 21
-94.000000000000114
 31
0.0
  0
LINE
  5
F3
100
AcDbEntity
  8
0
  6
CONTINUOUS
 62
               7
100
AcDbLine
 10
-21.523243250030873
 20
-61.000000000000107
 30
0.0
 11
-21.523243250030873
 21
-64.000000000000114
 31
0.0
  0
LINE
  5
F4
100
AcDbEntity
  8
0
  6
CONTINUOUS
 62
               7
100
AcDbLine
 10
21.523243250030873
 20
-61.000000000000107
 30
0.0
 11
21.523243250030873
 21
-64.000000000000114
 31
0.0
  0
LINE
  5
F5
100
AcDbEntity
  8
0
  6
CONTINUOUS
 62
               7
100
AcDbLine
 10
-10.0
 20
-96.000000000000114
 30
0.0
 11
-10.0
 21
-94.000000000000114
 31
0.0
  0
LINE
  5
F6
100
AcDbEntity
  8
0
  6
CONTINUOUS
 62
               7
100
AcDbLine
 10
10.0
 20
-96.000000000000114
 30
0.0
 11
10.0
 21
-94.000000000000114
 31
0.0
  0
LINE
  5
F7
100
AcDbEntity
  8
0
  6
CONTINUOUS
 62
               7
100
AcDbLine
 10
3.0
 20
-102.50000000000011
 30
0.0
 11
-3.0
 21
-102.50000000000011
 31
0.0
  0
LINE
  5
F8
100
AcDbEntity
  8
0
  6
CONTINUOUS
 62
               7
100
AcDbLine
 10
3.0
 20
-102.50000000000011
 30
0.0
 11
2.5
 21
-103.00000000000011
 31
0.0
  0
LINE
  5
F9
100
AcDbEntity
  8
0
  6
CONTINUOUS
 62
               7
100
AcDbLine
 10
-3.0
 20
-102.50000000000011
 30
0.0
 11
-2.5
 21
-103.00000000000011
 31
0.0
  0
LINE
  5
FA
100
AcDbEntity
  8
0
  6
CONTINUOUS
 62
               7
100
AcDbLine
 10
2.5
 20
-103.00000000000011
 30
0.0
 11
-2.5
 21
-103.00000000000011
 31
0.0
  0
LINE
  5
FB
100
AcDbEntity
  8
0
  6
CONTINUOUS
 62
               7
100
AcDbLine
 10
-3.0
 20
-102.50000000000011
 30
0.0
 11
-3.0
 21
-96.000000000000114
 31
0.0
  0
LINE
  5
FC
100
AcDbEntity
  8
0
  6
CONTINUOUS
 62
               7
100
AcDbLine
 10
3.0
 20
-102.50000000000011
 30
0.0
 11
3.0
 21
-96.000000000000114
 31
0.0
  0
LINE
  5
FD
100
AcDbEntity
  8
0
  6
CONTINUOUS
 62
               2
100
AcDbLine
 10
0.0
 20
-108.00000000000009
 30
0.0
 11
0.0
 21
5.9999999999998863
 31
0.0
  0
LINE
  5
FE
100
AcDbEntity
  8
0
  6
CONTINUOUS
 62
               7
100
AcDbLine
 10
26.997395868953816
 20
-9.5000000000001137
 30
0.0
 11
26.997395868953816
 21
-19.500000000000114
 31
0.0
  0
ARC
  5
FF
100
AcDbEntity
  8
0
  6
CONTINUOUS
 62
               7
100
AcDbCircle
 10
21.867775921846174
 20
-10.175531187636096
 30
0.0
 40
5.1306872917006903
100
AcDbArc
 50
343.70633284259662
 51
13.704468121074857
  0
LINE
  5
100
100
AcDbEntity
  8
0
  6
CONTINUOUS
 62
               7
100
AcDbLine
 10
26.792395868953804
 20
-8.7300000000001035
 30
0.0
 11
25.207395868953796
 21
-8.7300000000001035
 31
0.0
  0
LINE
  5
101
100
AcDbEntity
  8
0
  6
CONTINUOUS
 62
               7
100
AcDbLine
 10
26.997395868953816
 20
-9.5000000000001137
 30
0.0
 11
26.792395868953804
 21
-8.7300000000001035
 31
0.0
  0
ARC
  5
102
100
AcDbEntity
  8
0
  6
CONTINUOUS
 62
               7
100
AcDbCircle
 10
6.7902851202065619
 20
-14.502500000000111
 30
0.0
 40
20.209455476463233
100
AcDbArc
 50
351.78554344349243
 51
8.2144565565075656
  0
LINE
  5
103
100
AcDbEntity
  8
0
  6
CONTINUOUS
 62
               7
100
AcDbLine
 10
26.792395868953804
 20
-11.615000000000094
 30
0.0
 11
25.207395868953796
 21
-11.615000000000094
 31
0.0
  0
ARC
  5
104
100
AcDbEntity
  8
0
  6
CONTINUOUS
 62
               7
100
AcDbCircle
 10
45.204508143616636
 20
-14.502500000000111
 30
0.0
 40
20.204508298285091
100
AcDbArc
 50
171.78351819101405
 51
188.21648180898595
  0
ARC
  5
105
100
AcDbEntity
  8
0
  6
CONTINUOUS
 62
               7
100
AcDbCircle
 10
30.126799398945877
 20
-10.16626695689294
 30
0.0
 40
5.128290019206112
100
AcDbArc
 50
166.39551692819987
 51
196.40936583505092
  0
LINE
  5
106
100
AcDbEntity
  8
0
  6
CONTINUOUS
 62
               7
100
AcDbLine
 10
26.792395868953804
 20
-17.3900000000001
 30
0.0
 11
25.207395868953796
 21
-17.3900000000001
 31
0.0
  0
ARC
  5
107
100
AcDbEntity
  8
0
  6
CONTINUOUS
 62
               7
100
AcDbCircle
 10
21.867891655715852
 20
-18.829466196909436
 30
0.0
 40
5.130575472424411
100
AcDbArc
 50
346.29519730063947
 51
16.29400173568914
  0
LINE
  5
108
100
AcDbEntity
  8
0
  6
CONTINUOUS
 62
               7
100
AcDbLine
 10
25.207395868953796
 20
-20.275000000000091
 30
0.0
 11
24.997395868953816
 21
-19.500000000000114
 31
0.0
  0
LINE
  5
109
100
AcDbEntity
  8
0
  6
CONTINUOUS
 62
               7
100
AcDbLine
 10
26.997395868953816
 20
-19.500000000000114
 30
0.0
 11
26.792395868953804
 21
-20.275000000000091
 31
0.0
  0
LINE
  5
10A
100
AcDbEntity
  8
0
  6
CONTINUOUS
 62
               7
100
AcDbLine
 10
26.792395868953804
 20
-20.275000000000091
 30
0.0
 11
25.207395868953796
 21
-20.275000000000091
 31
0.0
  0
ARC
  5
10B
100
AcDbEntity
  8
0
  6
CONTINUOUS
 62
               7
100
AcDbCircle
 10
30.126682986196471
 20
-18.838730193077595
 30
0.0
 40
5.1281775431632557
100
AcDbArc
 50
163.59029727945963
 51
193.60481995728946
  0
LINE
  5
10C
100
AcDbEntity
  8
0
  6
CONTINUOUS
 62
               7
100
AcDbLine
 10
25.207395868953796
 20
-8.7300000000001035
 30
0.0
 11
24.997395868953816
 21
-9.5000000000001137
 31
0.0
  0
LINE
  5
10D
100
AcDbEntity
  8
0
  6
CONTINUOUS
 62
               2
100
AcDbLine
 10
12.5
 20
-32.000000000000107
 30
0.0
 11
23.5
 21
-32.000000000000107
 31
0.0
  0
LINE
  5
10E
100
AcDbEntity
  8
0
  6
CONTINUOUS
 62
               2
100
AcDbLine
 10
18.0
 20
-37.500000000000107
 30
0.0
 11
18.0
 21
-26.500000000000114
 31
0.0
  0
LINE
  5
10F
100
AcDbEntity
  8
0
  6
CONTINUOUS
 62
               2
100
AcDbLine
 10
-23.5
 20
-32.000000000000107
 30
0.0
 11
-12.5
 21
-32.000000000000107
 31
0.0
  0
LINE
  5
110
100
AcDbEntity
  8
0
  6
CONTINUOUS
 62
               2
100
AcDbLine
 10
-18.0
 20
-37.500000000000107
 30
0.0
 11
-18.0
 21
-26.500000000000114
 31
0.0
  0
LINE
  5
111
100
AcDbEntity
  8
0
  6
CONTINUOUS
 62
               2
100
AcDbLine
 10
18.5
 20
-84.500000000000114
 30
0.0
 11
26.5
 21
-84.500000000000114
 31
0.0
  0
LINE
  5
112
100
AcDbEntity
  8
0
  6
CONTINUOUS
 62
               2
100
AcDbLine
 10
-28.0
 20
-26.000000000000114
 30
0.0
 11
-22.0
 21
-26.000000000000114
 31
0.0
  0
LINE
  5
113
100
AcDbEntity
  8
0
  6
CONTINUOUS
 62
               2
100
AcDbLine
 10
20.0
 20
-11.0
 30
0.0
 11
20.0
 21
-5.0
 31
0.0
  0
LINE
  5
114
100
AcDbEntity
  8
0
  6
CONTINUOUS
 62
               2
100
AcDbLine
 10
-20.0
 20
-11.0
 30
0.0
 11
-20.0
 21
-5.0
 31
0.0
  0
ENDBLK
  5
115
100
AcDbEntity
  8
0
100
AcDbBlockEnd
  0
BLOCK
  5
116
100
AcDbEntity
  8
0
100
AcDbBlockBegin
  2
RAG8-3
 70
               0
 10
0.0
 20
0.0
 30
0.0
  3
RAG8-3
  1

  0
LINE
  5
117
100
AcDbEntity
  8
0
  6
CONTINUOUS
 62
               7
100
AcDbLine
 10
-21.708293346092432
 20
-50.350000000000144
 30
0.0
 11
-21.708293346092432
 21
-61.000000000000121
 31
0.0
  0
LINE
  5
118
100
AcDbEntity
  8
0
  6
CONTINUOUS
 62
               7
100
AcDbLine
 10
21.708293346092432
 20
-50.350000000000144
 30
0.0
 11
21.708293346092432
 21
-61.000000000000121
 31
0.0
  0
LINE
  5
119
100
AcDbEntity
  8
0
  6
CONTINUOUS
 62
               7
100
AcDbLine
 10
21.708293346092432
 20
-8.0
 30
0.0
 11
21.708293346092432
 21
-45.650000000000212
 31
0.0
  0
LINE
  5
11A
100
AcDbEntity
  8
0
  6
CONTINUOUS
 62
               7
100
AcDbLine
 10
-21.708293346092432
 20
-8.0
 30
0.0
 11
-21.708293346092432
 21
-45.650000000000212
 31
0.0
  0
LINE
  5
11B
100
AcDbEntity
  8
0
  6
CONTINUOUS
 62
               7
100
AcDbLine
 10
1.658312395177802
 20
-102.50000000000011
 30
0.0
 11
3.0
 21
-102.50000000000011
 31
0.0
  0
LINE
  5
11C
100
AcDbEntity
  8
0
  6
CONTINUOUS
 62
               7
100
AcDbLine
 10
-3.0
 20
-102.50000000000011
 30
0.0
 11
-2.5
 21
-103.00000000000011
 31
0.0
  0
LINE
  5
11D
100
AcDbEntity
  8
0
  6
CONTINUOUS
 62
               7
100
AcDbLine
 10
-3.0
 20
-102.50000000000011
 30
0.0
 11
-3.0
 21
-96.000000000000114
 31
0.0
  0
LINE
  5
11E
100
AcDbEntity
  8
0
  6
CONTINUOUS
 62
               7
100
AcDbLine
 10
-1.6583123951776315
 20
-98.000000000000114
 30
0.0
 11
-1.6583123951776315
 21
-103.00000000000011
 31
0.0
  0
LINE
  5
11F
100
AcDbEntity
  8
0
  6
CONTINUOUS
 62
               7
100
AcDbLine
 10
1.658312395177802
 20
-98.000000000000114
 30
0.0
 11
1.658312395177802
 21
-103.00000000000011
 31
0.0
  0
LINE
  5
120
100
AcDbEntity
  8
0
  6
CONTINUOUS
 62
               7
100
AcDbLine
 10
3.0
 20
-102.50000000000011
 30
0.0
 11
2.5
 21
-103.00000000000011
 31
0.0
  0
LINE
  5
121
100
AcDbEntity
  8
0
  6
CONTINUOUS
 62
               7
100
AcDbLine
 10
3.0
 20
-102.50000000000011
 30
0.0
 11
3.0
 21
-96.000000000000114
 31
0.0
  0
LINE
  5
122
100
AcDbEntity
  8
0
  6
CONTINUOUS
 62
               7
100
AcDbLine
 10
-2.5
 20
-103.00000000000011
 30
0.0
 11
2.5
 21
-103.00000000000011
 31
0.0
  0
LINE
  5
123
100
AcDbEntity
  8
0
  6
CONTINUOUS
 62
               7
100
AcDbLine
 10
-3.0
 20
-102.50000000000011
 30
0.0
 11
-1.6583123951776315
 21
-102.50000000000011
 31
0.0
  0
LINE
  5
124
100
AcDbEntity
  8
0
  6
CONTINUOUS
 62
               7
100
AcDbLine
 10
-1.6583123951776315
 20
-98.000000000000114
 30
0.0
 11
1.658312395177802
 21
-98.000000000000114
 31
0.0
  0
ARC
  5
125
100
AcDbEntity
  8
0
  6
CONTINUOUS
 62
               7
100
AcDbCircle
 10
-0.0000000000003411
 20
-100.50000000000273
 30
0.0
 40
3.0000000000019331
100
AcDbArc
 50
56.442690238113016
 51
123.55730976188698
  0
LINE
  5
126
100
AcDbEntity
  8
0
  6
CONTINUOUS
 62
               2
100
AcDbLine
 10
-1.6583123951776315
 20
-103.00000000000011
 30
0.0
 11
1.658312395177802
 21
-98.000000000000682
 31
0.0
  0
LINE
  5
127
100
AcDbEntity
  8
0
  6
CONTINUOUS
 62
               2
100
AcDbLine
 10
-1.6583123951776315
 20
-98.000000000000114
 30
0.0
 11
1.658312395177802
 21
-103.00000000000011
 31
0.0
  0
LINE
  5
128
100
AcDbEntity
  8
0
  6
CONTINUOUS
 62
               2
100
AcDbLine
 10
-34.0
 20
-10.500000000000114
 30
0.0
 11
-34.0
 21
-18.500000000000114
 31
0.0
  0
LINE
  5
129
100
AcDbEntity
  8
0
  6
CONTINUOUS
 62
               7
100
AcDbLine
 10
-34.0
 20
-18.500000000000114
 30
0.0
 11
-34.5
 21
-18.000000000000114
 31
0.0
  0
LINE
  5
12A
100
AcDbEntity
  8
0
  6
CONTINUOUS
 62
               7
100
AcDbLine
 10
-34.0
 20
-10.500000000000114
 30
0.0
 11
-34.5
 21
-11.000000000000114
 31
0.0
  0
LINE
  5
12B
100
AcDbEntity
  8
0
  6
CONTINUOUS
 62
               7
100
AcDbLine
 10
-34.5
 20
-18.000000000000114
 30
0.0
 11
-34.5
 21
-11.000000000000114
 31
0.0
  0
LINE
  5
12C
100
AcDbEntity
  8
0
  6
CONTINUOUS
 62
               7
100
AcDbLine
 10
-27.002344573085452
 20
-18.500000000000114
 30
0.0
 11
-34.0
 21
-18.500000000000114
 31
0.0
  0
LINE
  5
12D
100
AcDbEntity
  8
0
  6
CONTINUOUS
 62
               2
100
AcDbLine
 10
-27.002344573085452
 20
-18.125000000000114
 30
0.0
 11
-34.375
 21
-18.125000000000114
 31
0.0
  0
LINE
  5
12E
100
AcDbEntity
  8
0
  6
CONTINUOUS
 62
               2
100
AcDbLine
 10
-27.002344573085452
 20
-10.875000000000114
 30
0.0
 11
-34.375
 21
-10.875000000000114
 31
0.0
  0
LINE
  5
12F
100
AcDbEntity
  8
0
  6
CONTINUOUS
 62
               7
100
AcDbLine
 10
-27.002344573085452
 20
-10.500000000000114
 30
0.0
 11
-34.0
 21
-10.500000000000114
 31
0.0
  0
LINE
  5
130
100
AcDbEntity
  8
0
  6
CONTINUOUS
 62
               2
100
AcDbLine
 10
-37.5
 20
-14.500000000000114
 30
0.0
 11
-22.0
 21
-14.500000000000114
 31
0.0
  0
LINE
  5
131
100
AcDbEntity
  8
0
  6
CONTINUOUS
 62
               7
100
AcDbLine
 10
12.0
 20
-50.350000000000144
 30
0.0
 11
12.0
 21
-61.000000000000121
 31
0.0
  0
LINE
  5
132
100
AcDbEntity
  8
0
  6
CONTINUOUS
 62
               7
100
AcDbLine
 10
12.5
 20
-50.350000000000144
 30
0.0
 11
12.5
 21
-61.000000000000121
 31
0.0
  0
LINE
  5
133
100
AcDbEntity
  8
0
  6
CONTINUOUS
 62
               7
100
AcDbLine
 10
12.0
 20
-8.0
 30
0.0
 11
12.0
 21
-45.650000000000212
 31
0.0
  0
LINE
  5
134
100
AcDbEntity
  8
0
  6
CONTINUOUS
 62
               7
100
AcDbLine
 10
12.5
 20
-8.0
 30
0.0
 11
12.5
 21
-45.650000000000212
 31
0.0
  0
LINE
  5
135
100
AcDbEntity
  8
0
  6
CONTINUOUS
 62
               7
100
AcDbLine
 10
-12.0
 20
-50.350000000000144
 30
0.0
 11
-12.0
 21
-61.000000000000121
 31
0.0
  0
LINE
  5
136
100
AcDbEntity
  8
0
  6
CONTINUOUS
 62
               7
100
AcDbLine
 10
-12.5
 20
-50.350000000000144
 30
0.0
 11
-12.5
 21
-61.000000000000121
 31
0.0
  0
LINE
  5
137
100
AcDbEntity
  8
0
  6
CONTINUOUS
 62
               7
100
AcDbLine
 10
-12.0
 20
-8.0
 30
0.0
 11
-12.0
 21
-45.650000000000212
 31
0.0
  0
LINE
  5
138
100
AcDbEntity
  8
0
  6
CONTINUOUS
 62
               7
100
AcDbLine
 10
-12.5
 20
-8.0
 30
0.0
 11
-12.5
 21
-45.650000000000212
 31
0.0
  0
LINE
  5
139
100
AcDbEntity
  8
0
  6
CONTINUOUS
 62
               2
100
AcDbLine
 10
27.48514145923599
 20
-48.000000000000121
 30
0.0
 11
-27.841867068950251
 21
-48.000000000000121
 31
0.0
  0
LINE
  5
13A
100
AcDbEntity
  8
0
  6
CONTINUOUS
 62
               7
100
AcDbLine
 10
25.0
 20
-50.350000000000144
 30
0.0
 11
-25.0
 21
-50.350000000000144
 31
0.0
  0
LINE
  5
13B
100
AcDbEntity
  8
0
  6
CONTINUOUS
 62
               7
100
AcDbLine
 10
25.0
 20
-49.600000000000144
 30
0.0
 11
-25.0
 21
-49.600000000000144
 31
0.0
  0
LINE
  5
13C
100
AcDbEntity
  8
0
  6
CONTINUOUS
 62
               7
100
AcDbLine
 10
25.0
 20
-46.400000000000212
 30
0.0
 11
-25.0
 21
-46.400000000000212
 31
0.0
  0
LINE
  5
13D
100
AcDbEntity
  8
0
  6
CONTINUOUS
 62
               7
100
AcDbLine
 10
25.0
 20
-45.650000000000212
 30
0.0
 11
-25.0
 21
-45.650000000000212
 31
0.0
  0
LINE
  5
13E
100
AcDbEntity
  8
0
  6
CONTINUOUS
 62
               2
100
AcDbLine
 10
5.0
 20
-23.0
 30
0.0
 11
-5.0
 21
-23.0
 31
0.0
  0
LINE
  5
13F
100
AcDbEntity
  8
0
  6
CONTINUOUS
 62
               7
100
AcDbLine
 10
2.0
 20
-40.000000000000121
 30
0.0
 11
2.0
 21
-42.000000000000121
 31
0.0
  0
LINE
  5
140
100
AcDbEntity
  8
0
  6
CONTINUOUS
 62
               7
100
AcDbLine
 10
-2.0
 20
-40.000000000000121
 30
0.0
 11
-2.0
 21
-42.000000000000121
 31
0.0
  0
ARC
  5
141
100
AcDbEntity
  8
0
  6
CONTINUOUS
 62
               7
100
AcDbCircle
 10
0.0
 20
-40.000000000000121
 30
0.0
 40
2.0
100
AcDbArc
 50
0.0
 51
180.0
  0
ARC
  5
142
100
AcDbEntity
  8
0
  6
CONTINUOUS
 62
               7
100
AcDbCircle
 10
0.0
 20
-42.000000000000121
 30
0.0
 40
2.0
100
AcDbArc
 50
180.0
 51
0.0
  0
CIRCLE
  5
143
100
AcDbEntity
  8
0
  6
CONTINUOUS
 62
               7
100
AcDbCircle
 10
0.0
 20
-23.0
 30
0.0
 40
2.0
  0
LINE
  5
144
100
AcDbEntity
  8
0
  6
CONTINUOUS
 62
               2
100
AcDbLine
 10
5.0
 20
-41.000000000000121
 30
0.0
 11
-5.0
 21
-41.000000000000121
 31
0.0
  0
LINE
  5
145
100
AcDbEntity
  8
0
  6
CONTINUOUS
 62
               2
100
AcDbLine
 10
5.0
 20
-40.000000000000121
 30
0.0
 11
-5.0
 21
-40.000000000000121
 31
0.0
  0
LINE
  5
146
100
AcDbEntity
  8
0
  6
CONTINUOUS
 62
               2
100
AcDbLine
 10
5.0
 20
-42.000000000000121
 30
0.0
 11
-5.0
 21
-42.000000000000121
 31
0.0
  0
LINE
  5
147
100
AcDbEntity
  8
0
  6
CONTINUOUS
 62
               2
100
AcDbLine
 10
-18.0
 20
-26.500000000000114
 30
0.0
 11
-18.0
 21
-37.500000000000121
 31
0.0
  0
LINE
  5
148
100
AcDbEntity
  8
0
  6
CONTINUOUS
 62
               2
100
AcDbLine
 10
-12.5
 20
-32.000000000000121
 30
0.0
 11
-23.5
 21
-32.000000000000121
 31
0.0
  0
CIRCLE
  5
149
100
AcDbEntity
  8
0
  6
CONTINUOUS
 62
               7
100
AcDbCircle
 10
-18.0
 20
-32.000000000000121
 30
0.0
 40
2.75
  0
CIRCLE
  5
14A
100
AcDbEntity
  8
0
  6
CONTINUOUS
 62
               7
100
AcDbCircle
 10
18.0
 20
-32.000000000000121
 30
0.0
 40
2.75
  0
LINE
  5
14B
100
AcDbEntity
  8
0
  6
CONTINUOUS
 62
               2
100
AcDbLine
 10
12.5
 20
-32.000000000000121
 30
0.0
 11
23.5
 21
-32.000000000000121
 31
0.0
  0
LINE
  5
14C
100
AcDbEntity
  8
0
  6
CONTINUOUS
 62
               2
100
AcDbLine
 10
18.0
 20
-26.500000000000114
 30
0.0
 11
18.0
 21
-37.500000000000121
 31
0.0
  0
LINE
  5
14D
100
AcDbEntity
  8
0
  6
CONTINUOUS
 62
               7
100
AcDbLine
 10
-10.0
 20
-96.000000000000114
 30
0.0
 11
10.0
 21
-96.000000000000114
 31
0.0
  0
LINE
  5
14E
100
AcDbEntity
  8
0
  6
CONTINUOUS
 62
               7
100
AcDbLine
 10
22.0
 20
-5.5
 30
0.0
 11
22.0
 21
-6.0
 31
0.0
  0
LINE
  5
14F
100
AcDbEntity
  8
0
  6
CONTINUOUS
 62
               7
100
AcDbLine
 10
-22.0
 20
-5.5
 30
0.0
 11
-22.0
 21
-6.0
 31
0.0
  0
LINE
  5
150
100
AcDbEntity
  8
0
  6
CONTINUOUS
 62
               7
100
AcDbLine
 10
23.0
 20
-5.5
 30
0.0
 11
-23.0
 21
-5.5
 31
0.0
  0
LINE
  5
151
100
AcDbEntity
  8
0
  6
CONTINUOUS
 62
               7
100
AcDbLine
 10
23.0
 20
0.0
 30
0.0
 11
23.0
 21
-5.5
 31
0.0
  0
LINE
  5
152
100
AcDbEntity
  8
0
  6
CONTINUOUS
 62
               7
100
AcDbLine
 10
-23.0
 20
0.0
 30
0.0
 11
-23.0
 21
-5.5
 31
0.0
  0
LINE
  5
153
100
AcDbEntity
  8
0
  6
CONTINUOUS
 62
               7
100
AcDbLine
 10
25.0
 20
-8.0
 30
0.0
 11
25.0
 21
-61.000000000000121
 31
0.0
  0
LINE
  5
154
100
AcDbEntity
  8
0
  6
CONTINUOUS
 62
               7
100
AcDbLine
 10
-25.0
 20
-8.0
 30
0.0
 11
-25.0
 21
-61.000000000000121
 31
0.0
  0
LINE
  5
155
100
AcDbEntity
  8
0
  6
CONTINUOUS
 62
               7
100
AcDbLine
 10
25.0
 20
-61.000000000000121
 30
0.0
 11
-25.0
 21
-61.000000000000121
 31
0.0
  0
LINE
  5
156
100
AcDbEntity
  8
0
  6
CONTINUOUS
 62
               7
100
AcDbLine
 10
23.0
 20
-61.000000000000121
 30
0.0
 11
23.0
 21
-64.000000000000114
 31
0.0
  0
LINE
  5
157
100
AcDbEntity
  8
0
  6
CONTINUOUS
 62
               7
100
AcDbLine
 10
-23.0
 20
-61.000000000000121
 30
0.0
 11
-23.0
 21
-64.000000000000114
 31
0.0
  0
LINE
  5
158
100
AcDbEntity
  8
0
  6
CONTINUOUS
 62
               7
100
AcDbLine
 10
24.0
 20
-6.0
 30
0.0
 11
24.0
 21
-8.0
 31
0.0
  0
LINE
  5
159
100
AcDbEntity
  8
0
  6
CONTINUOUS
 62
               7
100
AcDbLine
 10
-24.0
 20
-6.0
 30
0.0
 11
-24.0
 21
-8.0
 31
0.0
  0
LINE
  5
15A
100
AcDbEntity
  8
0
  6
CONTINUOUS
 62
               7
100
AcDbLine
 10
23.0
 20
-64.000000000000114
 30
0.0
 11
-23.0
 21
-64.000000000000114
 31
0.0
  0
LINE
  5
15B
100
AcDbEntity
  8
0
  6
CONTINUOUS
 62
               7
100
AcDbLine
 10
24.0
 20
-6.0
 30
0.0
 11
-24.0
 21
-6.0
 31
0.0
  0
LINE
  5
15C
100
AcDbEntity
  8
0
  6
CONTINUOUS
 62
               7
100
AcDbLine
 10
25.0
 20
-8.0
 30
0.0
 11
-25.0
 21
-8.0
 31
0.0
  0
LINE
  5
15D
100
AcDbEntity
  8
0
  6
CONTINUOUS
 62
               7
100
AcDbLine
 10
23.0
 20
0.0
 30
0.0
 11
-23.0
 21
0.0
 31
0.0
  0
LINE
  5
15E
100
AcDbEntity
  8
0
  6
CONTINUOUS
 62
               7
100
AcDbLine
 10
22.5
 20
-94.000000000000114
 30
0.0
 11
22.5
 21
-64.000000000000114
 31
0.0
  0
LINE
  5
15F
100
AcDbEntity
  8
0
  6
CONTINUOUS
 62
               7
100
AcDbLine
 10
-22.5
 20
-94.000000000000114
 30
0.0
 11
-22.5
 21
-64.000000000000114
 31
0.0
  0
LINE
  5
160
100
AcDbEntity
  8
0
  6
CONTINUOUS
 62
               7
100
AcDbLine
 10
14.5
 20
-78.600000000000136
 30
0.0
 11
14.5
 21
-75.000000000000114
 31
0.0
  0
LINE
  5
161
100
AcDbEntity
  8
0
  6
CONTINUOUS
 62
               7
100
AcDbLine
 10
21.5
 20
-78.600000000000136
 30
0.0
 11
21.5
 21
-75.000000000000114
 31
0.0
  0
LINE
  5
162
100
AcDbEntity
  8
0
  6
CONTINUOUS
 62
               7
100
AcDbLine
 10
14.899999999999977
 20
-79.000000000000114
 30
0.0
 11
21.099999999999966
 21
-79.000000000000114
 31
0.0
  0
LINE
  5
163
100
AcDbEntity
  8
0
  6
CONTINUOUS
 62
               7
100
AcDbLine
 10
14.5
 20
-78.600000000000136
 30
0.0
 11
21.5
 21
-78.600000000000136
 31
0.0
  0
LINE
  5
164
100
AcDbEntity
  8
0
  6
CONTINUOUS
 62
               7
100
AcDbLine
 10
14.899999999999977
 20
-79.000000000000114
 30
0.0
 11
14.5
 21
-78.600000000000136
 31
0.0
  0
LINE
  5
165
100
AcDbEntity
  8
0
  6
CONTINUOUS
 62
               7
100
AcDbLine
 10
21.5
 20
-78.600000000000136
 30
0.0
 11
21.099999999999966
 21
-79.000000000000114
 31
0.0
  0
LINE
  5
166
100
AcDbEntity
  8
0
  6
CONTINUOUS
 62
               7
100
AcDbLine
 10
-21.5
 20
-78.600000000000136
 30
0.0
 11
-21.5
 21
-75.000000000000114
 31
0.0
  0
LINE
  5
167
100
AcDbEntity
  8
0
  6
CONTINUOUS
 62
               7
100
AcDbLine
 10
-14.5
 20
-78.600000000000136
 30
0.0
 11
-14.5
 21
-75.000000000000114
 31
0.0
  0
LINE
  5
168
100
AcDbEntity
  8
0
  6
CONTINUOUS
 62
               7
100
AcDbLine
 10
-21.100000000000023
 20
-79.000000000000114
 30
0.0
 11
-14.900000000000034
 21
-79.000000000000114
 31
0.0
  0
LINE
  5
169
100
AcDbEntity
  8
0
  6
CONTINUOUS
 62
               7
100
AcDbLine
 10
-21.5
 20
-78.600000000000136
 30
0.0
 11
-14.5
 21
-78.600000000000136
 31
0.0
  0
LINE
  5
16A
100
AcDbEntity
  8
0
  6
CONTINUOUS
 62
               7
100
AcDbLine
 10
-21.100000000000023
 20
-79.000000000000114
 30
0.0
 11
-21.5
 21
-78.600000000000136
 31
0.0
  0
LINE
  5
16B
100
AcDbEntity
  8
0
  6
CONTINUOUS
 62
               7
100
AcDbLine
 10
-14.5
 20
-78.600000000000136
 30
0.0
 11
-14.900000000000034
 21
-79.000000000000114
 31
0.0
  0
LINE
  5
16C
100
AcDbEntity
  8
0
  6
CONTINUOUS
 62
               7
100
AcDbLine
 10
-14.0
 20
-94.000000000000114
 30
0.0
 11
-14.0
 21
-75.000000000000114
 31
0.0
  0
LINE
  5
16D
100
AcDbEntity
  8
0
  6
CONTINUOUS
 62
               7
100
AcDbLine
 10
14.0
 20
-94.000000000000114
 30
0.0
 11
14.0
 21
-75.000000000000114
 31
0.0
  0
LINE
  5
16E
100
AcDbEntity
  8
0
  6
CONTINUOUS
 62
               7
100
AcDbLine
 10
-22.5
 20
-75.000000000000114
 30
0.0
 11
22.5
 21
-75.000000000000114
 31
0.0
  0
LINE
  5
16F
100
AcDbEntity
  8
0
  6
CONTINUOUS
 62
               7
100
AcDbLine
 10
-22.5
 20
-94.000000000000114
 30
0.0
 11
22.5
 21
-94.000000000000114
 31
0.0
  0
LINE
  5
170
100
AcDbEntity
  8
0
  6
CONTINUOUS
 62
               7
100
AcDbLine
 10
-21.523243250030873
 20
-61.000000000000121
 30
0.0
 11
-21.523243250030873
 21
-64.000000000000114
 31
0.0
  0
LINE
  5
171
100
AcDbEntity
  8
0
  6
CONTINUOUS
 62
               7
100
AcDbLine
 10
21.523243250030873
 20
-61.000000000000121
 30
0.0
 11
21.523243250030873
 21
-64.000000000000114
 31
0.0
  0
LINE
  5
172
100
AcDbEntity
  8
0
  6
CONTINUOUS
 62
               7
100
AcDbLine
 10
-10.0
 20
-96.000000000000114
 30
0.0
 11
-10.0
 21
-94.000000000000114
 31
0.0
  0
LINE
  5
173
100
AcDbEntity
  8
0
  6
CONTINUOUS
 62
               7
100
AcDbLine
 10
10.0
 20
-96.000000000000114
 30
0.0
 11
10.0
 21
-94.000000000000114
 31
0.0
  0
LINE
  5
174
100
AcDbEntity
  8
0
  6
CONTINUOUS
 62
               2
100
AcDbLine
 10
0.0
 20
-107.99999999999997
 30
0.0
 11
0.0
 21
8.0
 31
0.0
  0
LINE
  5
175
100
AcDbEntity
  8
0
  6
CONTINUOUS
 62
               7
100
AcDbLine
 10
-27.002344573085402
 20
-9.497500000000116
 30
0.0
 11
-27.002344573085402
 21
-19.497500000000116
 31
0.0
  0
LINE
  5
176
100
AcDbEntity
  8
0
  6
CONTINUOUS
 62
               7
100
AcDbLine
 10
-25.002344573085395
 20
-9.497500000000116
 30
0.0
 11
-25.207344573085408
 21
-8.7275000000001057
 31
0.0
  0
ARC
  5
177
100
AcDbEntity
  8
0
  6
CONTINUOUS
 62
               7
100
AcDbCircle
 10
-21.872941043093334
 20
-10.163766956892971
 30
0.0
 40
5.128290019206112
100
AcDbArc
 50
166.39551692819987
 51
196.40936583505092
  0
ARC
  5
178
100
AcDbEntity
  8
0
  6
CONTINUOUS
 62
               7
100
AcDbCircle
 10
-30.13196452019303
 20
-10.173031187636099
 30
0.0
 40
5.1306872917006903
100
AcDbArc
 50
343.70633284259662
 51
13.704468121074857
  0
LINE
  5
179
100
AcDbEntity
  8
0
  6
CONTINUOUS
 62
               7
100
AcDbLine
 10
-26.792344573085408
 20
-8.7275000000001057
 30
0.0
 11
-27.002344573085402
 21
-9.497500000000116
 31
0.0
  0
LINE
  5
17A
100
AcDbEntity
  8
0
  6
CONTINUOUS
 62
               7
100
AcDbLine
 10
-25.207344573085408
 20
-8.7275000000001057
 30
0.0
 11
-26.792344573085408
 21
-8.7275000000001057
 31
0.0
  0
LINE
  5
17B
100
AcDbEntity
  8
0
  6
CONTINUOUS
 62
               7
100
AcDbLine
 10
-25.207344573085408
 20
-11.612500000000125
 30
0.0
 11
-26.792344573085408
 21
-11.612500000000125
 31
0.0
  0
ARC
  5
17C
100
AcDbEntity
  8
0
  6
CONTINUOUS
 62
               7
100
AcDbCircle
 10
-6.7952322984225759
 20
-14.500000000000114
 30
0.0
 40
20.204508298285091
100
AcDbArc
 50
171.78351819101405
 51
188.21648180898595
  0
LINE
  5
17D
100
AcDbEntity
  8
0
  6
CONTINUOUS
 62
               7
100
AcDbLine
 10
-25.207344573085408
 20
-17.387500000000102
 30
0.0
 11
-26.792344573085408
 21
-17.387500000000102
 31
0.0
  0
ARC
  5
17E
100
AcDbEntity
  8
0
  6
CONTINUOUS
 62
               7
100
AcDbCircle
 10
-21.873057455842741
 20
-18.836230193077625
 30
0.0
 40
5.1281775431632557
100
AcDbArc
 50
163.59029727945963
 51
193.60481995728946
  0
LINE
  5
17F
100
AcDbEntity
  8
0
  6
CONTINUOUS
 62
               7
100
AcDbLine
 10
-25.002344573085395
 20
-19.497500000000116
 30
0.0
 11
-25.207344573085408
 21
-20.272500000000122
 31
0.0
  0
ARC
  5
180
100
AcDbEntity
  8
0
  6
CONTINUOUS
 62
               7
100
AcDbCircle
 10
-30.131848786323353
 20
-18.826966196909439
 30
0.0
 40
5.130575472424411
100
AcDbArc
 50
346.29519730063947
 51
16.29400173568914
  0
LINE
  5
181
100
AcDbEntity
  8
0
  6
CONTINUOUS
 62
               7
100
AcDbLine
 10
-26.792344573085408
 20
-20.272500000000122
 30
0.0
 11
-27.002344573085402
 21
-19.497500000000116
 31
0.0
  0
LINE
  5
182
100
AcDbEntity
  8
0
  6
CONTINUOUS
 62
               7
100
AcDbLine
 10
-25.207344573085408
 20
-20.272500000000122
 30
0.0
 11
-26.792344573085408
 21
-20.272500000000122
 31
0.0
  0
ARC
  5
183
100
AcDbEntity
  8
0
  6
CONTINUOUS
 62
               7
100
AcDbCircle
 10
-45.209455321832642
 20
-14.500000000000114
 30
0.0
 40
20.209455476463233
100
AcDbArc
 50
351.78554344349243
 51
8.2144565565075656
  0
LINE
  5
184
100
AcDbEntity
  8
0
  6
CONTINUOUS
 62
               2
100
AcDbLine
 10
-18.5
 20
-84.5
 30
0.0
 11
-26.5
 21
-84.5
 31
0.0
  0
LINE
  5
185
100
AcDbEntity
  8
0
  6
CONTINUOUS
 62
               2
100
AcDbLine
 10
22.0
 20
-26.0
 30
0.0
 11
28.0
 21
-26.0
 31
0.0
  0
LINE
  5
186
100
AcDbEntity
  8
0
  6
CONTINUOUS
 62
               2
100
AcDbLine
 10
-20.0
 20
-11.0
 30
0.0
 11
-20.0
 21
-5.0
 31
0.0
  0
LINE
  5
187
100
AcDbEntity
  8
0
  6
CONTINUOUS
 62
               2
100
AcDbLine
 10
20.0
 20
-11.0
 30
0.0
 11
20.0
 21
-5.0
 31
0.0
  0
ENDBLK
  5
188
100
AcDbEntity
  8
0
100
AcDbBlockEnd
  0
BLOCK
  5
189
100
AcDbEntity
  8
0
100
AcDbBlockBegin
  2
RAG8-4
 70
               0
 10
0.0
 20
0.0
 30
0.0
  3
RAG8-4
  1

  0
ARC
  5
18A
100
AcDbEntity
  8
0
  6
CONTINUOUS
 62
               7
100
AcDbCircle
 10
-0.0000000000000568
 20
0.0
 30
0.0
 40
39.5
100
AcDbArc
 50
33.338001446632532
 51
39.265247913879527
  0
ARC
  5
18B
100
AcDbEntity
  8
0
  6
CONTINUOUS
 62
               7
100
AcDbCircle
 10
-0.0000000000000568
 20
0.0
 30
0.0
 40
39.5
100
AcDbArc
 50
320.73475208612018
 51
326.66199855336748
  0
ARC
  5
18C
100
AcDbEntity
  8
0
  6
CONTINUOUS
 62
               7
100
AcDbCircle
 10
0.0000000000000568
 20
0.0
 30
0.0
 40
39.5
100
AcDbArc
 50
213.33800144663255
 51
219.26524791387982
  0
ARC
  5
18D
100
AcDbEntity
  8
0
  6
CONTINUOUS
 62
               7
100
AcDbCircle
 10
0.0000000000000568
 20
0.0
 30
0.0
 40
39.5
100
AcDbArc
 50
140.73475208612047
 51
146.66199855336745
  0
CIRCLE
  5
18E
100
AcDbEntity
  8
0
  6
CONTINUOUS
 62
               7
100
AcDbCircle
 10
0.0
 20
-0.000000000000199
 30
0.0
 40
5.0
  0
LINE
  5
18F
100
AcDbEntity
  8
0
  6
CONTINUOUS
 62
               2
100
AcDbLine
 10
0.0
 20
30.000000000000028
 30
0.0
 11
0.0
 21
-30.000000000000199
 31
0.0
  0
ARC
  5
190
100
AcDbEntity
  8
0
  6
CONTINUOUS
 62
               7
100
AcDbCircle
 10
20.500000000000227
 20
-39.985952380952739
 30
0.0
 40
14.985952380952497
100
AcDbArc
 50
80.396853300252332
 51
99.603146699747668
  0
ARC
  5
191
100
AcDbEntity
  8
0
  6
CONTINUOUS
 62
               7
100
AcDbCircle
 10
15.5
 20
-39.985952380952739
 30
0.0
 40
14.985952380952497
100
AcDbArc
 50
80.396853300252332
 51
99.603146699747668
  0
LINE
  5
192
100
AcDbEntity
  8
0
  6
CONTINUOUS
 62
               7
100
AcDbLine
 10
17.400000000000091
 20
-34.500000000000199
 30
0.0
 11
14.5
 21
-34.500000000000199
 31
0.0
  0
LINE
  5
193
100
AcDbEntity
  8
0
  6
CONTINUOUS
 62
               7
100
AcDbLine
 10
14.0
 20
-34.000000000000199
 30
0.0
 11
14.5
 21
-34.500000000000199
 31
0.0
  0
LINE
  5
194
100
AcDbEntity
  8
0
  6
CONTINUOUS
 62
               7
100
AcDbLine
 10
17.400000000000091
 20
-32.500000000000199
 30
0.0
 11
17.400000000000091
 21
-34.500000000000199
 31
0.0
  0
LINE
  5
195
100
AcDbEntity
  8
0
  6
CONTINUOUS
 62
               7
100
AcDbLine
 10
17.400000000000091
 20
-32.500000000000199
 30
0.0
 11
18.600000000000136
 21
-32.500000000000199
 31
0.0
  0
LINE
  5
196
100
AcDbEntity
  8
0
  6
CONTINUOUS
 62
               7
100
AcDbLine
 10
18.600000000000136
 20
-32.500000000000199
 30
0.0
 11
18.600000000000136
 21
-34.500000000000199
 31
0.0
  0
LINE
  5
197
100
AcDbEntity
  8
0
  6
CONTINUOUS
 62
               7
100
AcDbLine
 10
22.0
 20
-34.000000000000199
 30
0.0
 11
21.5
 21
-34.500000000000199
 31
0.0
  0
LINE
  5
198
100
AcDbEntity
  8
0
  6
CONTINUOUS
 62
               7
100
AcDbLine
 10
18.600000000000136
 20
-34.500000000000199
 30
0.0
 11
21.5
 21
-34.500000000000199
 31
0.0
  0
LINE
  5
199
100
AcDbEntity
  8
0
  6
CONTINUOUS
 62
               7
100
AcDbLine
 10
14.0
 20
-27.000000000000199
 30
0.0
 11
14.0
 21
-34.000000000000199
 31
0.0
  0
LINE
  5
19A
100
AcDbEntity
  8
0
  6
CONTINUOUS
 62
               2
100
AcDbLine
 10
14.375
 20
-27.000000000000199
 30
0.0
 11
14.375
 21
-34.375000000000199
 31
0.0
  0
LINE
  5
19B
100
AcDbEntity
  8
0
  6
CONTINUOUS
 62
               2
100
AcDbLine
 10
21.625
 20
-27.000000000000199
 30
0.0
 11
21.625
 21
-34.375000000000199
 31
0.0
  0
LINE
  5
19C
100
AcDbEntity
  8
0
  6
CONTINUOUS
 62
               7
100
AcDbLine
 10
22.0
 20
-27.000000000000199
 30
0.0
 11
22.0
 21
-34.000000000000199
 31
0.0
  0
LINE
  5
19D
100
AcDbEntity
  8
0
  6
CONTINUOUS
 62
               7
100
AcDbLine
 10
13.0
 20
-27.000000000000199
 30
0.0
 11
23.0
 21
-27.000000000000199
 31
0.0
  0
ARC
  5
19E
100
AcDbEntity
  8
0
  6
CONTINUOUS
 62
               7
100
AcDbCircle
 10
15.5
 20
-12.014047619047659
 30
0.0
 40
14.985952380952497
100
AcDbArc
 50
260.39685330025236
 51
279.60314669974764
  0
ARC
  5
19F
100
AcDbEntity
  8
0
  6
CONTINUOUS
 62
               7
100
AcDbCircle
 10
20.500000000000227
 20
-12.014047619047659
 30
0.0
 40
14.985952380952497
100
AcDbArc
 50
260.39685330025236
 51
279.60314669974764
  0
LINE
  5
1A0
100
AcDbEntity
  8
0
  6
CONTINUOUS
 62
               7
100
AcDbLine
 10
18.0
 20
-26.790000000000163
 30
0.0
 11
18.0
 21
-25.210000000000235
 31
0.0
  0
LINE
  5
1A1
100
AcDbEntity
  8
0
  6
CONTINUOUS
 62
               7
100
AcDbLine
 10
23.0
 20
-25.000000000000199
 30
0.0
 11
23.0
 21
-27.000000000000199
 31
0.0
  0
LINE
  5
1A2
100
AcDbEntity
  8
0
  6
CONTINUOUS
 62
               7
100
AcDbLine
 10
13.0
 20
-25.000000000000199
 30
0.0
 11
13.0
 21
-27.000000000000199
 31
0.0
  0
ARC
  5
1A3
100
AcDbEntity
  8
0
  6
CONTINUOUS
 62
               7
100
AcDbCircle
 10
-19.0
 20
0.0000000000000284
 30
0.0
 40
2.0
100
AcDbArc
 50
90.0
 51
270.0
  0
ARC
  5
1A4
100
AcDbEntity
  8
0
  6
CONTINUOUS
 62
               7
100
AcDbCircle
 10
-17.0
 20
0.0000000000000284
 30
0.0
 40
2.0
100
AcDbArc
 50
270.0
 51
90.0
  0
LINE
  5
1A5
100
AcDbEntity
  8
0
  6
CONTINUOUS
 62
               2
100
AcDbLine
 10
-19.0
 20
5.0
 30
0.0
 11
-19.0
 21
-5.0
 31
0.0
  0
LINE
  5
1A6
100
AcDbEntity
  8
0
  6
CONTINUOUS
 62
               2
100
AcDbLine
 10
-17.0
 20
5.0
 30
0.0
 11
-17.0
 21
-5.0
 31
0.0
  0
LINE
  5
1A7
100
AcDbEntity
  8
0
  6
CONTINUOUS
 62
               7
100
AcDbLine
 10
-17.0
 20
2.0000000000000284
 30
0.0
 11
-19.0
 21
2.0000000000000284
 31
0.0
  0
LINE
  5
1A8
100
AcDbEntity
  8
0
  6
CONTINUOUS
 62
               7
100
AcDbLine
 10
-17.0
 20
-1.9999999999999716
 30
0.0
 11
-19.0
 21
-1.9999999999999716
 31
0.0
  0
LINE
  5
1A9
100
AcDbEntity
  8
0
  6
CONTINUOUS
 62
               2
100
AcDbLine
 10
10.076271631908391
 20
10.076271631908298
 30
0.0
 11
15.379572490807448
 21
15.379572490807476
 31
0.0
  0
LINE
  5
1AA
100
AcDbEntity
  8
0
  6
CONTINUOUS
 62
               2
100
AcDbLine
 10
-10.076271631908185
 20
-10.076271631908327
 30
0.0
 11
-15.379572490807348
 21
-15.379572490807391
 31
0.0
  0
LINE
  5
1AB
100
AcDbEntity
  8
0
  6
CONTINUOUS
 62
               2
100
AcDbLine
 10
-15.379572490807462
 20
15.379572490807334
 30
0.0
 11
-10.076271631908263
 21
10.076271631908327
 31
0.0
  0
CIRCLE
  5
1AC
100
AcDbEntity
  8
0
  6
CONTINUOUS
 62
               2
100
AcDbCircle
 10
-12.727922061357845
 20
12.727922061357759
 30
0.0
 40
2.1000000000000001
  0
CIRCLE
  5
1AD
100
AcDbEntity
  8
0
  6
CONTINUOUS
 62
               7
100
AcDbCircle
 10
-12.727922061357845
 20
12.727922061357759
 30
0.0
 40
2.5
  0
CIRCLE
  5
1AE
100
AcDbEntity
  8
0
  6
CONTINUOUS
 62
               2
100
AcDbCircle
 10
12.727922061357845
 20
12.727922061357759
 30
0.0
 40
2.1000000000000001
  0
CIRCLE
  5
1AF
100
AcDbEntity
  8
0
  6
CONTINUOUS
 62
               7
100
AcDbCircle
 10
12.727922061357845
 20
12.727922061357759
 30
0.0
 40
2.5
  0
CIRCLE
  5
1B0
100
AcDbEntity
  8
0
  6
CONTINUOUS
 62
               2
100
AcDbCircle
 10
-12.727922061357788
 20
-12.72792206135793
 30
0.0
 40
2.1000000000000001
  0
CIRCLE
  5
1B1
100
AcDbEntity
  8
0
  6
CONTINUOUS
 62
               7
100
AcDbCircle
 10
-12.727922061357788
 20
-12.72792206135793
 30
0.0
 40
2.5
  0
CIRCLE
  5
1B2
100
AcDbEntity
  8
0
  6
CONTINUOUS
 62
               7
100
AcDbCircle
 10
0.0000000000000568
 20
0.0000000000000284
 30
0.0
 40
23.0
  0
CIRCLE
  5
1B3
100
AcDbEntity
  8
0
  6
CONTINUOUS
 62
               2
100
AcDbCircle
 10
0.0000000000000568
 20
0.0000000000000284
 30
0.0
 40
18.0
  0
LINE
  5
1B4
100
AcDbEntity
  8
0
  6
CONTINUOUS
 62
               2
100
AcDbLine
 10
18.0
 20
-37.500000000000199
 30
0.0
 11
18.0
 21
-22.000000000000199
 31
0.0
  0
ARC
  5
1B5
100
AcDbEntity
  8
0
  6
CONTINUOUS
 62
               7
100
AcDbCircle
 10
-15.499999999999773
 20
-12.014047619047659
 30
0.0
 40
14.985952380952497
100
AcDbArc
 50
260.39685330025236
 51
279.60314669974764
  0
ARC
  5
1B6
100
AcDbEntity
  8
0
  6
CONTINUOUS
 62
               7
100
AcDbCircle
 10
-20.5
 20
-12.014047619047659
 30
0.0
 40
14.985952380952497
100
AcDbArc
 50
260.39685330025236
 51
279.60314669974764
  0
LINE
  5
1B7
100
AcDbEntity
  8
0
  6
CONTINUOUS
 62
               7
100
AcDbLine
 10
-23.0
 20
-27.000000000000199
 30
0.0
 11
-13.0
 21
-27.000000000000199
 31
0.0
  0
LINE
  5
1B8
100
AcDbEntity
  8
0
  6
CONTINUOUS
 62
               7
100
AcDbLine
 10
-18.0
 20
-26.790000000000163
 30
0.0
 11
-18.0
 21
-25.210000000000235
 31
0.0
  0
ARC
  5
1B9
100
AcDbEntity
  8
0
  6
CONTINUOUS
 62
               7
100
AcDbCircle
 10
-15.499999999999773
 20
-39.985952380952739
 30
0.0
 40
14.985952380952497
100
AcDbArc
 50
80.396853300252332
 51
99.603146699747668
  0
ARC
  5
1BA
100
AcDbEntity
  8
0
  6
CONTINUOUS
 62
               7
100
AcDbCircle
 10
-20.5
 20
-39.985952380952739
 30
0.0
 40
14.985952380952497
100
AcDbArc
 50
80.396853300252332
 51
99.603146699747668
  0
LINE
  5
1BB
100
AcDbEntity
  8
0
  6
CONTINUOUS
 62
               7
100
AcDbLine
 10
-13.0
 20
-25.000000000000199
 30
0.0
 11
-13.0
 21
-27.000000000000199
 31
0.0
  0
LINE
  5
1BC
100
AcDbEntity
  8
0
  6
CONTINUOUS
 62
               7
100
AcDbLine
 10
-23.0
 20
-25.000000000000199
 30
0.0
 11
-23.0
 21
-27.000000000000199
 31
0.0
  0
LINE
  5
1BD
100
AcDbEntity
  8
0
  6
CONTINUOUS
 62
               7
100
AcDbLine
 10
-14.0
 20
-27.000000000000199
 30
0.0
 11
-14.0
 21
-34.000000000000199
 31
0.0
  0
LINE
  5
1BE
100
AcDbEntity
  8
0
  6
CONTINUOUS
 62
               2
100
AcDbLine
 10
-14.375
 20
-27.000000000000199
 30
0.0
 11
-14.375
 21
-34.375000000000199
 31
0.0
  0
LINE
  5
1BF
100
AcDbEntity
  8
0
  6
CONTINUOUS
 62
               7
100
AcDbLine
 10
-22.0
 20
-27.000000000000199
 30
0.0
 11
-22.0
 21
-34.000000000000199
 31
0.0
  0
LINE
  5
1C0
100
AcDbEntity
  8
0
  6
CONTINUOUS
 62
               7
100
AcDbLine
 10
-17.399999999999864
 20
-34.500000000000199
 30
0.0
 11
-14.5
 21
-34.500000000000199
 31
0.0
  0
LINE
  5
1C1
100
AcDbEntity
  8
0
  6
CONTINUOUS
 62
               7
100
AcDbLine
 10
-14.0
 20
-34.000000000000199
 30
0.0
 11
-14.5
 21
-34.500000000000199
 31
0.0
  0
LINE
  5
1C2
100
AcDbEntity
  8
0
  6
CONTINUOUS
 62
               7
100
AcDbLine
 10
-17.399999999999864
 20
-32.500000000000199
 30
0.0
 11
-17.399999999999864
 21
-34.500000000000199
 31
0.0
  0
LINE
  5
1C3
100
AcDbEntity
  8
0
  6
CONTINUOUS
 62
               7
100
AcDbLine
 10
-18.599999999999909
 20
-32.500000000000199
 30
0.0
 11
-17.399999999999864
 21
-32.500000000000199
 31
0.0
  0
LINE
  5
1C4
100
AcDbEntity
  8
0
  6
CONTINUOUS
 62
               7
100
AcDbLine
 10
-18.599999999999909
 20
-32.500000000000199
 30
0.0
 11
-18.599999999999909
 21
-34.500000000000199
 31
0.0
  0
LINE
  5
1C5
100
AcDbEntity
  8
0
  6
CONTINUOUS
 62
               7
100
AcDbLine
 10
-22.0
 20
-34.000000000000199
 30
0.0
 11
-21.5
 21
-34.500000000000199
 31
0.0
  0
LINE
  5
1C6
100
AcDbEntity
  8
0
  6
CONTINUOUS
 62
               7
100
AcDbLine
 10
-18.599999999999909
 20
-34.500000000000199
 30
0.0
 11
-21.5
 21
-34.500000000000199
 31
0.0
  0
CIRCLE
  5
1C7
100
AcDbEntity
  8
0
  6
CONTINUOUS
 62
               7
100
AcDbCircle
 10
0.0
 20
0.0000000000000284
 30
0.0
 40
24.0
  0
LINE
  5
1C8
100
AcDbEntity
  8
0
  6
CONTINUOUS
 62
               7
100
AcDbLine
 10
30.581857366746078
 20
25.000000000000028
 30
0.0
 11
-30.581857366745979
 21
25.000000000000028
 31
0.0
  0
CIRCLE
  5
1C9
100
AcDbEntity
  8
0
  6
CONTINUOUS
 62
               7
100
AcDbCircle
 10
28.0
 20
20.000000000000028
 30
0.0
 40
2.1000000000000001
  0
CIRCLE
  5
1CA
100
AcDbEntity
  8
0
  6
CONTINUOUS
 62
               2
100
AcDbCircle
 10
28.0
 20
20.000000000000028
 30
0.0
 40
2.5
  0
LINE
  5
1CB
100
AcDbEntity
  8
0
  6
CONTINUOUS
 62
               7
100
AcDbLine
 10
30.58185736674595
 20
-25.000000000000199
 30
0.0
 11
-30.581857366745851
 21
-25.000000000000199
 31
0.0
  0
CIRCLE
  5
1CC
100
AcDbEntity
  8
0
  6
CONTINUOUS
 62
               7
100
AcDbCircle
 10
28.0
 20
-20.000000000000199
 30
0.0
 40
2.1000000000000001
  0
CIRCLE
  5
1CD
100
AcDbEntity
  8
0
  6
CONTINUOUS
 62
               2
100
AcDbCircle
 10
28.0
 20
-20.000000000000199
 30
0.0
 40
2.5
  0
LINE
  5
1CE
100
AcDbEntity
  8
0
  6
CONTINUOUS
 62
               7
100
AcDbLine
 10
-33.0
 20
21.708293346092347
 30
0.0
 11
-33.0
 21
12.500000000000028
 31
0.0
  0
CIRCLE
  5
1CF
100
AcDbEntity
  8
0
  6
CONTINUOUS
 62
               7
100
AcDbCircle
 10
-28.0
 20
-20.000000000000199
 30
0.0
 40
2.1000000000000001
  0
CIRCLE
  5
1D0
100
AcDbEntity
  8
0
  6
CONTINUOUS
 62
               2
100
AcDbCircle
 10
-28.0
 20
-20.000000000000199
 30
0.0
 40
2.5
  0
CIRCLE
  5
1D1
100
AcDbEntity
  8
0
  6
CONTINUOUS
 62
               2
100
AcDbCircle
 10
-28.0
 20
20.000000000000028
 30
0.0
 40
2.5
  0
CIRCLE
  5
1D2
100
AcDbEntity
  8
0
  6
CONTINUOUS
 62
               7
100
AcDbCircle
 10
-28.0
 20
20.000000000000028
 30
0.0
 40
2.1000000000000001
  0
LINE
  5
1D3
100
AcDbEntity
  8
0
  6
CONTINUOUS
 62
               2
100
AcDbLine
 10
-18.0
 20
-37.500000000000199
 30
0.0
 11
-18.0
 21
-22.000000000000199
 31
0.0
  0
LINE
  5
1D4
100
AcDbEntity
  8
0
  6
CONTINUOUS
 62
               7
100
AcDbLine
 10
-32.5
 20
-11.999999999999972
 30
0.0
 11
-32.5
 21
12.000000000000028
 31
0.0
  0
LINE
  5
1D5
100
AcDbEntity
  8
0
  6
CONTINUOUS
 62
               7
100
AcDbLine
 10
-32.5
 20
12.000000000000028
 30
0.0
 11
-33.0
 21
12.500000000000028
 31
0.0
  0
LINE
  5
1D6
100
AcDbEntity
  8
0
  6
CONTINUOUS
 62
               7
100
AcDbLine
 10
-32.5
 20
-11.999999999999972
 30
0.0
 11
-33.0
 21
-12.499999999999972
 31
0.0
  0
LINE
  5
1D7
100
AcDbEntity
  8
0
  6
CONTINUOUS
 62
               7
100
AcDbLine
 10
-33.0
 20
-12.499999999999972
 30
0.0
 11
-33.0
 21
-21.708293346092347
 31
0.0
  0
LINE
  5
1D8
100
AcDbEntity
  8
0
  6
CONTINUOUS
 62
               7
100
AcDbLine
 10
33.0
 20
21.708293346092489
 30
0.0
 11
33.0
 21
12.500000000000028
 31
0.0
  0
LINE
  5
1D9
100
AcDbEntity
  8
0
  6
CONTINUOUS
 62
               7
100
AcDbLine
 10
32.5
 20
-11.999999999999972
 30
0.0
 11
32.5
 21
12.000000000000028
 31
0.0
  0
LINE
  5
1DA
100
AcDbEntity
  8
0
  6
CONTINUOUS
 62
               7
100
AcDbLine
 10
32.5
 20
12.000000000000028
 30
0.0
 11
33.0
 21
12.500000000000028
 31
0.0
  0
LINE
  5
1DB
100
AcDbEntity
  8
0
  6
CONTINUOUS
 62
               7
100
AcDbLine
 10
33.0
 20
-12.499999999999972
 30
0.0
 11
33.0
 21
-21.708293346092489
 31
0.0
  0
LINE
  5
1DC
100
AcDbEntity
  8
0
  6
CONTINUOUS
 62
               7
100
AcDbLine
 10
32.5
 20
-11.999999999999972
 30
0.0
 11
33.0
 21
-12.499999999999972
 31
0.0
  0
CIRCLE
  5
1DD
100
AcDbEntity
  8
0
  6
CONTINUOUS
 62
               7
100
AcDbCircle
 10
0.0
 20
0.0000000000000284
 30
0.0
 40
9.0
  0
LINE
  5
1DE
100
AcDbEntity
  8
0
  6
CONTINUOUS
 62
               2
100
AcDbLine
 10
10.076271631908277
 20
-10.076271631908355
 30
0.0
 11
15.37957249080732
 21
-15.379572490807504
 31
0.0
  0
CIRCLE
  5
1DF
100
AcDbEntity
  8
0
  6
CONTINUOUS
 62
               2
100
AcDbCircle
 10
12.727922061357845
 20
-12.72792206135793
 30
0.0
 40
2.1000000000000001
  0
CIRCLE
  5
1E0
100
AcDbEntity
  8
0
  6
CONTINUOUS
 62
               7
100
AcDbCircle
 10
12.727922061357845
 20
-12.72792206135793
 30
0.0
 40
2.5
  0
LINE
  5
1E1
100
AcDbEntity
  8
0
  6
CONTINUOUS
 62
               2
100
AcDbLine
 10
-38.0
 20
0.0
 30
0.0
 11
38.0
 21
0.0
 31
0.0
  0
LINE
  5
1E2
100
AcDbEntity
  8
0
  6
CONTINUOUS
 62
               2
100
AcDbLine
 10
28.0
 20
15.000000000000028
 30
0.0
 11
28.0
 21
25.000000000000028
 31
0.0
  0
LINE
  5
1E3
100
AcDbEntity
  8
0
  6
CONTINUOUS
 62
               2
100
AcDbLine
 10
-28.0
 20
15.000000000000028
 30
0.0
 11
-28.0
 21
25.000000000000028
 31
0.0
  0
LINE
  5
1E4
100
AcDbEntity
  8
0
  6
CONTINUOUS
 62
               2
100
AcDbLine
 10
-28.0
 20
-25.000000000000199
 30
0.0
 11
-28.0
 21
-15.000000000000199
 31
0.0
  0
LINE
  5
1E5
100
AcDbEntity
  8
0
  6
CONTINUOUS
 62
               2
100
AcDbLine
 10
28.0
 20
-25.000000000000199
 30
0.0
 11
28.0
 21
-15.000000000000199
 31
0.0
  0
LINE
  5
1E6
100
AcDbEntity
  8
0
  6
CONTINUOUS
 62
               2
100
AcDbLine
 10
23.0
 20
20.000000000000028
 30
0.0
 11
33.0
 21
20.000000000000028
 31
0.0
  0
LINE
  5
1E7
100
AcDbEntity
  8
0
  6
CONTINUOUS
 62
               2
100
AcDbLine
 10
-33.0
 20
20.000000000000028
 30
0.0
 11
-23.0
 21
20.000000000000028
 31
0.0
  0
LINE
  5
1E8
100
AcDbEntity
  8
0
  6
CONTINUOUS
 62
               2
100
AcDbLine
 10
-33.0
 20
-20.000000000000199
 30
0.0
 11
-23.0
 21
-20.000000000000199
 31
0.0
  0
LINE
  5
1E9
100
AcDbEntity
  8
0
  6
CONTINUOUS
 62
               2
100
AcDbLine
 10
23.0
 20
-20.000000000000199
 30
0.0
 11
33.0
 21
-20.000000000000199
 31
0.0
  0
LINE
  5
1EA
100
AcDbEntity
  8
0
  6
CONTINUOUS
 62
               2
100
AcDbLine
 10
-21.625
 20
-27.000000000000199
 30
0.0
 11
-21.625
 21
-34.375000000000199
 31
0.0
  0
LINE
  5
1EB
100
AcDbEntity
  8
0
  6
CONTINUOUS
 62
               2
100
AcDbLine
 10
18.0
 20
22.000000000000028
 30
0.0
 11
18.0
 21
28.000000000000028
 31
0.0
  0
LINE
  5
1EC
100
AcDbEntity
  8
0
  6
CONTINUOUS
 62
               2
100
AcDbLine
 10
-18.0
 20
22.000000000000028
 30
0.0
 11
-18.0
 21
28.000000000000028
 31
0.0
  0
ENDBLK
  5
1ED
100
AcDbEntity
  8
0
100
AcDbBlockEnd
  0
BLOCK
  5
1EE
100
AcDbEntity
  8
0
100
AcDbBlockBegin
  2
RAG8-5
 70
               0
 10
0.0
 20
0.0
 30
0.0
  3
RAG8-5
  1

  0
ARC
  5
1EF
100
AcDbEntity
  8
0
  6
CONTINUOUS
 62
               7
100
AcDbCircle
 10
0.0
 20
0.0
 30
0.0
 40
31.5
100
AcDbArc
 50
43.100297387007039
 51
46.899702612992961
  0
ARC
  5
1F0
100
AcDbEntity
  8
0
  6
CONTINUOUS
 62
               7
100
AcDbCircle
 10
0.0
 20
-0.0000000000000284
 30
0.0
 40
39.5
100
AcDbArc
 50
213.33800144663263
 51
219.26524791387982
  0
ARC
  5
1F1
100
AcDbEntity
  8
0
  6
CONTINUOUS
 62
               7
100
AcDbCircle
 10
0.0
 20
-0.0000000000000284
 30
0.0
 40
39.5
100
AcDbArc
 50
140.73475208612027
 51
146.6619985533672
  0
ARC
  5
1F2
100
AcDbEntity
  8
0
  6
CONTINUOUS
 62
               7
100
AcDbCircle
 10
0.0
 20
-0.0000000000000284
 30
0.0
 40
39.5
100
AcDbArc
 50
320.73475208612018
 51
326.66199855336737
  0
ARC
  5
1F3
100
AcDbEntity
  8
0
  6
CONTINUOUS
 62
               7
100
AcDbCircle
 10
0.0
 20
-0.0000000000000284
 30
0.0
 40
39.5
100
AcDbArc
 50
33.338001446632809
 51
39.265247913879733
  0
LINE
  5
1F4
100
AcDbEntity
  8
0
  6
CONTINUOUS
 62
               2
100
AcDbLine
 10
-18.0
 20
37.500000000000114
 30
0.0
 11
-18.0
 21
23.866232617981368
 31
0.0
  0
LINE
  5
1F5
100
AcDbEntity
  8
0
  6
CONTINUOUS
 62
               2
100
AcDbLine
 10
18.0
 20
37.500000000000114
 30
0.0
 11
18.0
 21
23.866232617981368
 31
0.0
  0
LINE
  5
1F6
100
AcDbEntity
  8
0
  6
CONTINUOUS
 62
               7
100
AcDbLine
 10
-18.0
 20
26.790000000000077
 30
0.0
 11
-18.0
 21
25.21000000000015
 31
0.0
  0
ARC
  5
1F7
100
AcDbEntity
  8
0
  6
CONTINUOUS
 62
               7
100
AcDbCircle
 10
-20.500000000000227
 20
39.985952380952654
 30
0.0
 40
14.985952380952497
100
AcDbArc
 50
260.39685330025236
 51
279.60314669974764
  0
ARC
  5
1F8
100
AcDbEntity
  8
0
  6
CONTINUOUS
 62
               7
100
AcDbCircle
 10
-15.5
 20
39.985952380952654
 30
0.0
 40
14.985952380952497
100
AcDbArc
 50
260.39685330025236
 51
279.60314669974764
  0
ARC
  5
1F9
100
AcDbEntity
  8
0
  6
CONTINUOUS
 62
               7
100
AcDbCircle
 10
15.49999999999978
 20
39.985952380952654
 30
0.0
 40
14.985952380952497
100
AcDbArc
 50
260.39685330025236
 51
279.60314669974764
  0
ARC
  5
1FA
100
AcDbEntity
  8
0
  6
CONTINUOUS
 62
               7
100
AcDbCircle
 10
20.5
 20
39.985952380952654
 30
0.0
 40
14.985952380952497
100
AcDbArc
 50
260.39685330025236
 51
279.60314669974764
  0
LINE
  5
1FB
100
AcDbEntity
  8
0
  6
CONTINUOUS
 62
               7
100
AcDbLine
 10
18.599999999999909
 20
34.500000000000114
 30
0.0
 11
21.5
 21
34.500000000000114
 31
0.0
  0
LINE
  5
1FC
100
AcDbEntity
  8
0
  6
CONTINUOUS
 62
               7
100
AcDbLine
 10
22.0
 20
34.000000000000114
 30
0.0
 11
21.5
 21
34.500000000000114
 31
0.0
  0
LINE
  5
1FD
100
AcDbEntity
  8
0
  6
CONTINUOUS
 62
               7
100
AcDbLine
 10
18.599999999999909
 20
32.500000000000114
 30
0.0
 11
18.599999999999909
 21
34.500000000000114
 31
0.0
  0
LINE
  5
1FE
100
AcDbEntity
  8
0
  6
CONTINUOUS
 62
               7
100
AcDbLine
 10
18.599999999999909
 20
32.500000000000114
 30
0.0
 11
17.399999999999864
 21
32.500000000000114
 31
0.0
  0
LINE
  5
1FF
100
AcDbEntity
  8
0
  6
CONTINUOUS
 62
               7
100
AcDbLine
 10
17.399999999999864
 20
32.500000000000114
 30
0.0
 11
17.399999999999864
 21
34.500000000000114
 31
0.0
  0
LINE
  5
200
100
AcDbEntity
  8
0
  6
CONTINUOUS
 62
               7
100
AcDbLine
 10
14.0
 20
34.000000000000114
 30
0.0
 11
14.5
 21
34.500000000000114
 31
0.0
  0
LINE
  5
201
100
AcDbEntity
  8
0
  6
CONTINUOUS
 62
               7
100
AcDbLine
 10
17.399999999999864
 20
34.500000000000114
 30
0.0
 11
14.5
 21
34.500000000000114
 31
0.0
  0
LINE
  5
202
100
AcDbEntity
  8
0
  6
CONTINUOUS
 62
               7
100
AcDbLine
 10
22.0
 20
27.002344573085566
 30
0.0
 11
22.0
 21
34.000000000000114
 31
0.0
  0
LINE
  5
203
100
AcDbEntity
  8
0
  6
CONTINUOUS
 62
               2
100
AcDbLine
 10
21.625
 20
27.000000000000114
 30
0.0
 11
21.625
 21
34.397655426914639
 31
0.0
  0
LINE
  5
204
100
AcDbEntity
  8
0
  6
CONTINUOUS
 62
               2
100
AcDbLine
 10
14.375
 20
27.000000000000114
 30
0.0
 11
14.375
 21
34.397655426914639
 31
0.0
  0
LINE
  5
205
100
AcDbEntity
  8
0
  6
CONTINUOUS
 62
               7
100
AcDbLine
 10
14.0
 20
27.002344573085566
 30
0.0
 11
14.0
 21
34.000000000000114
 31
0.0
  0
LINE
  5
206
100
AcDbEntity
  8
0
  6
CONTINUOUS
 62
               7
100
AcDbLine
 10
23.0
 20
27.000000000000114
 30
0.0
 11
13.0
 21
27.000000000000114
 31
0.0
  0
ARC
  5
207
100
AcDbEntity
  8
0
  6
CONTINUOUS
 62
               7
100
AcDbCircle
 10
20.5
 20
12.014047619047574
 30
0.0
 40
14.985952380952497
100
AcDbArc
 50
80.396853300252332
 51
99.603146699747668
  0
ARC
  5
208
100
AcDbEntity
  8
0
  6
CONTINUOUS
 62
               7
100
AcDbCircle
 10
15.499999999999773
 20
12.014047619047574
 30
0.0
 40
14.985952380952497
100
AcDbArc
 50
80.396853300252332
 51
99.603146699747668
  0
LINE
  5
209
100
AcDbEntity
  8
0
  6
CONTINUOUS
 62
               7
100
AcDbLine
 10
18.0
 20
26.790000000000077
 30
0.0
 11
18.0
 21
25.21000000000015
 31
0.0
  0
LINE
  5
20A
100
AcDbEntity
  8
0
  6
CONTINUOUS
 62
               7
100
AcDbLine
 10
13.0
 20
25.000000000000114
 30
0.0
 11
13.0
 21
27.000000000000114
 31
0.0
  0
LINE
  5
20B
100
AcDbEntity
  8
0
  6
CONTINUOUS
 62
               7
100
AcDbLine
 10
23.0
 20
25.000000000000114
 30
0.0
 11
23.0
 21
27.000000000000114
 31
0.0
  0
LINE
  5
20C
100
AcDbEntity
  8
0
  6
CONTINUOUS
 62
               7
100
AcDbLine
 10
-13.0
 20
27.000000000000114
 30
0.0
 11
-23.0
 21
27.000000000000114
 31
0.0
  0
LINE
  5
20D
100
AcDbEntity
  8
0
  6
CONTINUOUS
 62
               7
100
AcDbLine
 10
-22.0
 20
27.002344573085566
 30
0.0
 11
-22.0
 21
34.000000000000114
 31
0.0
  0
LINE
  5
20E
100
AcDbEntity
  8
0
  6
CONTINUOUS
 62
               2
100
AcDbLine
 10
-21.625
 20
27.000000000000114
 30
0.0
 11
-21.625
 21
34.397655426914639
 31
0.0
  0
LINE
  5
20F
100
AcDbEntity
  8
0
  6
CONTINUOUS
 62
               2
100
AcDbLine
 10
-14.375
 20
27.000000000000114
 30
0.0
 11
-14.375
 21
34.397655426914639
 31
0.0
  0
LINE
  5
210
100
AcDbEntity
  8
0
  6
CONTINUOUS
 62
               7
100
AcDbLine
 10
-14.0
 20
27.002344573085566
 30
0.0
 11
-14.0
 21
34.000000000000114
 31
0.0
  0
LINE
  5
211
100
AcDbEntity
  8
0
  6
CONTINUOUS
 62
               7
100
AcDbLine
 10
-18.600000000000136
 20
34.500000000000114
 30
0.0
 11
-21.5
 21
34.500000000000114
 31
0.0
  0
LINE
  5
212
100
AcDbEntity
  8
0
  6
CONTINUOUS
 62
               7
100
AcDbLine
 10
-22.0
 20
34.000000000000114
 30
0.0
 11
-21.5
 21
34.500000000000114
 31
0.0
  0
LINE
  5
213
100
AcDbEntity
  8
0
  6
CONTINUOUS
 62
               7
100
AcDbLine
 10
-18.600000000000136
 20
32.500000000000114
 30
0.0
 11
-18.600000000000136
 21
34.500000000000114
 31
0.0
  0
LINE
  5
214
100
AcDbEntity
  8
0
  6
CONTINUOUS
 62
               7
100
AcDbLine
 10
-17.400000000000091
 20
32.500000000000114
 30
0.0
 11
-18.600000000000136
 21
32.500000000000114
 31
0.0
  0
LINE
  5
215
100
AcDbEntity
  8
0
  6
CONTINUOUS
 62
               7
100
AcDbLine
 10
-17.400000000000091
 20
32.500000000000114
 30
0.0
 11
-17.400000000000091
 21
34.500000000000114
 31
0.0
  0
LINE
  5
216
100
AcDbEntity
  8
0
  6
CONTINUOUS
 62
               7
100
AcDbLine
 10
-14.0
 20
34.000000000000114
 30
0.0
 11
-14.5
 21
34.500000000000114
 31
0.0
  0
LINE
  5
217
100
AcDbEntity
  8
0
  6
CONTINUOUS
 62
               7
100
AcDbLine
 10
-17.400000000000091
 20
34.500000000000114
 30
0.0
 11
-14.5
 21
34.500000000000114
 31
0.0
  0
ARC
  5
218
100
AcDbEntity
  8
0
  6
CONTINUOUS
 62
               7
100
AcDbCircle
 10
-15.5
 20
12.014047619047574
 30
0.0
 40
14.985952380952497
100
AcDbArc
 50
80.396853300252332
 51
99.603146699747668
  0
ARC
  5
219
100
AcDbEntity
  8
0
  6
CONTINUOUS
 62
               7
100
AcDbCircle
 10
-20.500000000000227
 20
12.014047619047574
 30
0.0
 40
14.985952380952497
100
AcDbArc
 50
80.396853300252332
 51
99.603146699747668
  0
LINE
  5
21A
100
AcDbEntity
  8
0
  6
CONTINUOUS
 62
               7
100
AcDbLine
 10
-23.0
 20
25.000000000000114
 30
0.0
 11
-23.0
 21
27.000000000000114
 31
0.0
  0
LINE
  5
21B
100
AcDbEntity
  8
0
  6
CONTINUOUS
 62
               7
100
AcDbLine
 10
-13.0
 20
25.000000000000114
 30
0.0
 11
-13.0
 21
27.000000000000114
 31
0.0
  0
LINE
  5
21C
100
AcDbEntity
  8
0
  6
CONTINUOUS
 62
               7
100
AcDbLine
 10
32.5
 20
-12.0
 30
0.0
 11
33.0
 21
-12.5
 31
0.0
  0
LINE
  5
21D
100
AcDbEntity
  8
0
  6
CONTINUOUS
 62
               7
100
AcDbLine
 10
33.0
 20
-12.5
 30
0.0
 11
33.0
 21
-21.708293346092432
 31
0.0
  0
LINE
  5
21E
100
AcDbEntity
  8
0
  6
CONTINUOUS
 62
               7
100
AcDbLine
 10
32.5
 20
12.0
 30
0.0
 11
33.0
 21
12.5
 31
0.0
  0
LINE
  5
21F
100
AcDbEntity
  8
0
  6
CONTINUOUS
 62
               7
100
AcDbLine
 10
32.5
 20
-12.0
 30
0.0
 11
32.5
 21
12.0
 31
0.0
  0
LINE
  5
220
100
AcDbEntity
  8
0
  6
CONTINUOUS
 62
               7
100
AcDbLine
 10
33.0
 20
21.708293346092375
 30
0.0
 11
33.0
 21
12.5
 31
0.0
  0
LINE
  5
221
100
AcDbEntity
  8
0
  6
CONTINUOUS
 62
               7
100
AcDbLine
 10
-32.5
 20
-12.0
 30
0.0
 11
-33.0
 21
-12.5
 31
0.0
  0
LINE
  5
222
100
AcDbEntity
  8
0
  6
CONTINUOUS
 62
               7
100
AcDbLine
 10
-33.0
 20
-12.5
 30
0.0
 11
-33.0
 21
-21.708293346092432
 31
0.0
  0
LINE
  5
223
100
AcDbEntity
  8
0
  6
CONTINUOUS
 62
               7
100
AcDbLine
 10
-32.5
 20
12.0
 30
0.0
 11
-33.0
 21
12.5
 31
0.0
  0
LINE
  5
224
100
AcDbEntity
  8
0
  6
CONTINUOUS
 62
               7
100
AcDbLine
 10
-33.0
 20
21.708293346092375
 30
0.0
 11
-33.0
 21
12.5
 31
0.0
  0
LINE
  5
225
100
AcDbEntity
  8
0
  6
CONTINUOUS
 62
               7
100
AcDbLine
 10
-32.5
 20
-12.0
 30
0.0
 11
-32.5
 21
12.0
 31
0.0
  0
CIRCLE
  5
226
100
AcDbEntity
  8
0
  6
CONTINUOUS
 62
               7
100
AcDbCircle
 10
28.0
 20
-20.000000000000114
 30
0.0
 40
2.1000000000000001
  0
CIRCLE
  5
227
100
AcDbEntity
  8
0
  6
CONTINUOUS
 62
               2
100
AcDbCircle
 10
28.0
 20
-20.000000000000114
 30
0.0
 40
2.5
  0
CIRCLE
  5
228
100
AcDbEntity
  8
0
  6
CONTINUOUS
 62
               2
100
AcDbCircle
 10
-28.0
 20
-20.000000000000114
 30
0.0
 40
2.5
  0
CIRCLE
  5
229
100
AcDbEntity
  8
0
  6
CONTINUOUS
 62
               7
100
AcDbCircle
 10
-28.0
 20
-20.000000000000114
 30
0.0
 40
2.1000000000000001
  0
CIRCLE
  5
22A
100
AcDbEntity
  8
0
  6
CONTINUOUS
 62
               2
100
AcDbCircle
 10
-28.0
 20
20.000000000000114
 30
0.0
 40
2.5
  0
CIRCLE
  5
22B
100
AcDbEntity
  8
0
  6
CONTINUOUS
 62
               7
100
AcDbCircle
 10
-28.0
 20
20.000000000000114
 30
0.0
 40
2.1000000000000001
  0
LINE
  5
22C
100
AcDbEntity
  8
0
  6
CONTINUOUS
 62
               7
100
AcDbLine
 10
23.0
 20
-21.523243250030873
 30
0.0
 11
23.0
 21
21.523243250030873
 31
0.0
  0
LINE
  5
22D
100
AcDbEntity
  8
0
  6
CONTINUOUS
 62
               7
100
AcDbLine
 10
30.581857366745993
 20
-25.000000000000114
 30
0.0
 11
-30.581857366745993
 21
-25.000000000000114
 31
0.0
  0
ARC
  5
22E
100
AcDbEntity
  8
0
  6
CONTINUOUS
 62
               7
100
AcDbCircle
 10
0.0
 20
0.0
 30
0.0
 40
31.5
100
AcDbArc
 50
133.100297387007
 51
136.89970261299297
  0
LINE
  5
22F
100
AcDbEntity
  8
0
  6
CONTINUOUS
 62
               7
100
AcDbLine
 10
-23.0
 20
21.523243250030873
 30
0.0
 11
-23.0
 21
-21.523243250030873
 31
0.0
  0
ARC
  5
230
100
AcDbEntity
  8
0
  6
CONTINUOUS
 62
               7
100
AcDbCircle
 10
0.0
 20
0.0
 30
0.0
 40
31.5
100
AcDbArc
 50
223.10029738700703
 51
226.89970261299297
  0
LINE
  5
231
100
AcDbEntity
  8
0
  6
CONTINUOUS
 62
               7
100
AcDbLine
 10
-21.523243250030873
 20
-23.0
 30
0.0
 11
21.523243250030873
 21
-23.0
 31
0.0
  0
ARC
  5
232
100
AcDbEntity
  8
0
  6
CONTINUOUS
 62
               7
100
AcDbCircle
 10
0.0
 20
0.0
 30
0.0
 40
31.5
100
AcDbArc
 50
313.10029738700706
 51
316.89970261299294
  0
LINE
  5
233
100
AcDbEntity
  8
0
  6
CONTINUOUS
 62
               7
100
AcDbLine
 10
21.523243250030873
 20
23.0
 30
0.0
 11
-21.523243250030873
 21
23.0
 31
0.0
  0
LINE
  5
234
100
AcDbEntity
  8
0
  6
CONTINUOUS
 62
               7
100
AcDbLine
 10
30.581857366745936
 20
25.000000000000114
 30
0.0
 11
-30.58185736674595
 21
25.000000000000114
 31
0.0
  0
CIRCLE
  5
235
100
AcDbEntity
  8
0
  6
CONTINUOUS
 62
               7
100
AcDbCircle
 10
28.0
 20
20.000000000000114
 30
0.0
 40
2.1000000000000001
  0
CIRCLE
  5
236
100
AcDbEntity
  8
0
  6
CONTINUOUS
 62
               2
100
AcDbCircle
 10
28.0
 20
20.000000000000114
 30
0.0
 40
2.5
  0
ARC
  5
237
100
AcDbEntity
  8
0
  6
CONTINUOUS
 62
               7
100
AcDbCircle
 10
-20.000007629382878
 20
-20.000007629382935
 30
0.0
 40
2.4999923706287519
100
AcDbArc
 50
179.99982514689074
 51
270.00017485310968
  0
ARC
  5
238
100
AcDbEntity
  8
0
  6
CONTINUOUS
 62
               7
100
AcDbCircle
 10
20.000007629382878
 20
-20.000007629382935
 30
0.0
 40
2.4999923706287519
100
AcDbArc
 50
269.99982514689037
 51
0.0001748531092675
  0
ARC
  5
239
100
AcDbEntity
  8
0
  6
CONTINUOUS
 62
               7
100
AcDbCircle
 10
19.999992370593816
 20
19.999992370593759
 30
0.0
 40
2.5000076294178144
100
AcDbArc
 50
0.0001748525762066
 51
89.999825147424104
  0
ARC
  5
23A
100
AcDbEntity
  8
0
  6
CONTINUOUS
 62
               7
100
AcDbCircle
 10
-19.999992370593816
 20
19.999992370593759
 30
0.0
 40
2.5000076294178144
100
AcDbArc
 50
90.000174852575896
 51
179.99982514742379
  0
CIRCLE
  5
23B
100
AcDbEntity
  8
0
  6
CONTINUOUS
 62
               2
100
AcDbCircle
 10
-10.999984741210938
 20
7.0
 30
0.0
 40
1.25
  0
CIRCLE
  5
23C
100
AcDbEntity
  8
0
  6
CONTINUOUS
 62
               2
100
AcDbCircle
 10
-10.999984741210938
 20
7.0
 30
0.0
 40
1.5
  0
CIRCLE
  5
23D
100
AcDbEntity
  8
0
  6
CONTINUOUS
 62
               2
100
AcDbCircle
 10
11.000015258789063
 20
-7.0
 30
0.0
 40
1.25
  0
CIRCLE
  5
23E
100
AcDbEntity
  8
0
  6
CONTINUOUS
 62
               2
100
AcDbCircle
 10
11.000015258789063
 20
-7.0
 30
0.0
 40
1.5
  0
CIRCLE
  5
23F
100
AcDbEntity
  8
0
  6
CONTINUOUS
 62
               7
100
AcDbCircle
 10
0.0
 20
-0.0000152587890625
 30
0.0
 40
2.5
  0
CIRCLE
  5
240
100
AcDbEntity
  8
0
  6
CONTINUOUS
 62
               7
100
AcDbCircle
 10
0.0
 20
-0.0000152587890625
 30
0.0
 40
3.0
  0
CIRCLE
  5
241
100
AcDbEntity
  8
0
  6
CONTINUOUS
 62
               7
100
AcDbCircle
 10
0.0
 20
-0.0000152587890625
 30
0.0
 40
10.0
  0
ARC
  5
242
100
AcDbEntity
  8
0
  6
CONTINUOUS
 62
               7
100
AcDbCircle
 10
12.499992370586085
 20
20.999992370586028
 30
0.0
 40
1.5000076294333362
100
AcDbArc
 50
0.0002914206638318
 51
89.999708579336726
  0
ARC
  5
243
100
AcDbEntity
  8
0
  6
CONTINUOUS
 62
               7
100
AcDbCircle
 10
20.999992370586085
 20
12.499992370586028
 30
0.0
 40
1.5000076294333362
100
AcDbArc
 50
0.0002914206638318
 51
89.999708579336726
  0
ARC
  5
244
100
AcDbEntity
  8
0
  6
CONTINUOUS
 62
               7
100
AcDbCircle
 10
21.000007629375148
 20
-12.500007629375204
 30
0.0
 40
1.4999923706442737
100
AcDbArc
 50
269.99970857785439
 51
0.0002914221453596
  0
ARC
  5
245
100
AcDbEntity
  8
0
  6
CONTINUOUS
 62
               7
100
AcDbCircle
 10
12.500007629375148
 20
-21.000007629375204
 30
0.0
 40
1.4999923706442737
100
AcDbArc
 50
269.99970857785411
 51
0.0002914221453596
  0
ARC
  5
246
100
AcDbEntity
  8
0
  6
CONTINUOUS
 62
               7
100
AcDbCircle
 10
-12.500007629375148
 20
-21.000007629375204
 30
0.0
 40
1.4999923706442737
100
AcDbArc
 50
179.99970857785465
 51
270.00029142214589
  0
ARC
  5
247
100
AcDbEntity
  8
0
  6
CONTINUOUS
 62
               7
100
AcDbCircle
 10
-21.000007629375148
 20
-12.500007629375204
 30
0.0
 40
1.4999923706442737
100
AcDbArc
 50
179.99970857785465
 51
270.00029142214589
  0
ARC
  5
248
100
AcDbEntity
  8
0
  6
CONTINUOUS
 62
               7
100
AcDbCircle
 10
-20.999992370586085
 20
12.499992370586028
 30
0.0
 40
1.5000076294333362
100
AcDbArc
 50
90.000291420663274
 51
179.99970857933616
  0
ARC
  5
249
100
AcDbEntity
  8
0
  6
CONTINUOUS
 62
               7
100
AcDbCircle
 10
-12.499992370586085
 20
20.999992370586028
 30
0.0
 40
1.5000076294333362
100
AcDbArc
 50
90.000291420663274
 51
179.99970857933616
  0
ARC
  5
24A
100
AcDbEntity
  8
0
  6
CONTINUOUS
 62
               7
100
AcDbCircle
 10
-18.000007629401807
 20
-18.000007629401807
 30
0.0
 40
4.0000076294090832
100
AcDbArc
 50
0.0001092829224998
 51
89.999890717077506
  0
ARC
  5
24B
100
AcDbEntity
  8
0
  6
CONTINUOUS
 62
               7
100
AcDbCircle
 10
17.999992370612745
 20
17.999992370612745
 30
0.0
 40
3.9999923706200207
100
AcDbArc
 50
179.99989071686906
 51
270.00010928313094
  0
ARC
  5
24C
100
AcDbEntity
  8
0
  6
CONTINUOUS
 62
               7
100
AcDbCircle
 10
18.000007629401807
 20
-18.000007629401807
 30
0.0
 40
4.0000076294090832
100
AcDbArc
 50
90.000109282922494
 51
179.99989071707751
  0
ARC
  5
24D
100
AcDbEntity
  8
0
  6
CONTINUOUS
 62
               7
100
AcDbCircle
 10
-17.999992370612745
 20
17.999992370612745
 30
0.0
 40
3.9999923706200207
100
AcDbArc
 50
269.99989071686906
 51
0.0001092831309406
  0
LINE
  5
24E
100
AcDbEntity
  8
0
  6
CONTINUOUS
 62
               2
100
AcDbLine
 10
-11.0
 20
10.0
 30
0.0
 11
-11.0
 21
4.0
 31
0.0
  0
LINE
  5
24F
100
AcDbEntity
  8
0
  6
CONTINUOUS
 62
               2
100
AcDbLine
 10
-14.0
 20
7.0
 30
0.0
 11
-8.0
 21
7.0
 31
0.0
  0
LINE
  5
250
100
AcDbEntity
  8
0
  6
CONTINUOUS
 62
               2
100
AcDbLine
 10
14.0
 20
-7.0
 30
0.0
 11
8.0
 21
-7.0
 31
0.0
  0
LINE
  5
251
100
AcDbEntity
  8
0
  6
CONTINUOUS
 62
               2
100
AcDbLine
 10
11.0
 20
-10.0
 30
0.0
 11
11.0
 21
-4.0
 31
0.0
  0
LINE
  5
252
100
AcDbEntity
  8
0
  6
CONTINUOUS
 62
               7
100
AcDbLine
 10
2.5031580054004507
 20
1.6546298679764959
 30
0.0
 11
2.5031580054003939
 21
-1.6546298679764959
 31
0.0
  0
LINE
  5
253
100
AcDbEntity
  8
0
  6
CONTINUOUS
 62
               7
100
AcDbLine
 10
18.0
 20
-14.0
 30
0.0
 11
21.0
 21
-14.0
 31
0.0
  0
LINE
  5
254
100
AcDbEntity
  8
0
  6
CONTINUOUS
 62
               7
100
AcDbLine
 10
18.0
 20
14.0
 30
0.0
 11
21.0
 21
14.0
 31
0.0
  0
LINE
  5
255
100
AcDbEntity
  8
0
  6
CONTINUOUS
 62
               7
100
AcDbLine
 10
14.0
 20
-18.0
 30
0.0
 11
14.0
 21
-21.0
 31
0.0
  0
LINE
  5
256
100
AcDbEntity
  8
0
  6
CONTINUOUS
 62
               7
100
AcDbLine
 10
-14.0
 20
-18.0
 30
0.0
 11
-14.0
 21
-21.0
 31
0.0
  0
LINE
  5
257
100
AcDbEntity
  8
0
  6
CONTINUOUS
 62
               7
100
AcDbLine
 10
-21.0
 20
14.0
 30
0.0
 11
-18.0
 21
14.0
 31
0.0
  0
LINE
  5
258
100
AcDbEntity
  8
0
  6
CONTINUOUS
 62
               7
100
AcDbLine
 10
-21.0
 20
-14.0
 30
0.0
 11
-18.0
 21
-14.0
 31
0.0
  0
LINE
  5
259
100
AcDbEntity
  8
0
  6
CONTINUOUS
 62
               7
100
AcDbLine
 10
14.0
 20
21.0
 30
0.0
 11
14.0
 21
18.0
 31
0.0
  0
LINE
  5
25A
100
AcDbEntity
  8
0
  6
CONTINUOUS
 62
               7
100
AcDbLine
 10
-14.0
 20
21.0
 30
0.0
 11
-14.0
 21
18.0
 31
0.0
  0
LINE
  5
25B
100
AcDbEntity
  8
0
  6
CONTINUOUS
 62
               7
100
AcDbLine
 10
-20.0
 20
22.5
 30
0.0
 11
20.0
 21
22.5
 31
0.0
  0
LINE
  5
25C
100
AcDbEntity
  8
0
  6
CONTINUOUS
 62
               7
100
AcDbLine
 10
-20.0
 20
-22.5
 30
0.0
 11
20.0
 21
-22.5
 31
0.0
  0
LINE
  5
25D
100
AcDbEntity
  8
0
  6
CONTINUOUS
 62
               7
100
AcDbLine
 10
22.5
 20
20.0
 30
0.0
 11
22.5
 21
-20.0
 31
0.0
  0
LINE
  5
25E
100
AcDbEntity
  8
0
  6
CONTINUOUS
 62
               7
100
AcDbLine
 10
-22.5
 20
20.0
 30
0.0
 11
-22.5
 21
-20.0
 31
0.0
  0
CIRCLE
  5
25F
100
AcDbEntity
  8
0
  6
CONTINUOUS
 62
               7
100
AcDbCircle
 10
-18.0
 20
18.0
 30
0.0
 40
3.5
  0
CIRCLE
  5
260
100
AcDbEntity
  8
0
  6
CONTINUOUS
 62
               7
100
AcDbCircle
 10
-18.0
 20
18.0
 30
0.0
 40
3.1000000000000001
  0
LINE
  5
261
100
AcDbEntity
  8
0
  6
CONTINUOUS
 62
               7
100
AcDbLine
 10
-17.139999999999986
 20
19.489563694509229
 30
0.0
 11
-18.860000000000014
 21
19.489563694509229
 31
0.0
  0
LINE
  5
262
100
AcDbEntity
  8
0
  6
CONTINUOUS
 62
               7
100
AcDbLine
 10
-16.279999999999973
 20
18.0
 30
0.0
 11
-17.139999999999986
 21
19.489563694509229
 31
0.0
  0
LINE
  5
263
100
AcDbEntity
  8
0
  6
CONTINUOUS
 62
               7
100
AcDbLine
 10
-18.860000000000014
 20
19.489563694509229
 30
0.0
 11
-19.720000000000027
 21
18.0
 31
0.0
  0
LINE
  5
264
100
AcDbEntity
  8
0
  6
CONTINUOUS
 62
               7
100
AcDbLine
 10
-19.720000000000027
 20
18.0
 30
0.0
 11
-18.860000000000014
 21
16.510436305490771
 31
0.0
  0
LINE
  5
265
100
AcDbEntity
  8
0
  6
CONTINUOUS
 62
               7
100
AcDbLine
 10
-18.860000000000014
 20
16.510436305490771
 30
0.0
 11
-17.139999999999986
 21
16.510436305490771
 31
0.0
  0
LINE
  5
266
100
AcDbEntity
  8
0
  6
CONTINUOUS
 62
               7
100
AcDbLine
 10
-17.139999999999986
 20
16.510436305490771
 30
0.0
 11
-16.279999999999973
 21
18.0
 31
0.0
  0
CIRCLE
  5
267
100
AcDbEntity
  8
0
  6
CONTINUOUS
 62
               7
100
AcDbCircle
 10
-18.0
 20
-18.0
 30
0.0
 40
3.5
  0
CIRCLE
  5
268
100
AcDbEntity
  8
0
  6
CONTINUOUS
 62
               7
100
AcDbCircle
 10
-18.0
 20
-18.0
 30
0.0
 40
3.1000000000000001
  0
LINE
  5
269
100
AcDbEntity
  8
0
  6
CONTINUOUS
 62
               7
100
AcDbLine
 10
-17.139999999999986
 20
-16.510436305490771
 30
0.0
 11
-18.860000000000014
 21
-16.510436305490771
 31
0.0
  0
LINE
  5
26A
100
AcDbEntity
  8
0
  6
CONTINUOUS
 62
               7
100
AcDbLine
 10
-16.279999999999973
 20
-18.0
 30
0.0
 11
-17.139999999999986
 21
-16.510436305490771
 31
0.0
  0
LINE
  5
26B
100
AcDbEntity
  8
0
  6
CONTINUOUS
 62
               7
100
AcDbLine
 10
-18.860000000000014
 20
-16.510436305490771
 30
0.0
 11
-19.720000000000027
 21
-18.0
 31
0.0
  0
LINE
  5
26C
100
AcDbEntity
  8
0
  6
CONTINUOUS
 62
               7
100
AcDbLine
 10
-19.720000000000027
 20
-18.0
 30
0.0
 11
-18.860000000000014
 21
-19.489563694509229
 31
0.0
  0
LINE
  5
26D
100
AcDbEntity
  8
0
  6
CONTINUOUS
 62
               7
100
AcDbLine
 10
-18.860000000000014
 20
-19.489563694509229
 30
0.0
 11
-17.139999999999986
 21
-19.489563694509229
 31
0.0
  0
LINE
  5
26E
100
AcDbEntity
  8
0
  6
CONTINUOUS
 62
               7
100
AcDbLine
 10
-17.139999999999986
 20
-19.489563694509229
 30
0.0
 11
-16.279999999999973
 21
-18.0
 31
0.0
  0
CIRCLE
  5
26F
100
AcDbEntity
  8
0
  6
CONTINUOUS
 62
               7
100
AcDbCircle
 10
17.999999999999886
 20
-18.0
 30
0.0
 40
3.5
  0
CIRCLE
  5
270
100
AcDbEntity
  8
0
  6
CONTINUOUS
 62
               7
100
AcDbCircle
 10
17.999999999999886
 20
-18.0
 30
0.0
 40
3.1000000000000001
  0
LINE
  5
271
100
AcDbEntity
  8
0
  6
CONTINUOUS
 62
               7
100
AcDbLine
 10
18.8599999999999
 20
-16.510436305490771
 30
0.0
 11
17.139999999999873
 21
-16.510436305490771
 31
0.0
  0
LINE
  5
272
100
AcDbEntity
  8
0
  6
CONTINUOUS
 62
               7
100
AcDbLine
 10
19.719999999999885
 20
-18.0
 30
0.0
 11
18.8599999999999
 21
-16.510436305490771
 31
0.0
  0
LINE
  5
273
100
AcDbEntity
  8
0
  6
CONTINUOUS
 62
               7
100
AcDbLine
 10
17.139999999999873
 20
-16.510436305490771
 30
0.0
 11
16.279999999999887
 21
-18.0
 31
0.0
  0
LINE
  5
274
100
AcDbEntity
  8
0
  6
CONTINUOUS
 62
               7
100
AcDbLine
 10
16.279999999999887
 20
-18.0
 30
0.0
 11
17.139999999999873
 21
-19.489563694509229
 31
0.0
  0
LINE
  5
275
100
AcDbEntity
  8
0
  6
CONTINUOUS
 62
               7
100
AcDbLine
 10
17.139999999999873
 20
-19.489563694509229
 30
0.0
 11
18.859999999999872
 21
-19.489563694509229
 31
0.0
  0
LINE
  5
276
100
AcDbEntity
  8
0
  6
CONTINUOUS
 62
               7
100
AcDbLine
 10
18.8599999999999
 20
-19.489563694509229
 30
0.0
 11
19.719999999999885
 21
-18.0
 31
0.0
  0
CIRCLE
  5
277
100
AcDbEntity
  8
0
  6
CONTINUOUS
 62
               7
100
AcDbCircle
 10
17.999999999999886
 20
18.0
 30
0.0
 40
3.5
  0
CIRCLE
  5
278
100
AcDbEntity
  8
0
  6
CONTINUOUS
 62
               7
100
AcDbCircle
 10
17.999999999999886
 20
18.0
 30
0.0
 40
3.1000000000000001
  0
LINE
  5
279
100
AcDbEntity
  8
0
  6
CONTINUOUS
 62
               7
100
AcDbLine
 10
18.8599999999999
 20
19.489563694509229
 30
0.0
 11
17.139999999999873
 21
19.489563694509229
 31
0.0
  0
LINE
  5
27A
100
AcDbEntity
  8
0
  6
CONTINUOUS
 62
               7
100
AcDbLine
 10
19.719999999999885
 20
18.0
 30
0.0
 11
18.8599999999999
 21
19.489563694509229
 31
0.0
  0
LINE
  5
27B
100
AcDbEntity
  8
0
  6
CONTINUOUS
 62
               7
100
AcDbLine
 10
17.139999999999873
 20
19.489563694509229
 30
0.0
 11
16.279999999999887
 21
18.0
 31
0.0
  0
LINE
  5
27C
100
AcDbEntity
  8
0
  6
CONTINUOUS
 62
               7
100
AcDbLine
 10
16.279999999999887
 20
18.0
 30
0.0
 11
17.139999999999873
 21
16.510436305490771
 31
0.0
  0
LINE
  5
27D
100
AcDbEntity
  8
0
  6
CONTINUOUS
 62
               7
100
AcDbLine
 10
17.139999999999873
 20
16.510436305490771
 30
0.0
 11
18.859999999999872
 21
16.510436305490771
 31
0.0
  0
LINE
  5
27E
100
AcDbEntity
  8
0
  6
CONTINUOUS
 62
               7
100
AcDbLine
 10
18.8599999999999
 20
16.510436305490771
 30
0.0
 11
19.719999999999885
 21
18.0
 31
0.0
  0
LINE
  5
27F
100
AcDbEntity
  8
0
  6
CONTINUOUS
 62
               2
100
AcDbLine
 10
-38.0
 20
0.0
 30
0.0
 11
38.0
 21
0.0
 31
0.0
  0
LINE
  5
280
100
AcDbEntity
  8
0
  6
CONTINUOUS
 62
               2
100
AcDbLine
 10
28.0
 20
15.000000000000114
 30
0.0
 11
28.0
 21
25.000000000000114
 31
0.0
  0
LINE
  5
281
100
AcDbEntity
  8
0
  6
CONTINUOUS
 62
               2
100
AcDbLine
 10
23.0
 20
20.000000000000114
 30
0.0
 11
33.0
 21
20.000000000000114
 31
0.0
  0
LINE
  5
282
100
AcDbEntity
  8
0
  6
CONTINUOUS
 62
               2
100
AcDbLine
 10
23.0
 20
-20.000000000000114
 30
0.0
 11
33.0
 21
-20.000000000000114
 31
0.0
  0
LINE
  5
283
100
AcDbEntity
  8
0
  6
CONTINUOUS
 62
               2
100
AcDbLine
 10
-33.0
 20
20.000000000000114
 30
0.0
 11
-23.0
 21
20.000000000000114
 31
0.0
  0
LINE
  5
284
100
AcDbEntity
  8
0
  6
CONTINUOUS
 62
               2
100
AcDbLine
 10
-33.0
 20
-20.000000000000114
 30
0.0
 11
-23.0
 21
-20.000000000000114
 31
0.0
  0
LINE
  5
285
100
AcDbEntity
  8
0
  6
CONTINUOUS
 62
               2
100
AcDbLine
 10
28.0
 20
-25.000000000000114
 30
0.0
 11
28.0
 21
-15.000000000000114
 31
0.0
  0
LINE
  5
286
100
AcDbEntity
  8
0
  6
CONTINUOUS
 62
               2
100
AcDbLine
 10
-28.0
 20
15.000000000000114
 30
0.0
 11
-28.0
 21
25.000000000000114
 31
0.0
  0
LINE
  5
287
100
AcDbEntity
  8
0
  6
CONTINUOUS
 62
               2
100
AcDbLine
 10
-28.0
 20
-25.000000000000114
 30
0.0
 11
-28.0
 21
-15.000000000000114
 31
0.0
  0
LINE
  5
288
100
AcDbEntity
  8
0
  6
CONTINUOUS
 62
               2
100
AcDbLine
 10
0.0
 20
30.0
 30
0.0
 11
0.0
 21
-30.0
 31
0.0
  0
LINE
  5
289
100
AcDbEntity
  8
0
  6
CONTINUOUS
 62
               2
100
AcDbLine
 10
18.0
 20
-28.000000000000114
 30
0.0
 11
18.0
 21
-22.000000000000114
 31
0.0
  0
LINE
  5
28A
100
AcDbEntity
  8
0
  6
CONTINUOUS
 62
               2
100
AcDbLine
 10
-18.0
 20
-28.000000000000114
 30
0.0
 11
-18.0
 21
-22.000000000000114
 31
0.0
  0
LINE
  5
28B
100
AcDbEntity
  8
0
  6
CONTINUOUS
 62
               2
100
AcDbLine
 10
-6.5
 20
20.0
 30
0.0
 11
-6.5
 21
26.0
 31
0.0
  0
LINE
  5
28C
100
AcDbEntity
  8
0
  6
CONTINUOUS
 62
               2
100
AcDbLine
 10
6.5
 20
20.0
 30
0.0
 11
6.5
 21
26.0
 31
0.0
  0
ENDBLK
  5
28D
100
AcDbEntity
  8
0
100
AcDbBlockEnd
  0
BLOCK
  5
28E
100
AcDbEntity
  8
0
100
AcDbBlockBegin
  2
RAG8-6
 70
               0
 10
0.0
 20
0.0
 30
0.0
  3
RAG8-6
  1

  0
LINE
  5
28F
100
AcDbEntity
  8
0
  6
CONTINUOUS
 62
               7
100
AcDbLine
 10
-30.581857366745851
 20
-8.0000000000001137
 30
0.0
 11
-30.581857366745851
 21
-45.650000000000212
 31
0.0
  0
LINE
  5
290
100
AcDbEntity
  8
0
  6
CONTINUOUS
 62
               7
100
AcDbLine
 10
-30.581857366745851
 20
-50.35000000000003
 30
0.0
 11
-30.581857366745851
 21
-61.000000000000121
 31
0.0
  0
LINE
  5
291
100
AcDbEntity
  8
0
  6
CONTINUOUS
 62
               7
100
AcDbLine
 10
30.581857366745851
 20
-50.35000000000003
 30
0.0
 11
30.581857366745851
 21
-61.000000000000121
 31
0.0
  0
LINE
  5
292
100
AcDbEntity
  8
0
  6
CONTINUOUS
 62
               7
100
AcDbLine
 10
30.581857366745851
 20
-8.0000000000001137
 30
0.0
 11
30.581857366745851
 21
-45.650000000000212
 31
0.0
  0
LINE
  5
293
100
AcDbEntity
  8
0
  6
CONTINUOUS
 62
               7
100
AcDbLine
 10
22.0
 20
-5.5
 30
0.0
 11
22.0
 21
-6.0
 31
0.0
  0
LINE
  5
294
100
AcDbEntity
  8
0
  6
CONTINUOUS
 62
               7
100
AcDbLine
 10
-22.0
 20
-5.5
 30
0.0
 11
-22.0
 21
-6.0
 31
0.0
  0
LINE
  5
295
100
AcDbEntity
  8
0
  6
CONTINUOUS
 62
               7
100
AcDbLine
 10
23.0
 20
-5.5
 30
0.0
 11
-23.0
 21
-5.5
 31
0.0
  0
LINE
  5
296
100
AcDbEntity
  8
0
  6
CONTINUOUS
 62
               7
100
AcDbLine
 10
23.0
 20
0.0
 30
0.0
 11
23.0
 21
-5.5
 31
0.0
  0
LINE
  5
297
100
AcDbEntity
  8
0
  6
CONTINUOUS
 62
               7
100
AcDbLine
 10
-23.0
 20
0.0
 30
0.0
 11
-23.0
 21
-5.5
 31
0.0
  0
LINE
  5
298
100
AcDbEntity
  8
0
  6
CONTINUOUS
 62
               7
100
AcDbLine
 10
33.0
 20
-8.0
 30
0.0
 11
33.0
 21
-45.650000000000212
 31
0.0
  0
LINE
  5
299
100
AcDbEntity
  8
0
  6
CONTINUOUS
 62
               7
100
AcDbLine
 10
-33.0
 20
-8.0
 30
0.0
 11
-33.0
 21
-45.650000000000212
 31
0.0
  0
LINE
  5
29A
100
AcDbEntity
  8
0
  6
CONTINUOUS
 62
               7
100
AcDbLine
 10
33.0
 20
-61.000000000000121
 30
0.0
 11
-33.0
 21
-61.000000000000121
 31
0.0
  0
LINE
  5
29B
100
AcDbEntity
  8
0
  6
CONTINUOUS
 62
               7
100
AcDbLine
 10
23.0
 20
-61.000000000000121
 30
0.0
 11
23.0
 21
-64.000000000000114
 31
0.0
  0
LINE
  5
29C
100
AcDbEntity
  8
0
  6
CONTINUOUS
 62
               7
100
AcDbLine
 10
-23.0
 20
-61.000000000000121
 30
0.0
 11
-23.0
 21
-64.000000000000114
 31
0.0
  0
LINE
  5
29D
100
AcDbEntity
  8
0
  6
CONTINUOUS
 62
               7
100
AcDbLine
 10
24.0
 20
-6.0
 30
0.0
 11
24.0
 21
-8.0
 31
0.0
  0
LINE
  5
29E
100
AcDbEntity
  8
0
  6
CONTINUOUS
 62
               7
100
AcDbLine
 10
-24.0
 20
-6.0
 30
0.0
 11
-24.0
 21
-8.0
 31
0.0
  0
LINE
  5
29F
100
AcDbEntity
  8
0
  6
CONTINUOUS
 62
               7
100
AcDbLine
 10
23.0
 20
-64.000000000000114
 30
0.0
 11
-23.0
 21
-64.000000000000114
 31
0.0
  0
LINE
  5
2A0
100
AcDbEntity
  8
0
  6
CONTINUOUS
 62
               7
100
AcDbLine
 10
24.0
 20
-6.0
 30
0.0
 11
-24.0
 21
-6.0
 31
0.0
  0
LINE
  5
2A1
100
AcDbEntity
  8
0
  6
CONTINUOUS
 62
               7
100
AcDbLine
 10
33.0
 20
-8.0
 30
0.0
 11
-33.0
 21
-8.0
 31
0.0
  0
LINE
  5
2A2
100
AcDbEntity
  8
0
  6
CONTINUOUS
 62
               7
100
AcDbLine
 10
23.0
 20
0.0
 30
0.0
 11
-23.0
 21
0.0
 31
0.0
  0
LINE
  5
2A3
100
AcDbEntity
  8
0
  6
CONTINUOUS
 62
               2
100
AcDbLine
 10
24.0
 20
-26.0
 30
0.0
 11
12.0
 21
-26.0
 31
0.0
  0
LINE
  5
2A4
100
AcDbEntity
  8
0
  6
CONTINUOUS
 62
               2
100
AcDbLine
 10
18.0
 20
-20.0
 30
0.0
 11
18.0
 21
-32.0
 31
0.0
  0
CIRCLE
  5
2A5
100
AcDbEntity
  8
0
  6
CONTINUOUS
 62
               7
100
AcDbCircle
 10
18.0
 20
-26.0
 30
0.0
 40
2.75
  0
LINE
  5
2A6
100
AcDbEntity
  8
0
  6
CONTINUOUS
 62
               2
100
AcDbLine
 10
-18.0
 20
-20.0
 30
0.0
 11
-18.0
 21
-32.0
 31
0.0
  0
CIRCLE
  5
2A7
100
AcDbEntity
  8
0
  6
CONTINUOUS
 62
               7
100
AcDbCircle
 10
-18.0
 20
-26.0
 30
0.0
 40
2.75
  0
LINE
  5
2A8
100
AcDbEntity
  8
0
  6
CONTINUOUS
 62
               7
100
AcDbLine
 10
2.0
 20
-40.000000000000121
 30
0.0
 11
2.0
 21
-42.000000000000121
 31
0.0
  0
LINE
  5
2A9
100
AcDbEntity
  8
0
  6
CONTINUOUS
 62
               7
100
AcDbLine
 10
-2.0
 20
-40.000000000000121
 30
0.0
 11
-2.0
 21
-42.000000000000121
 31
0.0
  0
LINE
  5
2AA
100
AcDbEntity
  8
0
  6
CONTINUOUS
 62
               2
100
AcDbLine
 10
5.0
 20
-42.000000000000121
 30
0.0
 11
-5.0
 21
-42.000000000000121
 31
0.0
  0
LINE
  5
2AB
100
AcDbEntity
  8
0
  6
CONTINUOUS
 62
               2
100
AcDbLine
 10
5.0
 20
-40.000000000000121
 30
0.0
 11
-5.0
 21
-40.000000000000121
 31
0.0
  0
ARC
  5
2AC
100
AcDbEntity
  8
0
  6
CONTINUOUS
 62
               7
100
AcDbCircle
 10
0.0
 20
-40.000000000000121
 30
0.0
 40
2.0
100
AcDbArc
 50
0.0
 51
180.0
  0
ARC
  5
2AD
100
AcDbEntity
  8
0
  6
CONTINUOUS
 62
               7
100
AcDbCircle
 10
0.0
 20
-42.000000000000121
 30
0.0
 40
2.0
100
AcDbArc
 50
180.0
 51
0.0
  0
CIRCLE
  5
2AE
100
AcDbEntity
  8
0
  6
CONTINUOUS
 62
               7
100
AcDbCircle
 10
0.0
 20
-23.0
 30
0.0
 40
2.0
  0
LINE
  5
2AF
100
AcDbEntity
  8
0
  6
CONTINUOUS
 62
               7
100
AcDbLine
 10
22.5
 20
-94.000000000000114
 30
0.0
 11
22.5
 21
-64.000000000000114
 31
0.0
  0
LINE
  5
2B0
100
AcDbEntity
  8
0
  6
CONTINUOUS
 62
               7
100
AcDbLine
 10
-22.5
 20
-94.000000000000114
 30
0.0
 11
-22.5
 21
-64.000000000000114
 31
0.0
  0
LINE
  5
2B1
100
AcDbEntity
  8
0
  6
CONTINUOUS
 62
               7
100
AcDbLine
 10
3.0
 20
-102.50000000000011
 30
0.0
 11
2.5
 21
-103.00000000000011
 31
0.0
  0
LINE
  5
2B2
100
AcDbEntity
  8
0
  6
CONTINUOUS
 62
               7
100
AcDbLine
 10
-2.5
 20
-102.50000000000011
 30
0.0
 11
3.0
 21
-102.50000000000011
 31
0.0
  0
LINE
  5
2B3
100
AcDbEntity
  8
0
  6
CONTINUOUS
 62
               7
100
AcDbLine
 10
-2.5
 20
-103.00000000000011
 30
0.0
 11
2.5
 21
-103.00000000000011
 31
0.0
  0
LINE
  5
2B4
100
AcDbEntity
  8
0
  6
CONTINUOUS
 62
               7
100
AcDbLine
 10
-2.5
 20
-103.00000000000011
 30
0.0
 11
-2.5
 21
-98.000000000000114
 31
0.0
  0
LINE
  5
2B5
100
AcDbEntity
  8
0
  6
CONTINUOUS
 62
               7
100
AcDbLine
 10
-2.5
 20
-98.000000000000114
 30
0.0
 11
-3.0
 21
-97.500000000000114
 31
0.0
  0
LINE
  5
2B6
100
AcDbEntity
  8
0
  6
CONTINUOUS
 62
               7
100
AcDbLine
 10
-3.0
 20
-97.500000000000114
 30
0.0
 11
-3.0
 21
-96.000000000000114
 31
0.0
  0
LINE
  5
2B7
100
AcDbEntity
  8
0
  6
CONTINUOUS
 62
               7
100
AcDbLine
 10
3.0
 20
-102.50000000000011
 30
0.0
 11
3.0
 21
-96.000000000000114
 31
0.0
  0
LINE
  5
2B8
100
AcDbEntity
  8
0
  6
CONTINUOUS
 62
               7
100
AcDbLine
 10
14.5
 20
-78.600000000000136
 30
0.0
 11
14.5
 21
-75.000000000000114
 31
0.0
  0
LINE
  5
2B9
100
AcDbEntity
  8
0
  6
CONTINUOUS
 62
               7
100
AcDbLine
 10
21.5
 20
-78.600000000000136
 30
0.0
 11
21.5
 21
-75.000000000000114
 31
0.0
  0
LINE
  5
2BA
100
AcDbEntity
  8
0
  6
CONTINUOUS
 62
               7
100
AcDbLine
 10
14.899999999999977
 20
-79.000000000000114
 30
0.0
 11
21.099999999999966
 21
-79.000000000000114
 31
0.0
  0
LINE
  5
2BB
100
AcDbEntity
  8
0
  6
CONTINUOUS
 62
               7
100
AcDbLine
 10
14.5
 20
-78.600000000000136
 30
0.0
 11
21.5
 21
-78.600000000000136
 31
0.0
  0
LINE
  5
2BC
100
AcDbEntity
  8
0
  6
CONTINUOUS
 62
               7
100
AcDbLine
 10
14.899999999999977
 20
-79.000000000000114
 30
0.0
 11
14.5
 21
-78.600000000000136
 31
0.0
  0
LINE
  5
2BD
100
AcDbEntity
  8
0
  6
CONTINUOUS
 62
               7
100
AcDbLine
 10
21.5
 20
-78.600000000000136
 30
0.0
 11
21.099999999999966
 21
-79.000000000000114
 31
0.0
  0
LINE
  5
2BE
100
AcDbEntity
  8
0
  6
CONTINUOUS
 62
               7
100
AcDbLine
 10
-21.5
 20
-78.600000000000136
 30
0.0
 11
-21.5
 21
-75.000000000000114
 31
0.0
  0
LINE
  5
2BF
100
AcDbEntity
  8
0
  6
CONTINUOUS
 62
               7
100
AcDbLine
 10
-14.5
 20
-78.600000000000136
 30
0.0
 11
-14.5
 21
-75.000000000000114
 31
0.0
  0
LINE
  5
2C0
100
AcDbEntity
  8
0
  6
CONTINUOUS
 62
               7
100
AcDbLine
 10
-21.100000000000023
 20
-79.000000000000114
 30
0.0
 11
-14.900000000000034
 21
-79.000000000000114
 31
0.0
  0
LINE
  5
2C1
100
AcDbEntity
  8
0
  6
CONTINUOUS
 62
               7
100
AcDbLine
 10
-21.5
 20
-78.600000000000136
 30
0.0
 11
-14.5
 21
-78.600000000000136
 31
0.0
  0
LINE
  5
2C2
100
AcDbEntity
  8
0
  6
CONTINUOUS
 62
               7
100
AcDbLine
 10
-21.100000000000023
 20
-79.000000000000114
 30
0.0
 11
-21.5
 21
-78.600000000000136
 31
0.0
  0
LINE
  5
2C3
100
AcDbEntity
  8
0
  6
CONTINUOUS
 62
               7
100
AcDbLine
 10
-14.5
 20
-78.600000000000136
 30
0.0
 11
-14.900000000000034
 21
-79.000000000000114
 31
0.0
  0
LINE
  5
2C4
100
AcDbEntity
  8
0
  6
CONTINUOUS
 62
               7
100
AcDbLine
 10
-14.0
 20
-94.000000000000114
 30
0.0
 11
-14.0
 21
-75.000000000000114
 31
0.0
  0
LINE
  5
2C5
100
AcDbEntity
  8
0
  6
CONTINUOUS
 62
               7
100
AcDbLine
 10
14.0
 20
-94.000000000000114
 30
0.0
 11
14.0
 21
-75.000000000000114
 31
0.0
  0
LINE
  5
2C6
100
AcDbEntity
  8
0
  6
CONTINUOUS
 62
               7
100
AcDbLine
 10
-22.5
 20
-75.000000000000114
 30
0.0
 11
22.5
 21
-75.000000000000114
 31
0.0
  0
LINE
  5
2C7
100
AcDbEntity
  8
0
  6
CONTINUOUS
 62
               7
100
AcDbLine
 10
-10.0
 20
-96.000000000000114
 30
0.0
 11
10.0
 21
-96.000000000000114
 31
0.0
  0
LINE
  5
2C8
100
AcDbEntity
  8
0
  6
CONTINUOUS
 62
               7
100
AcDbLine
 10
10.0
 20
-96.000000000000114
 30
0.0
 11
10.0
 21
-94.000000000000114
 31
0.0
  0
LINE
  5
2C9
100
AcDbEntity
  8
0
  6
CONTINUOUS
 62
               7
100
AcDbLine
 10
-10.0
 20
-96.000000000000114
 30
0.0
 11
-10.0
 21
-94.000000000000114
 31
0.0
  0
LINE
  5
2CA
100
AcDbEntity
  8
0
  6
CONTINUOUS
 62
               7
100
AcDbLine
 10
-22.5
 20
-94.000000000000114
 30
0.0
 11
22.5
 21
-94.000000000000114
 31
0.0
  0
LINE
  5
2CB
100
AcDbEntity
  8
0
  6
CONTINUOUS
 62
               7
100
AcDbLine
 10
-21.523243250030873
 20
-61.000000000000121
 30
0.0
 11
-21.523243250030873
 21
-64.000000000000114
 31
0.0
  0
LINE
  5
2CC
100
AcDbEntity
  8
0
  6
CONTINUOUS
 62
               7
100
AcDbLine
 10
21.523243250030873
 20
-61.000000000000121
 30
0.0
 11
21.523243250030873
 21
-64.000000000000114
 31
0.0
  0
LINE
  5
2CD
100
AcDbEntity
  8
0
  6
CONTINUOUS
 62
               2
100
AcDbLine
 10
5.0
 20
-23.0
 30
0.0
 11
-5.0
 21
-23.0
 31
0.0
  0
LINE
  5
2CE
100
AcDbEntity
  8
0
  6
CONTINUOUS
 62
               2
100
AcDbLine
 10
5.0
 20
-41.000000000000121
 30
0.0
 11
-5.0
 21
-41.000000000000121
 31
0.0
  0
LINE
  5
2CF
100
AcDbEntity
  8
0
  6
CONTINUOUS
 62
               2
100
AcDbLine
 10
-17.900000000000034
 20
-48.000000000000121
 30
0.0
 11
-35.352773094329564
 21
-48.000000000000121
 31
0.0
  0
LINE
  5
2D0
100
AcDbEntity
  8
0
  6
CONTINUOUS
 62
               7
100
AcDbLine
 10
-24.688854381999874
 20
-49.600000000000144
 30
0.0
 11
-25.188854381999874
 21
-49.600000000000144
 31
0.0
  0
LINE
  5
2D1
100
AcDbEntity
  8
0
  6
CONTINUOUS
 62
               7
100
AcDbLine
 10
-25.188854381999874
 20
-49.600000000000144
 30
0.0
 11
-25.188854381999874
 21
-50.350000000000144
 31
0.0
  0
LINE
  5
2D2
100
AcDbEntity
  8
0
  6
CONTINUOUS
 62
               7
100
AcDbLine
 10
-24.688854381999874
 20
-46.400000000000212
 30
0.0
 11
-25.188854381999874
 21
-46.400000000000212
 31
0.0
  0
LINE
  5
2D3
100
AcDbEntity
  8
0
  6
CONTINUOUS
 62
               7
100
AcDbLine
 10
-25.188854381999874
 20
-46.400000000000212
 30
0.0
 11
-25.188854381999874
 21
-45.650000000000212
 31
0.0
  0
LINE
  5
2D4
100
AcDbEntity
  8
0
  6
CONTINUOUS
 62
               7
100
AcDbLine
 10
-25.188854381999874
 20
-45.650000000000212
 30
0.0
 11
-33.0
 21
-45.650000000000212
 31
0.0
  0
LINE
  5
2D5
100
AcDbEntity
  8
0
  6
CONTINUOUS
 62
               7
100
AcDbLine
 10
-25.188854381999874
 20
-50.350000000000144
 30
0.0
 11
-33.0
 21
-50.350000000000144
 31
0.0
  0
ARC
  5
2D6
100
AcDbEntity
  8
0
  6
CONTINUOUS
 62
               7
100
AcDbCircle
 10
-22.900000000000034
 20
-48.000000000000121
 30
0.0
 40
2.3999999999999999
100
AcDbArc
 50
221.81031489577748
 51
138.18968510422241
  0
ARC
  5
2D7
100
AcDbEntity
  8
0
  6
CONTINUOUS
 62
               7
100
AcDbCircle
 10
22.900000000000034
 20
-48.000000000000121
 30
0.0
 40
2.3999999999999999
100
AcDbArc
 50
41.810314895777545
 51
318.18968510422252
  0
LINE
  5
2D8
100
AcDbEntity
  8
0
  6
CONTINUOUS
 62
               2
100
AcDbLine
 10
17.900000000000091
 20
-48.000000000000121
 30
0.0
 11
34.694130107507476
 21
-48.000000000000121
 31
0.0
  0
LINE
  5
2D9
100
AcDbEntity
  8
0
  6
CONTINUOUS
 62
               7
100
AcDbLine
 10
25.188854381999874
 20
-45.650000000000212
 30
0.0
 11
33.0
 21
-45.650000000000212
 31
0.0
  0
LINE
  5
2DA
100
AcDbEntity
  8
0
  6
CONTINUOUS
 62
               7
100
AcDbLine
 10
25.188854381999874
 20
-46.400000000000212
 30
0.0
 11
25.188854381999874
 21
-45.650000000000212
 31
0.0
  0
LINE
  5
2DB
100
AcDbEntity
  8
0
  6
CONTINUOUS
 62
               7
100
AcDbLine
 10
24.688854381999874
 20
-46.400000000000212
 30
0.0
 11
25.188854381999874
 21
-46.400000000000212
 31
0.0
  0
LINE
  5
2DC
100
AcDbEntity
  8
0
  6
CONTINUOUS
 62
               7
100
AcDbLine
 10
25.188854381999874
 20
-49.600000000000144
 30
0.0
 11
25.188854381999874
 21
-50.350000000000144
 31
0.0
  0
LINE
  5
2DD
100
AcDbEntity
  8
0
  6
CONTINUOUS
 62
               7
100
AcDbLine
 10
24.688854381999874
 20
-49.600000000000144
 30
0.0
 11
25.188854381999874
 21
-49.600000000000144
 31
0.0
  0
LINE
  5
2DE
100
AcDbEntity
  8
0
  6
CONTINUOUS
 62
               7
100
AcDbLine
 10
25.188854381999874
 20
-50.350000000000144
 30
0.0
 11
33.0
 21
-50.350000000000144
 31
0.0
  0
LINE
  5
2DF
100
AcDbEntity
  8
0
  6
CONTINUOUS
 62
               7
100
AcDbLine
 10
-33.0
 20
-50.350000000000144
 30
0.0
 11
-33.0
 21
-61.000000000000121
 31
0.0
  0
LINE
  5
2E0
100
AcDbEntity
  8
0
  6
CONTINUOUS
 62
               7
100
AcDbLine
 10
33.0
 20
-50.350000000000144
 30
0.0
 11
33.0
 21
-61.000000000000121
 31
0.0
  0
LINE
  5
2E1
100
AcDbEntity
  8
0
  6
CONTINUOUS
 62
               2
100
AcDbLine
 10
0.0
 20
-108.00000000000011
 30
0.0
 11
0.0
 21
8.0
 31
0.0
  0
LINE
  5
2E2
100
AcDbEntity
  8
0
  6
CONTINUOUS
 62
               2
100
AcDbLine
 10
-22.900000000000091
 20
-53.000000000000128
 30
0.0
 11
-22.900000000000091
 21
-43.000000000000128
 31
0.0
  0
LINE
  5
2E3
100
AcDbEntity
  8
0
  6
CONTINUOUS
 62
               2
100
AcDbLine
 10
22.900000000000091
 20
-53.000000000000128
 30
0.0
 11
22.900000000000091
 21
-43.000000000000128
 31
0.0
  0
LINE
  5
2E4
100
AcDbEntity
  8
0
  6
CONTINUOUS
 62
               2
100
AcDbLine
 10
-12.0
 20
-26.0
 30
0.0
 11
-24.0
 21
-26.0
 31
0.0
  0
LINE
  5
2E5
100
AcDbEntity
  8
0
  6
CONTINUOUS
 62
               2
100
AcDbLine
 10
28.0
 20
-11.0
 30
0.0
 11
28.0
 21
-5.0
 31
0.0
  0
LINE
  5
2E6
100
AcDbEntity
  8
0
  6
CONTINUOUS
 62
               2
100
AcDbLine
 10
-28.0
 20
-11.0
 30
0.0
 11
-28.0
 21
-5.0
 31
0.0
  0
ENDBLK
  5
2E7
100
AcDbEntity
  8
0
100
AcDbBlockEnd
  0
BLOCK
  5
2E8
100
AcDbEntity
  8
0
100
AcDbBlockBegin
  2
RAG8-7
 70
               0
 10
0.0
 20
0.0
 30
0.0
  3
RAG8-7
  1

  0
LINE
  5
2E9
100
AcDbEntity
  8
0
  6
CONTINUOUS
 62
               4
100
AcDbLine
 10
22.0
 20
-3.6000000000000227
 30
0.0
 11
25.75
 21
-3.6000000000000227
 31
0.0
  0
LINE
  5
2EA
100
AcDbEntity
  8
0
  6
CONTINUOUS
 62
               4
100
AcDbLine
 10
22.0
 20
-1.0
 30
0.0
 11
24.25
 21
-1.0
 31
0.0
  0
LINE
  5
2EB
100
AcDbEntity
  8
0
  6
CONTINUOUS
 62
               4
100
AcDbLine
 10
0.0
 20
-0.4499999999999886
 30
0.0
 11
22.0
 21
-0.4499999999999886
 31
0.0
  0
LINE
  5
2EC
100
AcDbEntity
  8
0
  6
CONTINUOUS
 62
               4
100
AcDbLine
 10
0.0
 20
-1.0
 30
0.0
 11
22.0
 21
-1.0
 31
0.0
  0
LINE
  5
2ED
100
AcDbEntity
  8
0
  6
CONTINUOUS
 62
               4
100
AcDbLine
 10
0.75
 20
0.5
 30
0.0
 11
3.25
 21
0.5
 31
0.0
  0
LINE
  5
2EE
100
AcDbEntity
  8
0
  6
CONTINUOUS
 62
               4
100
AcDbLine
 10
3.25
 20
0.5
 30
0.0
 11
3.25
 21
0.0
 31
0.0
  0
LINE
  5
2EF
100
AcDbEntity
  8
0
  6
CONTINUOUS
 62
             200
100
AcDbLine
 10
3.0199999999999818
 20
0.5
 30
0.0
 11
3.0199999999999818
 21
0.0
 31
0.0
  0
LINE
  5
2F0
100
AcDbEntity
  8
0
  6
CONTINUOUS
 62
             200
100
AcDbLine
 10
0.9700000000000273
 20
0.5
 30
0.0
 11
0.9700000000000273
 21
0.0
 31
0.0
  0
LINE
  5
2F1
100
AcDbEntity
  8
0
  6
CONTINUOUS
 62
               4
100
AcDbLine
 10
0.75
 20
0.5
 30
0.0
 11
0.75
 21
0.0
 31
0.0
  0
LINE
  5
2F2
100
AcDbEntity
  8
0
  6
CONTINUOUS
 62
               4
100
AcDbLine
 10
0.75
 20
-3.7699999999999818
 30
0.0
 11
3.25
 21
-3.7699999999999818
 31
0.0
  0
LINE
  5
2F3
100
AcDbEntity
  8
0
  6
CONTINUOUS
 62
               4
100
AcDbLine
 10
3.25
 20
-2.589999999999975
 30
0.0
 11
3.25
 21
-3.7699999999999818
 31
0.0
  0
LINE
  5
2F4
100
AcDbEntity
  8
0
  6
CONTINUOUS
 62
             200
100
AcDbLine
 10
3.0199999999999818
 20
-2.589999999999975
 30
0.0
 11
3.0199999999999818
 21
-4.0
 31
0.0
  0
LINE
  5
2F5
100
AcDbEntity
  8
0
  6
CONTINUOUS
 62
             200
100
AcDbLine
 10
0.9700000000000273
 20
-2.589999999999975
 30
0.0
 11
0.9700000000000273
 21
-4.0
 31
0.0
  0
LINE
  5
2F6
100
AcDbEntity
  8
0
  6
CONTINUOUS
 62
               4
100
AcDbLine
 10
0.75
 20
-2.589999999999975
 30
0.0
 11
0.75
 21
-3.7699999999999818
 31
0.0
  0
LINE
  5
2F7
100
AcDbEntity
  8
0
  6
CONTINUOUS
 62
               4
100
AcDbLine
 10
0.9700000000000273
 20
-4.0
 30
0.0
 11
0.75
 21
-3.7699999999999818
 31
0.0
  0
LINE
  5
2F8
100
AcDbEntity
  8
0
  6
CONTINUOUS
 62
               4
100
AcDbLine
 10
3.0199999999999818
 20
-4.0
 30
0.0
 11
3.25
 21
-3.7699999999999818
 31
0.0
  0
LINE
  5
2F9
100
AcDbEntity
  8
0
  6
CONTINUOUS
 62
               4
100
AcDbLine
 10
0.9700000000000273
 20
-4.0
 30
0.0
 11
3.0199999999999818
 21
-4.0
 31
0.0
  0
LINE
  5
2FA
100
AcDbEntity
  8
0
  6
CONTINUOUS
 62
             200
100
AcDbLine
 10
24.252309468822148
 20
-1.0
 30
0.0
 11
25.75346420323325
 21
-3.6000000000000227
 31
0.0
  0
LINE
  5
2FB
100
AcDbEntity
  8
0
  6
CONTINUOUS
 62
               4
100
AcDbLine
 10
4.25
 20
-3.0400000000000205
 30
0.0
 11
4.6999999999999886
 21
-3.0400000000000205
 31
0.0
  0
LINE
  5
2FC
100
AcDbEntity
  8
0
  6
CONTINUOUS
 62
               4
100
AcDbLine
 10
4.1999999999999886
 20
-3.8000000000000114
 30
0.0
 11
4.6999999999999886
 21
-3.8000000000000114
 31
0.0
  0
LINE
  5
2FD
100
AcDbEntity
  8
0
  6
CONTINUOUS
 62
               4
100
AcDbLine
 10
4.1999999999999886
 20
-1.8000000000000114
 30
0.0
 11
4.1999999999999886
 21
-3.8000000000000114
 31
0.0
  0
LINE
  5
2FE
100
AcDbEntity
  8
0
  6
CONTINUOUS
 62
               4
100
AcDbLine
 10
0.0
 20
-2.6000000000000227
 30
0.0
 11
4.0
 21
-2.6000000000000227
 31
0.0
  0
LINE
  5
2FF
100
AcDbEntity
  8
0
  6
CONTINUOUS
 62
               4
100
AcDbLine
 10
0.0
 20
-1.8000000000000114
 30
0.0
 11
0.0
 21
-2.6000000000000227
 31
0.0
  0
LINE
  5
300
100
AcDbEntity
  8
0
  6
CONTINUOUS
 62
               4
100
AcDbLine
 10
4.0
 20
-1.8000000000000114
 30
0.0
 11
4.0
 21
-2.6000000000000227
 31
0.0
  0
LINE
  5
301
100
AcDbEntity
  8
0
  6
CONTINUOUS
 62
               4
100
AcDbLine
 10
4.25
 20
-1.8000000000000114
 30
0.0
 11
4.25
 21
-3.0400000000000205
 31
0.0
  0
LINE
  5
302
100
AcDbEntity
  8
0
  6
CONTINUOUS
 62
             200
100
AcDbLine
 10
2.0
 20
2.0500000000000114
 30
0.0
 11
2.0
 21
-5.4300000000000068
 31
0.0
  0
LINE
  5
303
100
AcDbEntity
  8
0
  6
CONTINUOUS
 62
               4
100
AcDbLine
 10
0.0
 20
-1.8000000000000114
 30
0.0
 11
4.25
 21
-1.8000000000000114
 31
0.0
  0
LINE
  5
304
100
AcDbEntity
  8
0
  6
CONTINUOUS
 62
               4
100
AcDbLine
 10
4.6999999999999886
 20
-3.0400000000000205
 30
0.0
 11
4.6999999999999886
 21
-4.6000000000000227
 31
0.0
  0
LINE
  5
305
100
AcDbEntity
  8
0
  6
CONTINUOUS
 62
               4
100
AcDbLine
 10
0.0
 20
-1.8000000000000114
 30
0.0
 11
0.0
 21
0.0
 31
0.0
  0
LINE
  5
306
100
AcDbEntity
  8
0
  6
CONTINUOUS
 62
               4
100
AcDbLine
 10
22.0
 20
0.0
 30
0.0
 11
22.0
 21
-4.6000000000000227
 31
0.0
  0
LINE
  5
307
100
AcDbEntity
  8
0
  6
CONTINUOUS
 62
               4
100
AcDbLine
 10
4.6999999999999886
 20
-4.6000000000000227
 30
0.0
 11
22.0
 21
-4.6000000000000227
 31
0.0
  0
LINE
  5
308
100
AcDbEntity
  8
0
  6
CONTINUOUS
 62
               4
100
AcDbLine
 10
0.0
 20
0.0
 30
0.0
 11
22.0
 21
0.0
 31
0.0
  0
ENDBLK
  5
309
100
AcDbEntity
  8
0
100
AcDbBlockEnd
  0
BLOCK
  5
30A
100
AcDbEntity
  8
0
100
AcDbBlockBegin
  2
RAG8-8
 70
               0
 10
0.0
 20
0.0
 30
0.0
  3
RAG8-8
  1

  0
ARC
  5
30B
100
AcDbEntity
  8
0
  6
CONTINUOUS
 62
               4
100
AcDbCircle
 10
0.0
 20
-2.5500000000000114
 30
0.0
 40
2.0500000000000114
100
AcDbArc
 50
192.68038349182106
 51
347.31961650817891
  0
LINE
  5
30C
100
AcDbEntity
  8
0
  6
CONTINUOUS
 62
               4
100
AcDbLine
 10
-2.0
 20
-0.9499999999999886
 30
0.0
 11
-2.0
 21
-3.0000000000000568
 31
0.0
  0
LINE
  5
30D
100
AcDbEntity
  8
0
  6
CONTINUOUS
 62
               4
100
AcDbLine
 10
2.0
 20
-0.9499999999999886
 30
0.0
 11
2.0
 21
-3.0000000000000568
 31
0.0
  0
LINE
  5
30E
100
AcDbEntity
  8
0
  6
CONTINUOUS
 62
               4
100
AcDbLine
 10
-1.25
 20
0.5
 30
0.0
 11
1.25
 21
0.5
 31
0.0
  0
LINE
  5
30F
100
AcDbEntity
  8
0
  6
CONTINUOUS
 62
               4
100
AcDbLine
 10
1.25
 20
0.5
 30
0.0
 11
1.25
 21
0.0
 31
0.0
  0
LINE
  5
310
100
AcDbEntity
  8
0
  6
CONTINUOUS
 62
             200
100
AcDbLine
 10
1.0199999999999818
 20
0.5
 30
0.0
 11
1.0199999999999818
 21
0.0
 31
0.0
  0
LINE
  5
311
100
AcDbEntity
  8
0
  6
CONTINUOUS
 62
             200
100
AcDbLine
 10
-1.0199999999999818
 20
0.5
 30
0.0
 11
-1.0199999999999818
 21
0.0
 31
0.0
  0
LINE
  5
312
100
AcDbEntity
  8
0
  6
CONTINUOUS
 62
               4
100
AcDbLine
 10
-1.25
 20
0.5
 30
0.0
 11
-1.25
 21
0.0
 31
0.0
  0
LINE
  5
313
100
AcDbEntity
  8
0
  6
CONTINUOUS
 62
               4
100
AcDbLine
 10
-1.25
 20
-3.7699999999999818
 30
0.0
 11
1.25
 21
-3.7699999999999818
 31
0.0
  0
LINE
  5
314
100
AcDbEntity
  8
0
  6
CONTINUOUS
 62
               4
100
AcDbLine
 10
1.25
 20
-2.589999999999975
 30
0.0
 11
1.25
 21
-3.7699999999999818
 31
0.0
  0
LINE
  5
315
100
AcDbEntity
  8
0
  6
CONTINUOUS
 62
             200
100
AcDbLine
 10
1.0199999999999818
 20
-2.589999999999975
 30
0.0
 11
1.0199999999999818
 21
-4.0
 31
0.0
  0
LINE
  5
316
100
AcDbEntity
  8
0
  6
CONTINUOUS
 62
             200
100
AcDbLine
 10
-1.0199999999999818
 20
-2.589999999999975
 30
0.0
 11
-1.0199999999999818
 21
-4.0
 31
0.0
  0
LINE
  5
317
100
AcDbEntity
  8
0
  6
CONTINUOUS
 62
               4
100
AcDbLine
 10
-1.25
 20
-2.589999999999975
 30
0.0
 11
-1.25
 21
-3.7699999999999818
 31
0.0
  0
LINE
  5
318
100
AcDbEntity
  8
0
  6
CONTINUOUS
 62
               4
100
AcDbLine
 10
-1.0199999999999818
 20
-4.0
 30
0.0
 11
-1.25
 21
-3.7699999999999818
 31
0.0
  0
LINE
  5
319
100
AcDbEntity
  8
0
  6
CONTINUOUS
 62
               4
100
AcDbLine
 10
1.0199999999999818
 20
-4.0
 30
0.0
 11
1.25
 21
-3.7699999999999818
 31
0.0
  0
LINE
  5
31A
100
AcDbEntity
  8
0
  6
CONTINUOUS
 62
               4
100
AcDbLine
 10
-1.0199999999999818
 20
-4.0
 30
0.0
 11
1.0199999999999818
 21
-4.0
 31
0.0
  0
LINE
  5
31B
100
AcDbEntity
  8
0
  6
CONTINUOUS
 62
               4
100
AcDbLine
 10
-2.0
 20
-2.589999999999975
 30
0.0
 11
2.0
 21
-2.589999999999975
 31
0.0
  0
LINE
  5
31C
100
AcDbEntity
  8
0
  6
CONTINUOUS
 62
               4
100
AcDbLine
 10
-2.0
 20
-1.8000000000000114
 30
0.0
 11
2.0
 21
-1.8000000000000114
 31
0.0
  0
LINE
  5
31D
100
AcDbEntity
  8
0
  6
CONTINUOUS
 62
               4
100
AcDbLine
 10
2.0
 20
-0.9499999999999886
 30
0.0
 11
1.5
 21
-0.4499999999999886
 31
0.0
  0
LINE
  5
31E
100
AcDbEntity
  8
0
  6
CONTINUOUS
 62
               4
100
AcDbLine
 10
1.5
 20
0.0
 30
0.0
 11
1.5
 21
-0.4499999999999886
 31
0.0
  0
LINE
  5
31F
100
AcDbEntity
  8
0
  6
CONTINUOUS
 62
               4
100
AcDbLine
 10
-1.5
 20
0.0
 30
0.0
 11
1.5
 21
0.0
 31
0.0
  0
LINE
  5
320
100
AcDbEntity
  8
0
  6
CONTINUOUS
 62
               4
100
AcDbLine
 10
-1.5
 20
0.0
 30
0.0
 11
-1.5
 21
-0.4499999999999886
 31
0.0
  0
LINE
  5
321
100
AcDbEntity
  8
0
  6
CONTINUOUS
 62
               4
100
AcDbLine
 10
-2.0
 20
-0.9499999999999886
 30
0.0
 11
-1.5
 21
-0.4499999999999886
 31
0.0
  0
LINE
  5
322
100
AcDbEntity
  8
0
  6
CONTINUOUS
 62
             200
100
AcDbLine
 10
0.0
 20
2.0500000000000114
 30
0.0
 11
0.0
 21
-5.4300000000000068
 31
0.0
  0
ENDBLK
  5
323
100
AcDbEntity
  8
0
100
AcDbBlockEnd
  0
BLOCK
  5
324
100
AcDbEntity
  8
0
100
AcDbBlockBegin
  2
RAG8-9
 70
               0
 10
0.0
 20
0.0
 30
0.0
  3
RAG8-9
  1

  0
CIRCLE
  5
325
100
AcDbEntity
  8
0
  6
CONTINUOUS
 62
               4
100
AcDbCircle
 10
0.0
 20
-2.75
 30
0.0
 40
0.25
  0
CIRCLE
  5
326
100
AcDbEntity
  8
0
  6
CONTINUOUS
 62
               4
100
AcDbCircle
 10
0.0
 20
-1.8500000000000227
 30
0.0
 40
0.25
  0
CIRCLE
  5
327
100
AcDbEntity
  8
0
  6
CONTINUOUS
 62
               4
100
AcDbCircle
 10
0.0
 20
-2.75
 30
0.0
 40
0.45
  0
CIRCLE
  5
328
100
AcDbEntity
  8
0
  6
CONTINUOUS
 62
               4
100
AcDbCircle
 10
0.0
 20
-1.8500000000000227
 30
0.0
 40
0.45
  0
CIRCLE
  5
329
100
AcDbEntity
  8
0
  6
CONTINUOUS
 62
               4
100
AcDbCircle
 10
0.0
 20
-2.3000000000000114
 30
0.0
 40
1.3
  0
LINE
  5
32A
100
AcDbEntity
  8
0
  6
CONTINUOUS
 62
             200
100
AcDbLine
 10
0.0
 20
2.0500000000000114
 30
0.0
 11
0.0
 21
-5.4300000000000068
 31
0.0
  0
LINE
  5
32B
100
AcDbEntity
  8
0
  6
CONTINUOUS
 62
               4
100
AcDbLine
 10
2.0
 20
-0.9499999999999886
 30
0.0
 11
1.5
 21
-0.4499999999999886
 31
0.0
  0
LINE
  5
32C
100
AcDbEntity
  8
0
  6
CONTINUOUS
 62
               4
100
AcDbLine
 10
1.5
 20
0.0
 30
0.0
 11
1.5
 21
-0.4499999999999886
 31
0.0
  0
LINE
  5
32D
100
AcDbEntity
  8
0
  6
CONTINUOUS
 62
               4
100
AcDbLine
 10
1.5
 20
0.0
 30
0.0
 11
-1.5
 21
0.0
 31
0.0
  0
LINE
  5
32E
100
AcDbEntity
  8
0
  6
CONTINUOUS
 62
               4
100
AcDbLine
 10
-1.5
 20
0.0
 30
0.0
 11
-1.5
 21
-0.4499999999999886
 31
0.0
  0
LINE
  5
32F
100
AcDbEntity
  8
0
  6
CONTINUOUS
 62
               4
100
AcDbLine
 10
-2.0
 20
-0.9499999999999886
 30
0.0
 11
-1.5
 21
-0.4499999999999886
 31
0.0
  0
LINE
  5
330
100
AcDbEntity
  8
0
  6
CONTINUOUS
 62
               4
100
AcDbLine
 10
1.25
 20
0.5
 30
0.0
 11
1.25
 21
0.0
 31
0.0
  0
LINE
  5
331
100
AcDbEntity
  8
0
  6
CONTINUOUS
 62
             200
100
AcDbLine
 10
1.0199999999999818
 20
0.5
 30
0.0
 11
1.0199999999999818
 21
0.0
 31
0.0
  0
LINE
  5
332
100
AcDbEntity
  8
0
  6
CONTINUOUS
 62
             200
100
AcDbLine
 10
-1.0199999999999818
 20
0.5
 30
0.0
 11
-1.0199999999999818
 21
0.0
 31
0.0
  0
LINE
  5
333
100
AcDbEntity
  8
0
  6
CONTINUOUS
 62
               4
100
AcDbLine
 10
-1.25
 20
0.5
 30
0.0
 11
-1.25
 21
0.0
 31
0.0
  0
LINE
  5
334
100
AcDbEntity
  8
0
  6
CONTINUOUS
 62
               4
100
AcDbLine
 10
1.25
 20
0.5
 30
0.0
 11
-1.25
 21
0.5
 31
0.0
  0
LINE
  5
335
100
AcDbEntity
  8
0
  6
CONTINUOUS
 62
               4
100
AcDbLine
 10
-2.0
 20
-0.9499999999999886
 30
0.0
 11
-2.0
 21
-3.0000000000000568
 31
0.0
  0
LINE
  5
336
100
AcDbEntity
  8
0
  6
CONTINUOUS
 62
               4
100
AcDbLine
 10
2.0
 20
-0.9499999999999886
 30
0.0
 11
2.0
 21
-3.0000000000000568
 31
0.0
  0
ARC
  5
337
100
AcDbEntity
  8
0
  6
CONTINUOUS
 62
               4
100
AcDbCircle
 10
0.0
 20
-2.5500000000000114
 30
0.0
 40
2.0500000000000114
100
AcDbArc
 50
192.68038349182106
 51
347.31961650817891
  0
ENDBLK
  5
338
100
AcDbEntity
  8
0
100
AcDbBlockEnd
  0
BLOCK
  5
339
100
AcDbEntity
  8
0
100
AcDbBlockBegin
  2
RAG8-10
 70
               0
 10
0.0
 20
0.0
 30
0.0
  3
RAG8-10
  1

  0
CIRCLE
  5
33A
100
AcDbEntity
  8
0
  6
CONTINUOUS
 62
               4
100
AcDbCircle
 10
2.0
 20
0.0
 30
0.0
 40
1.3999999999999997
  0
CIRCLE
  5
33B
100
AcDbEntity
  8
0
  6
CONTINUOUS
 62
             200
100
AcDbCircle
 10
2.0
 20
0.0
 30
0.0
 40
1.0065
  0
LINE
  5
33C
100
AcDbEntity
  8
0
  6
CONTINUOUS
 62
               4
100
AcDbLine
 10
0.0
 20
-2.0
 30
0.0
 11
22.0
 21
-2.0
 31
0.0
  0
LINE
  5
33D
100
AcDbEntity
  8
0
  6
CONTINUOUS
 62
               4
100
AcDbLine
 10
0.0
 20
2.0
 30
0.0
 11
22.0
 21
2.0
 31
0.0
  0
CIRCLE
  5
33E
100
AcDbEntity
  8
0
  6
CONTINUOUS
 62
               4
100
AcDbCircle
 10
2.0000152587890625
 20
0.0
 30
0.0
 40
1.25
  0
LINE
  5
33F
100
AcDbEntity
  8
0
  6
CONTINUOUS
 62
               4
100
AcDbLine
 10
22.0
 20
-1.3000000000000114
 30
0.0
 11
25.089999999999975
 21
-1.3000000000000114
 31
0.0
  0
LINE
  5
340
100
AcDbEntity
  8
0
  6
CONTINUOUS
 62
               4
100
AcDbLine
 10
22.0
 20
1.3000000000000114
 30
0.0
 11
23.579999999999984
 21
1.3000000000000114
 31
0.0
  0
LINE
  5
341
100
AcDbEntity
  8
0
  6
CONTINUOUS
 62
             200
100
AcDbLine
 10
23.577685185185146
 20
1.3000000000000114
 30
0.0
 11
25.082314814814765
 21
-1.3000000000000114
 31
0.0
  0
LINE
  5
342
100
AcDbEntity
  8
0
  6
CONTINUOUS
 62
               4
100
AcDbLine
 10
1.3000000000000114
 20
-1.0600000000000023
 30
0.0
 11
3.0537707675105139
 21
0.6723833191262543
 31
0.0
  0
LINE
  5
343
100
AcDbEntity
  8
0
  6
CONTINUOUS
 62
               4
100
AcDbLine
 10
0.9499999999999886
 20
-0.7099999999999795
 30
0.0
 11
2.6973872498305127
 21
1.0373872498304877
 31
0.0
  0
LINE
  5
344
100
AcDbEntity
  8
0
  6
CONTINUOUS
 62
             200
100
AcDbLine
 10
2.0
 20
2.8299999999999841
 30
0.0
 11
2.0
 21
-2.75
 31
0.0
  0
LINE
  5
345
100
AcDbEntity
  8
0
  6
CONTINUOUS
 62
               4
100
AcDbLine
 10
22.0
 20
2.0
 30
0.0
 11
22.0
 21
-2.0
 31
0.0
  0
LINE
  5
346
100
AcDbEntity
  8
0
  6
CONTINUOUS
 62
               4
100
AcDbLine
 10
0.0
 20
2.0
 30
0.0
 11
0.0
 21
-2.0
 31
0.0
  0
LINE
  5
347
100
AcDbEntity
  8
0
  6
CONTINUOUS
 62
               4
100
AcDbLine
 10
0.0
 20
1.5
 30
0.0
 11
22.0
 21
1.5
 31
0.0
  0
LINE
  5
348
100
AcDbEntity
  8
0
  6
CONTINUOUS
 62
               4
100
AcDbLine
 10
0.0
 20
-1.5
 30
0.0
 11
22.0
 21
-1.5
 31
0.0
  0
LINE
  5
349
100
AcDbEntity
  8
0
  6
CONTINUOUS
 62
             200
100
AcDbLine
 10
-2.8000000000000114
 20
0.0
 30
0.0
 11
27.399999999999977
 21
0.0
 31
0.0
  0
ENDBLK
  5
34A
100
AcDbEntity
  8
0
100
AcDbBlockEnd
  0
BLOCK
  5
34B
100
AcDbEntity
  8
0
100
AcDbBlockBegin
  2
RAG8-11
 70
               0
 10
0.0
 20
0.0
 30
0.0
  3
RAG8-11
  1

  0
LINE
  5
34C
100
AcDbEntity
  8
0
  6
CONTINUOUS
 62
               4
100
AcDbLine
 10
18.099999999999994
 20
6.8999999999999773
 30
0.0
 11
18.099999999999994
 21
9.1499999999999773
 31
0.0
  0
LINE
  5
34D
100
AcDbEntity
  8
0
  6
CONTINUOUS
 62
               4
100
AcDbLine
 10
20.699999999999989
 20
6.8999999999999773
 30
0.0
 11
20.699999999999989
 21
10.649999999999977
 31
0.0
  0
LINE
  5
34E
100
AcDbEntity
  8
0
  6
CONTINUOUS
 62
               4
100
AcDbLine
 10
0.75
 20
0.5
 30
0.0
 11
3.25
 21
0.5
 31
0.0
  0
LINE
  5
34F
100
AcDbEntity
  8
0
  6
CONTINUOUS
 62
               4
100
AcDbLine
 10
3.25
 20
0.5
 30
0.0
 11
3.25
 21
0.0
 31
0.0
  0
LINE
  5
350
100
AcDbEntity
  8
0
  6
CONTINUOUS
 62
             200
100
AcDbLine
 10
3.0200000000000102
 20
0.5
 30
0.0
 11
3.0200000000000102
 21
0.0
 31
0.0
  0
LINE
  5
351
100
AcDbEntity
  8
0
  6
CONTINUOUS
 62
             200
100
AcDbLine
 10
0.9699999999999989
 20
0.5
 30
0.0
 11
0.9699999999999989
 21
0.0
 31
0.0
  0
LINE
  5
352
100
AcDbEntity
  8
0
  6
CONTINUOUS
 62
               4
100
AcDbLine
 10
0.75
 20
0.5
 30
0.0
 11
0.75
 21
0.0
 31
0.0
  0
LINE
  5
353
100
AcDbEntity
  8
0
  6
CONTINUOUS
 62
               4
100
AcDbLine
 10
0.75
 20
-3.7699999999999818
 30
0.0
 11
3.25
 21
-3.7699999999999818
 31
0.0
  0
LINE
  5
354
100
AcDbEntity
  8
0
  6
CONTINUOUS
 62
               4
100
AcDbLine
 10
3.25
 20
-2.6000000000000227
 30
0.0
 11
3.25
 21
-3.7699999999999818
 31
0.0
  0
LINE
  5
355
100
AcDbEntity
  8
0
  6
CONTINUOUS
 62
             200
100
AcDbLine
 10
3.0200000000000102
 20
-2.6000000000000227
 30
0.0
 11
3.0200000000000102
 21
-4.0
 31
0.0
  0
LINE
  5
356
100
AcDbEntity
  8
0
  6
CONTINUOUS
 62
             200
100
AcDbLine
 10
0.9699999999999989
 20
-2.6000000000000227
 30
0.0
 11
0.9699999999999989
 21
-4.0
 31
0.0
  0
LINE
  5
357
100
AcDbEntity
  8
0
  6
CONTINUOUS
 62
               4
100
AcDbLine
 10
0.75
 20
-2.6000000000000227
 30
0.0
 11
0.75
 21
-3.7699999999999818
 31
0.0
  0
LINE
  5
358
100
AcDbEntity
  8
0
  6
CONTINUOUS
 62
               4
100
AcDbLine
 10
0.9699999999999989
 20
-4.0
 30
0.0
 11
0.75
 21
-3.7699999999999818
 31
0.0
  0
LINE
  5
359
100
AcDbEntity
  8
0
  6
CONTINUOUS
 62
               4
100
AcDbLine
 10
3.0200000000000102
 20
-4.0
 30
0.0
 11
3.25
 21
-3.7699999999999818
 31
0.0
  0
LINE
  5
35A
100
AcDbEntity
  8
0
  6
CONTINUOUS
 62
               4
100
AcDbLine
 10
0.9699999999999989
 20
-4.0
 30
0.0
 11
3.0200000000000102
 21
-4.0
 31
0.0
  0
LINE
  5
35B
100
AcDbEntity
  8
0
  6
CONTINUOUS
 62
             200
100
AcDbLine
 10
18.099999999999994
 20
9.1465357967667273
 30
0.0
 11
20.699999999999989
 21
10.64769053117783
 31
0.0
  0
LINE
  5
35C
100
AcDbEntity
  8
0
  6
CONTINUOUS
 62
               4
100
AcDbLine
 10
16.099999999999994
 20
5.3999999999999773
 30
0.0
 11
22.0
 21
5.3999999999999773
 31
0.0
  0
LINE
  5
35D
100
AcDbEntity
  8
0
  6
CONTINUOUS
 62
               4
100
AcDbLine
 10
16.099999999999994
 20
0.3999999999999773
 30
0.0
 11
22.0
 21
0.3999999999999773
 31
0.0
  0
LINE
  5
35E
100
AcDbEntity
  8
0
  6
CONTINUOUS
 62
               4
100
AcDbLine
 10
16.099999999999994
 20
1.1499999999999773
 30
0.0
 11
22.0
 21
1.1499999999999773
 31
0.0
  0
LINE
  5
35F
100
AcDbEntity
  8
0
  6
CONTINUOUS
 62
               4
100
AcDbLine
 10
0.0
 20
-0.4499999999999886
 30
0.0
 11
22.0
 21
-0.4499999999999886
 31
0.0
  0
LINE
  5
360
100
AcDbEntity
  8
0
  6
CONTINUOUS
 62
               4
100
AcDbLine
 10
0.0
 20
-1.0
 30
0.0
 11
22.0
 21
-1.0
 31
0.0
  0
LINE
  5
361
100
AcDbEntity
  8
0
  6
CONTINUOUS
 62
               4
100
AcDbLine
 10
4.2700000000000102
 20
-1.8000000000000114
 30
0.0
 11
4.2700000000000102
 21
-2.9800000000000182
 31
0.0
  0
LINE
  5
362
100
AcDbEntity
  8
0
  6
CONTINUOUS
 62
               4
100
AcDbLine
 10
4.2700000000000102
 20
-2.9800000000000182
 30
0.0
 11
4.6999999999999886
 21
-2.9800000000000182
 31
0.0
  0
LINE
  5
363
100
AcDbEntity
  8
0
  6
CONTINUOUS
 62
               4
100
AcDbLine
 10
4.1999999999999886
 20
-1.8000000000000114
 30
0.0
 11
4.1999999999999886
 21
-3.8000000000000114
 31
0.0
  0
LINE
  5
364
100
AcDbEntity
  8
0
  6
CONTINUOUS
 62
               4
100
AcDbLine
 10
4.1999999999999886
 20
-3.8000000000000114
 30
0.0
 11
4.6999999999999886
 21
-3.8000000000000114
 31
0.0
  0
LINE
  5
365
100
AcDbEntity
  8
0
  6
CONTINUOUS
 62
               4
100
AcDbLine
 10
16.099999999999994
 20
6.8999999999999773
 30
0.0
 11
22.0
 21
6.8999999999999773
 31
0.0
  0
LINE
  5
366
100
AcDbEntity
  8
0
  6
CONTINUOUS
 62
               4
100
AcDbLine
 10
4.0
 20
-1.8000000000000114
 30
0.0
 11
4.0
 21
-2.6000000000000227
 31
0.0
  0
LINE
  5
367
100
AcDbEntity
  8
0
  6
CONTINUOUS
 62
               4
100
AcDbLine
 10
0.0
 20
-2.6000000000000227
 30
0.0
 11
4.0
 21
-2.6000000000000227
 31
0.0
  0
LINE
  5
368
100
AcDbEntity
  8
0
  6
CONTINUOUS
 62
               4
100
AcDbLine
 10
0.0
 20
-1.8000000000000114
 30
0.0
 11
4.2700000000000102
 21
-1.8000000000000114
 31
0.0
  0
LINE
  5
369
100
AcDbEntity
  8
0
  6
CONTINUOUS
 62
               4
100
AcDbLine
 10
16.099999999999994
 20
6.8999999999999773
 30
0.0
 11
16.099999999999994
 21
0.0
 31
0.0
  0
LINE
  5
36A
100
AcDbEntity
  8
0
  6
CONTINUOUS
 62
             200
100
AcDbLine
 10
2.0
 20
1.1499999999999773
 30
0.0
 11
2.0
 21
-5.1700000000000159
 31
0.0
  0
LINE
  5
36B
100
AcDbEntity
  8
0
  6
CONTINUOUS
 62
               4
100
AcDbLine
 10
4.6999999999999886
 20
-2.9800000000000182
 30
0.0
 11
4.6999999999999886
 21
-4.6000000000000227
 31
0.0
  0
LINE
  5
36C
100
AcDbEntity
  8
0
  6
CONTINUOUS
 62
               4
100
AcDbLine
 10
0.0
 20
-2.6000000000000227
 30
0.0
 11
0.0
 21
0.0
 31
0.0
  0
LINE
  5
36D
100
AcDbEntity
  8
0
  6
CONTINUOUS
 62
               4
100
AcDbLine
 10
22.0
 20
6.8999999999999773
 30
0.0
 11
22.0
 21
-4.6000000000000227
 31
0.0
  0
LINE
  5
36E
100
AcDbEntity
  8
0
  6
CONTINUOUS
 62
               4
100
AcDbLine
 10
4.6999999999999886
 20
-4.6000000000000227
 30
0.0
 11
22.0
 21
-4.6000000000000227
 31
0.0
  0
LINE
  5
36F
100
AcDbEntity
  8
0
  6
CONTINUOUS
 62
               4
100
AcDbLine
 10
0.0
 20
0.0
 30
0.0
 11
16.099999999999994
 21
0.0
 31
0.0
  0
ENDBLK
  5
370
100
AcDbEntity
  8
0
100
AcDbBlockEnd
  0
BLOCK
  5
371
100
AcDbEntity
  8
0
100
AcDbBlockBegin
  2
RAG8-12
 70
               0
 10
0.0
 20
0.0
 30
0.0
  3
RAG8-12
  1

  0
ARC
  5
372
100
AcDbEntity
  8
0
  6
CONTINUOUS
 62
               4
100
AcDbCircle
 10
0.0
 20
-2.5500000000000114
 30
0.0
 40
2.0500000000000114
100
AcDbArc
 50
192.68038349182106
 51
347.31961650817891
  0
LINE
  5
373
100
AcDbEntity
  8
0
  6
CONTINUOUS
 62
               4
100
AcDbLine
 10
-2.0
 20
-0.9499999999999886
 30
0.0
 11
-2.0
 21
-3.0000000000000568
 31
0.0
  0
LINE
  5
374
100
AcDbEntity
  8
0
  6
CONTINUOUS
 62
               4
100
AcDbLine
 10
2.0
 20
-0.9499999999999886
 30
0.0
 11
2.0
 21
-3.0000000000000568
 31
0.0
  0
LINE
  5
375
100
AcDbEntity
  8
0
  6
CONTINUOUS
 62
               4
100
AcDbLine
 10
1.3000000000000114
 20
10.652314814814815
 30
0.0
 11
1.3000000000000114
 21
6.8999999999999773
 31
0.0
  0
LINE
  5
376
100
AcDbEntity
  8
0
  6
CONTINUOUS
 62
               4
100
AcDbLine
 10
-1.3000000000000114
 20
9.1476851851851961
 30
0.0
 11
-1.3000000000000114
 21
6.8999999999999773
 31
0.0
  0
LINE
  5
377
100
AcDbEntity
  8
0
  6
CONTINUOUS
 62
               4
100
AcDbLine
 10
-1.25
 20
0.5
 30
0.0
 11
1.25
 21
0.5
 31
0.0
  0
LINE
  5
378
100
AcDbEntity
  8
0
  6
CONTINUOUS
 62
               4
100
AcDbLine
 10
1.25
 20
0.5
 30
0.0
 11
1.25
 21
0.0
 31
0.0
  0
LINE
  5
379
100
AcDbEntity
  8
0
  6
CONTINUOUS
 62
             200
100
AcDbLine
 10
1.0200000000000102
 20
0.5
 30
0.0
 11
1.0200000000000102
 21
0.0
 31
0.0
  0
LINE
  5
37A
100
AcDbEntity
  8
0
  6
CONTINUOUS
 62
             200
100
AcDbLine
 10
-1.0200000000000102
 20
0.5
 30
0.0
 11
-1.0200000000000102
 21
0.0
 31
0.0
  0
LINE
  5
37B
100
AcDbEntity
  8
0
  6
CONTINUOUS
 62
               4
100
AcDbLine
 10
-1.25
 20
0.5
 30
0.0
 11
-1.25
 21
0.0
 31
0.0
  0
LINE
  5
37C
100
AcDbEntity
  8
0
  6
CONTINUOUS
 62
               4
100
AcDbLine
 10
-1.25
 20
-3.7699999999999818
 30
0.0
 11
1.25
 21
-3.7699999999999818
 31
0.0
  0
LINE
  5
37D
100
AcDbEntity
  8
0
  6
CONTINUOUS
 62
               4
100
AcDbLine
 10
1.25
 20
-2.6000000000000227
 30
0.0
 11
1.25
 21
-3.7699999999999818
 31
0.0
  0
LINE
  5
37E
100
AcDbEntity
  8
0
  6
CONTINUOUS
 62
             200
100
AcDbLine
 10
1.0200000000000102
 20
-2.6000000000000227
 30
0.0
 11
1.0200000000000102
 21
-4.0
 31
0.0
  0
LINE
  5
37F
100
AcDbEntity
  8
0
  6
CONTINUOUS
 62
             200
100
AcDbLine
 10
-1.0200000000000102
 20
-2.6000000000000227
 30
0.0
 11
-1.0200000000000102
 21
-4.0
 31
0.0
  0
LINE
  5
380
100
AcDbEntity
  8
0
  6
CONTINUOUS
 62
               4
100
AcDbLine
 10
-1.25
 20
-2.6000000000000227
 30
0.0
 11
-1.25
 21
-3.7699999999999818
 31
0.0
  0
LINE
  5
381
100
AcDbEntity
  8
0
  6
CONTINUOUS
 62
               4
100
AcDbLine
 10
-1.0200000000000102
 20
-4.0
 30
0.0
 11
-1.25
 21
-3.7699999999999818
 31
0.0
  0
LINE
  5
382
100
AcDbEntity
  8
0
  6
CONTINUOUS
 62
               4
100
AcDbLine
 10
1.0200000000000102
 20
-4.0
 30
0.0
 11
1.25
 21
-3.7699999999999818
 31
0.0
  0
LINE
  5
383
100
AcDbEntity
  8
0
  6
CONTINUOUS
 62
               4
100
AcDbLine
 10
-1.0200000000000102
 20
-4.0
 30
0.0
 11
1.0200000000000102
 21
-4.0
 31
0.0
  0
LINE
  5
384
100
AcDbEntity
  8
0
  6
CONTINUOUS
 62
             200
100
AcDbLine
 10
-1.3000000000000114
 20
9.1476851851851393
 30
0.0
 11
1.3000000000000114
 21
10.652314814814815
 31
0.0
  0
LINE
  5
385
100
AcDbEntity
  8
0
  6
CONTINUOUS
 62
               4
100
AcDbLine
 10
-2.25
 20
6.8999999999999773
 30
0.0
 11
2.25
 21
6.8999999999999773
 31
0.0
  0
LINE
  5
386
100
AcDbEntity
  8
0
  6
CONTINUOUS
 62
               4
100
AcDbLine
 10
-2.0
 20
-2.6000000000000227
 30
0.0
 11
2.0
 21
-2.6000000000000227
 31
0.0
  0
LINE
  5
387
100
AcDbEntity
  8
0
  6
CONTINUOUS
 62
               4
100
AcDbLine
 10
-2.0
 20
-1.8000000000000114
 30
0.0
 11
2.0
 21
-1.8000000000000114
 31
0.0
  0
LINE
  5
388
100
AcDbEntity
  8
0
  6
CONTINUOUS
 62
               4
100
AcDbLine
 10
-1.5
 20
0.0
 30
0.0
 11
1.5
 21
0.0
 31
0.0
  0
LINE
  5
389
100
AcDbEntity
  8
0
  6
CONTINUOUS
 62
             200
100
AcDbLine
 10
0.0
 20
13.146819562614326
 30
0.0
 11
0.0
 21
-6.0600000000000023
 31
0.0
  0
LINE
  5
38A
100
AcDbEntity
  8
0
  6
CONTINUOUS
 62
               4
100
AcDbLine
 10
2.25
 20
6.8999999999999773
 30
0.0
 11
2.25
 21
1.1499999999999773
 31
0.0
  0
LINE
  5
38B
100
AcDbEntity
  8
0
  6
CONTINUOUS
 62
               4
100
AcDbLine
 10
1.5
 20
0.3999999999999773
 30
0.0
 11
2.25
 21
1.1499999999999773
 31
0.0
  0
LINE
  5
38C
100
AcDbEntity
  8
0
  6
CONTINUOUS
 62
               4
100
AcDbLine
 10
1.5
 20
-0.4499999999999886
 30
0.0
 11
1.5
 21
0.3999999999999773
 31
0.0
  0
LINE
  5
38D
100
AcDbEntity
  8
0
  6
CONTINUOUS
 62
               4
100
AcDbLine
 10
2.0
 20
-0.9499999999999886
 30
0.0
 11
1.5
 21
-0.4499999999999886
 31
0.0
  0
LINE
  5
38E
100
AcDbEntity
  8
0
  6
CONTINUOUS
 62
               4
100
AcDbLine
 10
-2.0
 20
-0.9499999999999886
 30
0.0
 11
-1.5
 21
-0.4499999999999886
 31
0.0
  0
LINE
  5
38F
100
AcDbEntity
  8
0
  6
CONTINUOUS
 62
               4
100
AcDbLine
 10
-1.5
 20
-0.4499999999999886
 30
0.0
 11
-1.5
 21
0.3999999999999773
 31
0.0
  0
LINE
  5
390
100
AcDbEntity
  8
0
  6
CONTINUOUS
 62
               4
100
AcDbLine
 10
-1.5
 20
0.3999999999999773
 30
0.0
 11
-2.25
 21
1.1499999999999773
 31
0.0
  0
LINE
  5
391
100
AcDbEntity
  8
0
  6
CONTINUOUS
 62
               4
100
AcDbLine
 10
-2.25
 20
6.8999999999999773
 30
0.0
 11
-2.25
 21
1.1499999999999773
 31
0.0
  0
LINE
  5
392
100
AcDbEntity
  8
0
  6
CONTINUOUS
 62
               4
100
AcDbLine
 10
-2.25
 20
5.3999999999999773
 30
0.0
 11
2.25
 21
5.3999999999999773
 31
0.0
  0
ENDBLK
  5
393
100
AcDbEntity
  8
0
100
AcDbBlockEnd
  0
BLOCK
  5
394
100
AcDbEntity
  8
0
100
AcDbBlockBegin
  2
RAG8-13
 70
               0
 10
0.0
 20
0.0
 30
0.0
  3
RAG8-13
  1

  0
LINE
  5
395
100
AcDbEntity
  8
0
  6
CONTINUOUS
 62
             200
100
AcDbLine
 10
-1.3000000000000114
 20
9.1476851851851677
 30
0.0
 11
1.3000000000000114
 21
10.652314814814844
 31
0.0
  0
LINE
  5
396
100
AcDbEntity
  8
0
  6
CONTINUOUS
 62
               4
100
AcDbLine
 10
2.25
 20
5.4000000000000057
 30
0.0
 11
-2.25
 21
5.4000000000000057
 31
0.0
  0
LINE
  5
397
100
AcDbEntity
  8
0
  6
CONTINUOUS
 62
               4
100
AcDbLine
 10
2.25
 20
6.9000000000000057
 30
0.0
 11
2.25
 21
1.1500000000000057
 31
0.0
  0
LINE
  5
398
100
AcDbEntity
  8
0
  6
CONTINUOUS
 62
               4
100
AcDbLine
 10
1.5
 20
0.4000000000000057
 30
0.0
 11
2.25
 21
1.1500000000000057
 31
0.0
  0
LINE
  5
399
100
AcDbEntity
  8
0
  6
CONTINUOUS
 62
               4
100
AcDbLine
 10
1.5
 20
-0.4499999999999602
 30
0.0
 11
1.5
 21
0.4000000000000057
 31
0.0
  0
LINE
  5
39A
100
AcDbEntity
  8
0
  6
CONTINUOUS
 62
               4
100
AcDbLine
 10
2.0
 20
-0.9499999999999602
 30
0.0
 11
1.5
 21
-0.4499999999999602
 31
0.0
  0
LINE
  5
39B
100
AcDbEntity
  8
0
  6
CONTINUOUS
 62
               4
100
AcDbLine
 10
-2.0
 20
-0.9499999999999602
 30
0.0
 11
-1.5
 21
-0.4499999999999602
 31
0.0
  0
LINE
  5
39C
100
AcDbEntity
  8
0
  6
CONTINUOUS
 62
               4
100
AcDbLine
 10
-1.5
 20
-0.4499999999999602
 30
0.0
 11
-1.5
 21
0.4000000000000057
 31
0.0
  0
LINE
  5
39D
100
AcDbEntity
  8
0
  6
CONTINUOUS
 62
               4
100
AcDbLine
 10
-1.5
 20
0.4000000000000057
 30
0.0
 11
-2.25
 21
1.1500000000000057
 31
0.0
  0
LINE
  5
39E
100
AcDbEntity
  8
0
  6
CONTINUOUS
 62
               4
100
AcDbLine
 10
-2.25
 20
6.9000000000000057
 30
0.0
 11
-2.25
 21
1.1500000000000057
 31
0.0
  0
LINE
  5
39F
100
AcDbEntity
  8
0
  6
CONTINUOUS
 62
             200
100
AcDbLine
 10
0.0
 20
13.146819562614354
 30
0.0
 11
0.0
 21
-6.0599999999999739
 31
0.0
  0
LINE
  5
3A0
100
AcDbEntity
  8
0
  6
CONTINUOUS
 62
               4
100
AcDbLine
 10
2.25
 20
6.9000000000000057
 30
0.0
 11
-2.25
 21
6.9000000000000057
 31
0.0
  0
LINE
  5
3A1
100
AcDbEntity
  8
0
  6
CONTINUOUS
 62
               4
100
AcDbLine
 10
1.3000000000000114
 20
10.652314814814844
 30
0.0
 11
1.3000000000000114
 21
6.9000000000000057
 31
0.0
  0
LINE
  5
3A2
100
AcDbEntity
  8
0
  6
CONTINUOUS
 62
               4
100
AcDbLine
 10
-1.3000000000000114
 20
9.1476851851851677
 30
0.0
 11
-1.3000000000000114
 21
6.9000000000000057
 31
0.0
  0
LINE
  5
3A3
100
AcDbEntity
  8
0
  6
CONTINUOUS
 62
               4
100
AcDbLine
 10
-2.0
 20
-0.9499999999999602
 30
0.0
 11
-2.0
 21
-3.0000000000000284
 31
0.0
  0
LINE
  5
3A4
100
AcDbEntity
  8
0
  6
CONTINUOUS
 62
               4
100
AcDbLine
 10
2.0
 20
-0.9499999999999602
 30
0.0
 11
2.0
 21
-3.0000000000000284
 31
0.0
  0
ARC
  5
3A5
100
AcDbEntity
  8
0
  6
CONTINUOUS
 62
               4
100
AcDbCircle
 10
0.0
 20
-2.5499999999999829
 30
0.0
 40
2.0500000000000114
100
AcDbArc
 50
192.68038349182106
 51
347.31961650817891
  0
ENDBLK
  5
3A6
100
AcDbEntity
  8
0
100
AcDbBlockEnd
  0
BLOCK
  5
3A7
100
AcDbEntity
  8
0
100
AcDbBlockBegin
  2
RAG8-14
 70
               0
 10
0.0
 20
0.0
 30
0.0
  3
RAG8-14
  1

  0
CIRCLE
  5
3A8
100
AcDbEntity
  8
0
  6
CONTINUOUS
 62
               4
100
AcDbCircle
 10
2.0
 20
0.0
 30
0.0
 40
1.3999999999999997
  0
CIRCLE
  5
3A9
100
AcDbEntity
  8
0
  6
CONTINUOUS
 62
             200
100
AcDbCircle
 10
2.0
 20
0.0
 30
0.0
 40
1.0065
  0
LINE
  5
3AA
100
AcDbEntity
  8
0
  6
CONTINUOUS
 62
               4
100
AcDbLine
 10
0.0
 20
-2.0
 30
0.0
 11
16.869619799344576
 21
-2.0
 31
0.0
  0
LINE
  5
3AB
100
AcDbEntity
  8
0
  6
CONTINUOUS
 62
               4
100
AcDbLine
 10
0.0
 20
2.0
 30
0.0
 11
16.869619799344576
 21
2.0
 31
0.0
  0
CIRCLE
  5
3AC
100
AcDbEntity
  8
0
  6
CONTINUOUS
 62
               4
100
AcDbCircle
 10
18.949999988079071
 20
0.3181533813476563
 30
0.0
 40
0.25
  0
CIRCLE
  5
3AD
100
AcDbEntity
  8
0
  6
CONTINUOUS
 62
               4
100
AcDbCircle
 10
19.85000001192094
 20
-0.34100341796875
 30
0.0
 40
0.25
  0
CIRCLE
  5
3AE
100
AcDbEntity
  8
0
  6
CONTINUOUS
 62
               4
100
AcDbCircle
 10
18.949999988079071
 20
0.3181533813476563
 30
0.0
 40
0.449999988079071
  0
CIRCLE
  5
3AF
100
AcDbEntity
  8
0
  6
CONTINUOUS
 62
               4
100
AcDbCircle
 10
19.85000001192094
 20
-0.34100341796875
 30
0.0
 40
0.449999988079071
  0
CIRCLE
  5
3B0
100
AcDbEntity
  8
0
  6
CONTINUOUS
 62
               4
100
AcDbCircle
 10
19.4073486328125
 20
0.0
 30
0.0
 40
1.2999992370605469
  0
CIRCLE
  5
3B1
100
AcDbEntity
  8
0
  6
CONTINUOUS
 62
               4
100
AcDbCircle
 10
2.0
 20
0.0
 30
0.0
 40
1.25
  0
ARC
  5
3B2
100
AcDbEntity
  8
0
  6
CONTINUOUS
 62
               4
100
AcDbCircle
 10
19.5
 20
0.0
 30
0.0
 40
3.3043758866085451
100
AcDbArc
 50
137.08479304051025
 51
222.91520695948975
  0
LINE
  5
3B3
100
AcDbEntity
  8
0
  6
CONTINUOUS
 62
               4
100
AcDbLine
 10
0.9300000000000068
 20
-0.6399999999999864
 30
0.0
 11
2.6399999999999864
 21
1.0699999999999932
 31
0.0
  0
LINE
  5
3B4
100
AcDbEntity
  8
0
  6
CONTINUOUS
 62
               4
100
AcDbLine
 10
1.3499999999999943
 20
-1.0699999999999932
 30
0.0
 11
3.0699999999999932
 21
0.6399999999999864
 31
0.0
  0
LINE
  5
3B5
100
AcDbEntity
  8
0
  6
CONTINUOUS
 62
               4
100
AcDbLine
 10
22.0
 20
2.25
 30
0.0
 11
22.0
 21
-2.25
 31
0.0
  0
LINE
  5
3B6
100
AcDbEntity
  8
0
  6
CONTINUOUS
 62
               4
100
AcDbLine
 10
17.080000000000013
 20
-2.25
 30
0.0
 11
22.0
 21
-2.25
 31
0.0
  0
LINE
  5
3B7
100
AcDbEntity
  8
0
  6
CONTINUOUS
 62
               4
100
AcDbLine
 10
17.080000000000013
 20
2.25
 30
0.0
 11
22.0
 21
2.25
 31
0.0
  0
LINE
  5
3B8
100
AcDbEntity
  8
0
  6
CONTINUOUS
 62
             200
100
AcDbLine
 10
2.0
 20
2.8299999999999841
 30
0.0
 11
2.0
 21
-2.75
 31
0.0
  0
LINE
  5
3B9
100
AcDbEntity
  8
0
  6
CONTINUOUS
 62
               4
100
AcDbLine
 10
0.0
 20
2.0
 30
0.0
 11
0.0
 21
-2.0
 31
0.0
  0
LINE
  5
3BA
100
AcDbEntity
  8
0
  6
CONTINUOUS
 62
               4
100
AcDbLine
 10
0.0
 20
1.5
 30
0.0
 11
16.555700422850947
 21
1.5
 31
0.0
  0
LINE
  5
3BB
100
AcDbEntity
  8
0
  6
CONTINUOUS
 62
               4
100
AcDbLine
 10
0.0
 20
-1.5
 30
0.0
 11
16.555700422850947
 21
-1.5
 31
0.0
  0
LINE
  5
3BC
100
AcDbEntity
  8
0
  6
CONTINUOUS
 62
             200
100
AcDbLine
 10
-1.3199999999999932
 20
0.0
 30
0.0
 11
23.580000000000013
 21
0.0
 31
0.0
  0
ENDBLK
  5
3BD
100
AcDbEntity
  8
0
100
AcDbBlockEnd
  0
BLOCK
  5
3BE
100
AcDbEntity
  8
0
100
AcDbBlockBegin
  2
RAG8-15
 70
               0
 10
0.0
 20
0.0
 30
0.0
  3
RAG8-15
  1

  0
LINE
  5
3BF
100
AcDbEntity
  8
0
  6
CONTINUOUS
 62
             200
100
AcDbLine
 10
17.75230946882219
 20
-1.1999995223464452
 30
0.0
 11
19.253464203233293
 21
-3.799999522346468
 31
0.0
  0
LINE
  5
3C0
100
AcDbEntity
  8
0
  6
CONTINUOUS
 62
             200
100
AcDbLine
 10
0.9500000000000028
 20
0.6001359972752312
 30
0.0
 11
0.9500000000000028
 21
0.0
 31
0.0
  0
LINE
  5
3C1
100
AcDbEntity
  8
0
  6
CONTINUOUS
 62
             200
100
AcDbLine
 10
3.0500000000000256
 20
0.6001359972752312
 30
0.0
 11
3.0500000000000256
 21
0.0
 31
0.0
  0
LINE
  5
3C2
100
AcDbEntity
  8
0
  6
CONTINUOUS
 62
               4
100
AcDbLine
 10
0.7514285714285762
 20
0.4001359972752425
 30
0.0
 11
3.2514285714285762
 21
0.4001359972752425
 31
0.0
  0
LINE
  5
3C3
100
AcDbEntity
  8
0
  6
CONTINUOUS
 62
               4
100
AcDbLine
 10
3.0514285714285876
 20
0.6001359972752312
 30
0.0
 11
3.2514285714285762
 21
0.4001359972752425
 31
0.0
  0
LINE
  5
3C4
100
AcDbEntity
  8
0
  6
CONTINUOUS
 62
               4
100
AcDbLine
 10
0.7514285714285762
 20
0.4001359972752425
 30
0.0
 11
0.9514285714285791
 21
0.6001359972752312
 31
0.0
  0
LINE
  5
3C5
100
AcDbEntity
  8
0
  6
CONTINUOUS
 62
               4
100
AcDbLine
 10
3.2514285714285762
 20
0.4001359972752425
 30
0.0
 11
3.2514285714285762
 21
0.0
 31
0.0
  0
LINE
  5
3C6
100
AcDbEntity
  8
0
  6
CONTINUOUS
 62
               4
100
AcDbLine
 10
0.7514285714285762
 20
0.0
 30
0.0
 11
0.7514285714285762
 21
0.4001359972752425
 31
0.0
  0
LINE
  5
3C7
100
AcDbEntity
  8
0
  6
CONTINUOUS
 62
             200
100
AcDbLine
 10
0.9500000000000028
 20
-2.5998640027247575
 30
0.0
 11
0.9500000000000028
 21
-4.0984354312961955
 31
0.0
  0
LINE
  5
3C8
100
AcDbEntity
  8
0
  6
CONTINUOUS
 62
             200
100
AcDbLine
 10
3.0500000000000256
 20
-2.5998640027247575
 30
0.0
 11
3.0500000000000256
 21
-4.1012925741533763
 31
0.0
  0
LINE
  5
3C9
100
AcDbEntity
  8
0
  6
CONTINUOUS
 62
               4
100
AcDbLine
 10
0.9514285714285791
 20
0.6001359972752312
 30
0.0
 11
3.0514285714285876
 21
0.6001359972752312
 31
0.0
  0
LINE
  5
3CA
100
AcDbEntity
  8
0
  6
CONTINUOUS
 62
               4
100
AcDbLine
 10
0.0
 20
-1.799864002724803
 30
0.0
 11
0.0
 21
0.0
 31
0.0
  0
LINE
  5
3CB
100
AcDbEntity
  8
0
  6
CONTINUOUS
 62
             200
100
AcDbLine
 10
2.0
 20
2.291435061338376
 30
0.0
 11
2.0
 21
-6.0599995140677834
 31
0.0
  0
LINE
  5
3CC
100
AcDbEntity
  8
0
  6
CONTINUOUS
 62
               4
100
AcDbLine
 10
4.0000000000000142
 20
-1.8000000027248007
 30
0.0
 11
4.0000000000000142
 21
-2.6000000027247552
 31
0.0
  0
LINE
  5
3CD
100
AcDbEntity
  8
0
  6
CONTINUOUS
 62
               4
100
AcDbLine
 10
0.0
 20
-1.799864002724803
 30
0.0
 11
0.0
 21
-2.6000000027247552
 31
0.0
  0
LINE
  5
3CE
100
AcDbEntity
  8
0
  6
CONTINUOUS
 62
               4
100
AcDbLine
 10
0.7514285714285762
 20
-2.5998640027247575
 30
0.0
 11
0.7514285714285762
 21
-3.8998640027247689
 31
0.0
  0
LINE
  5
3CF
100
AcDbEntity
  8
0
  6
CONTINUOUS
 62
             200
100
AcDbLine
 10
0.7514285714285762
 20
-3.8998640027247689
 30
0.0
 11
3.2514285714285762
 21
-3.8998640027247689
 31
0.0
  0
LINE
  5
3D0
100
AcDbEntity
  8
0
  6
CONTINUOUS
 62
               4
100
AcDbLine
 10
1.2514285714285762
 20
-4.3998640027247689
 30
0.0
 11
0.7514285714285762
 21
-3.8998640027247689
 31
0.0
  0
LINE
  5
3D1
100
AcDbEntity
  8
0
  6
CONTINUOUS
 62
               4
100
AcDbLine
 10
1.2514285714285762
 20
-4.3998640027247689
 30
0.0
 11
2.7514285714285762
 21
-4.3998640027247689
 31
0.0
  0
LINE
  5
3D2
100
AcDbEntity
  8
0
  6
CONTINUOUS
 62
               4
100
AcDbLine
 10
3.2514285714285762
 20
-3.8998640027247689
 30
0.0
 11
2.7514285714285762
 21
-4.3998640027247689
 31
0.0
  0
LINE
  5
3D3
100
AcDbEntity
  8
0
  6
CONTINUOUS
 62
               4
100
AcDbLine
 10
3.2514285714285762
 20
-2.5998640027247575
 30
0.0
 11
3.2514285714285762
 21
-3.8998640027247689
 31
0.0
  0
LINE
  5
3D4
100
AcDbEntity
  8
0
  6
CONTINUOUS
 62
               4
100
AcDbLine
 10
4.3000000000000256
 20
-1.8000000027248007
 30
0.0
 11
4.3000000000000256
 21
-4.5999995223464794
 31
0.0
  0
LINE
  5
3D5
100
AcDbEntity
  8
0
  6
CONTINUOUS
 62
               4
100
AcDbLine
 10
15.500000000000014
 20
-4.5999995223464794
 30
0.0
 11
15.500000000000014
 21
0.0
 31
0.0
  0
LINE
  5
3D6
100
AcDbEntity
  8
0
  6
CONTINUOUS
 62
               4
100
AcDbLine
 10
4.2999999986376025
 20
-4.5999995223464794
 30
0.0
 11
15.499999995231647
 21
-4.5999995223464794
 31
0.0
  0
LINE
  5
3D7
100
AcDbEntity
  8
0
  6
CONTINUOUS
 62
               4
100
AcDbLine
 10
-0.000000004768367
 20
-1.8000000027248007
 30
0.0
 11
4.2999999986376025
 21
-1.8000000027248007
 31
0.0
  0
LINE
  5
3D8
100
AcDbEntity
  8
0
  6
CONTINUOUS
 62
               4
100
AcDbLine
 10
-0.000000004768367
 20
-2.6000000027247552
 30
0.0
 11
3.9999999952316472
 21
-2.6000000027247552
 31
0.0
  0
LINE
  5
3D9
100
AcDbEntity
  8
0
  6
CONTINUOUS
 62
               4
100
AcDbLine
 10
-0.000000004768367
 20
-1.1000000027247552
 30
0.0
 11
15.500000000000014
 21
-1.1000000027247552
 31
0.0
  0
LINE
  5
3DA
100
AcDbEntity
  8
0
  6
CONTINUOUS
 62
               4
100
AcDbLine
 10
-0.000000004768367
 20
-0.5499999965940106
 30
0.0
 11
15.500000000000014
 21
-0.5499999965940106
 31
0.0
  0
LINE
  5
3DB
100
AcDbEntity
  8
0
  6
CONTINUOUS
 62
               4
100
AcDbLine
 10
-0.000000004768367
 20
0.0
 30
0.0
 11
15.500000000000014
 21
0.0
 31
0.0
  0
LINE
  5
3DC
100
AcDbEntity
  8
0
  6
CONTINUOUS
 62
               4
100
AcDbLine
 10
15.500000000000014
 20
-1.1999995223464452
 30
0.0
 11
17.752309468822162
 21
-1.1999995223464452
 31
0.0
  0
LINE
  5
3DD
100
AcDbEntity
  8
0
  6
CONTINUOUS
 62
               4
100
AcDbLine
 10
15.500000000000014
 20
-3.799999522346468
 30
0.0
 11
19.253464203233264
 21
-3.799999522346468
 31
0.0
  0
ENDBLK
  5
3DE
100
AcDbEntity
  8
0
100
AcDbBlockEnd
  0
BLOCK
  5
3DF
100
AcDbEntity
  8
0
100
AcDbBlockBegin
  2
RAG8-16
 70
               0
 10
0.0
 20
0.0
 30
0.0
  3
RAG8-16
  1

  0
ARC
  5
3E0
100
AcDbEntity
  8
0
  6
CONTINUOUS
 62
               4
100
AcDbCircle
 10
0.0
 20
-2.5500000000000114
 30
0.0
 40
2.0500000000000114
100
AcDbArc
 50
192.68038349182106
 51
347.31961650817891
  0
LINE
  5
3E1
100
AcDbEntity
  8
0
  6
CONTINUOUS
 62
               4
100
AcDbLine
 10
2.0
 20
-3.0000000000000568
 30
0.0
 11
2.0
 21
-1.0500000000000114
 31
0.0
  0
LINE
  5
3E2
100
AcDbEntity
  8
0
  6
CONTINUOUS
 62
               4
100
AcDbLine
 10
-2.0
 20
-3.0000000000000568
 30
0.0
 11
-2.0
 21
-1.0497395833333485
 31
0.0
  0
LINE
  5
3E3
100
AcDbEntity
  8
0
  6
CONTINUOUS
 62
             200
100
AcDbLine
 10
1.0500000000000114
 20
0.0
 30
0.0
 11
1.0500000000000114
 21
0.6001360000000204
 31
0.0
  0
LINE
  5
3E4
100
AcDbEntity
  8
0
  6
CONTINUOUS
 62
             200
100
AcDbLine
 10
-1.0499999999999829
 20
0.0
 30
0.0
 11
-1.0499999999999829
 21
0.6001360000000204
 31
0.0
  0
LINE
  5
3E5
100
AcDbEntity
  8
0
  6
CONTINUOUS
 62
             200
100
AcDbLine
 10
1.0500000000000114
 20
-4.0970068571428442
 30
0.0
 11
1.0500000000000114
 21
-2.6000000000000227
 31
0.0
  0
LINE
  5
3E6
100
AcDbEntity
  8
0
  6
CONTINUOUS
 62
             200
100
AcDbLine
 10
-1.0499999999999829
 20
-4.0970068571428442
 30
0.0
 11
-1.0499999999999829
 21
-2.6000000000000227
 31
0.0
  0
LINE
  5
3E7
100
AcDbEntity
  8
0
  6
CONTINUOUS
 62
               4
100
AcDbLine
 10
-1.25
 20
0.400135999999975
 30
0.0
 11
-1.0499999999999829
 21
0.6001360000000204
 31
0.0
  0
LINE
  5
3E8
100
AcDbEntity
  8
0
  6
CONTINUOUS
 62
               4
100
AcDbLine
 10
-1.25
 20
0.0
 30
0.0
 11
-1.25
 21
0.400135999999975
 31
0.0
  0
LINE
  5
3E9
100
AcDbEntity
  8
0
  6
CONTINUOUS
 62
               4
100
AcDbLine
 10
-2.0
 20
-1.0497395833333485
 30
0.0
 11
-1.501428571428562
 21
-0.5485714285714494
 31
0.0
  0
LINE
  5
3EA
100
AcDbEntity
  8
0
  6
CONTINUOUS
 62
               4
100
AcDbLine
 10
-1.25
 20
-2.6000000000000227
 30
0.0
 11
-1.25
 21
-3.8970068571428556
 31
0.0
  0
LINE
  5
3EB
100
AcDbEntity
  8
0
  6
CONTINUOUS
 62
               4
100
AcDbLine
 10
-0.7471428571428476
 20
-4.3998640000000364
 30
0.0
 11
-1.25
 21
-3.8970068571428556
 31
0.0
  0
LINE
  5
3EC
100
AcDbEntity
  8
0
  6
CONTINUOUS
 62
               4
100
AcDbLine
 10
-0.7471428571428476
 20
-4.3998640000000364
 30
0.0
 11
0.747142857142876
 21
-4.3998640000000364
 31
0.0
  0
LINE
  5
3ED
100
AcDbEntity
  8
0
  6
CONTINUOUS
 62
             200
100
AcDbLine
 10
0.0
 20
-6.0599995196216696
 30
0.0
 11
0.0
 21
2.2914350557844898
 31
0.0
  0
LINE
  5
3EE
100
AcDbEntity
  8
0
  6
CONTINUOUS
 62
               4
100
AcDbLine
 10
-1.5
 20
-0.5471354166666629
 30
0.0
 11
-1.5
 21
0.0000000027247893
 31
0.0
  0
LINE
  5
3EF
100
AcDbEntity
  8
0
  6
CONTINUOUS
 62
               4
100
AcDbLine
 10
1.0500000000000114
 20
0.6001360000000204
 30
0.0
 11
1.25
 21
0.400135999999975
 31
0.0
  0
LINE
  5
3F0
100
AcDbEntity
  8
0
  6
CONTINUOUS
 62
               4
100
AcDbLine
 10
1.25
 20
0.400135999999975
 30
0.0
 11
1.25
 21
0.0
 31
0.0
  0
LINE
  5
3F1
100
AcDbEntity
  8
0
  6
CONTINUOUS
 62
               4
100
AcDbLine
 10
1.25
 20
-2.599864000000025
 30
0.0
 11
1.25
 21
-3.8970068571428556
 31
0.0
  0
LINE
  5
3F2
100
AcDbEntity
  8
0
  6
CONTINUOUS
 62
               4
100
AcDbLine
 10
1.5
 20
-0.5499999999999545
 30
0.0
 11
1.5
 21
0.0000000027247893
 31
0.0
  0
LINE
  5
3F3
100
AcDbEntity
  8
0
  6
CONTINUOUS
 62
               4
100
AcDbLine
 10
1.5
 20
-0.5499999999999545
 30
0.0
 11
2.0
 21
-1.0500000000000114
 31
0.0
  0
LINE
  5
3F4
100
AcDbEntity
  8
0
  6
CONTINUOUS
 62
               4
100
AcDbLine
 10
-2.0
 20
-2.6000000000000227
 30
0.0
 11
2.0
 21
-2.6000000000000227
 31
0.0
  0
LINE
  5
3F5
100
AcDbEntity
  8
0
  6
CONTINUOUS
 62
               4
100
AcDbLine
 10
-2.0
 20
-1.8000000000000114
 30
0.0
 11
2.0
 21
-1.8000000000000114
 31
0.0
  0
LINE
  5
3F6
100
AcDbEntity
  8
0
  6
CONTINUOUS
 62
               4
100
AcDbLine
 10
1.25
 20
-3.8970068571428556
 30
0.0
 11
0.747142857142876
 21
-4.3998640000000364
 31
0.0
  0
LINE
  5
3F7
100
AcDbEntity
  8
0
  6
CONTINUOUS
 62
               4
100
AcDbLine
 10
-1.25
 20
-3.8970068571428556
 30
0.0
 11
1.25
 21
-3.8970068571428556
 31
0.0
  0
LINE
  5
3F8
100
AcDbEntity
  8
0
  6
CONTINUOUS
 62
               4
100
AcDbLine
 10
-1.5
 20
0.0
 30
0.0
 11
1.5
 21
0.0
 31
0.0
  0
LINE
  5
3F9
100
AcDbEntity
  8
0
  6
CONTINUOUS
 62
               4
100
AcDbLine
 10
-1.25
 20
0.400135999999975
 30
0.0
 11
1.25
 21
0.400135999999975
 31
0.0
  0
LINE
  5
3FA
100
AcDbEntity
  8
0
  6
CONTINUOUS
 62
               4
100
AcDbLine
 10
-1.0499999999999829
 20
0.6001360000000204
 30
0.0
 11
1.0500000000000114
 21
0.6001360000000204
 31
0.0
  0
ENDBLK
  5
3FB
100
AcDbEntity
  8
0
100
AcDbBlockEnd
  0
BLOCK
  5
3FC
100
AcDbEntity
  8
0
100
AcDbBlockBegin
  2
RAG8-17
 70
               0
 10
0.0
 20
0.0
 30
0.0
  3
RAG8-17
  1

  0
CIRCLE
  5
3FD
100
AcDbEntity
  8
0
  6
CONTINUOUS
 62
               4
100
AcDbCircle
 10
0.0
 20
-2.4999995279003429
 30
0.0
 40
1.3
  0
CIRCLE
  5
3FE
100
AcDbEntity
  8
0
  6
CONTINUOUS
 62
               4
100
AcDbCircle
 10
0.0
 20
-3.1499995279003201
 30
0.0
 40
0.29
  0
CIRCLE
  5
3FF
100
AcDbEntity
  8
0
  6
CONTINUOUS
 62
               4
100
AcDbCircle
 10
0.0
 20
-1.8499995279003656
 30
0.0
 40
0.29
  0
CIRCLE
  5
400
100
AcDbEntity
  8
0
  6
CONTINUOUS
 62
               4
100
AcDbCircle
 10
0.0
 20
-3.1499995279003201
 30
0.0
 40
0.5
  0
CIRCLE
  5
401
100
AcDbEntity
  8
0
  6
CONTINUOUS
 62
               4
100
AcDbCircle
 10
0.0
 20
-1.8499995279003656
 30
0.0
 40
0.5
  0
LINE
  5
402
100
AcDbEntity
  8
0
  6
CONTINUOUS
 62
               4
100
AcDbLine
 10
1.0499999999999545
 20
0.6001360000000204
 30
0.0
 11
-1.0500000000000114
 21
0.6001360000000204
 31
0.0
  0
LINE
  5
403
100
AcDbEntity
  8
0
  6
CONTINUOUS
 62
               4
100
AcDbLine
 10
1.25
 20
0.400135999999975
 30
0.0
 11
-1.25
 21
0.400135999999975
 31
0.0
  0
LINE
  5
404
100
AcDbEntity
  8
0
  6
CONTINUOUS
 62
               4
100
AcDbLine
 10
1.5
 20
0.0
 30
0.0
 11
-1.5
 21
0.0
 31
0.0
  0
LINE
  5
405
100
AcDbEntity
  8
0
  6
CONTINUOUS
 62
               4
100
AcDbLine
 10
-1.5
 20
-0.5499999999999545
 30
0.0
 11
-2.0
 21
-1.0500000000000114
 31
0.0
  0
LINE
  5
406
100
AcDbEntity
  8
0
  6
CONTINUOUS
 62
               4
100
AcDbLine
 10
-1.5
 20
-0.5499999999999545
 30
0.0
 11
-1.5
 21
0.0000000027247893
 31
0.0
  0
LINE
  5
407
100
AcDbEntity
  8
0
  6
CONTINUOUS
 62
               4
100
AcDbLine
 10
-1.25
 20
0.400135999999975
 30
0.0
 11
-1.25
 21
0.0
 31
0.0
  0
LINE
  5
408
100
AcDbEntity
  8
0
  6
CONTINUOUS
 62
               4
100
AcDbLine
 10
-1.0500000000000114
 20
0.6001360000000204
 30
0.0
 11
-1.25
 21
0.400135999999975
 31
0.0
  0
LINE
  5
409
100
AcDbEntity
  8
0
  6
CONTINUOUS
 62
               4
100
AcDbLine
 10
1.5
 20
-0.5471354166666629
 30
0.0
 11
1.5
 21
0.0000000027247893
 31
0.0
  0
LINE
  5
40A
100
AcDbEntity
  8
0
  6
CONTINUOUS
 62
             200
100
AcDbLine
 10
0.0
 20
-6.0599995196216696
 30
0.0
 11
0.0
 21
2.2914350557844898
 31
0.0
  0
LINE
  5
40B
100
AcDbEntity
  8
0
  6
CONTINUOUS
 62
               4
100
AcDbLine
 10
2.0
 20
-1.0497395833333485
 30
0.0
 11
1.501428571428562
 21
-0.5485714285714494
 31
0.0
  0
LINE
  5
40C
100
AcDbEntity
  8
0
  6
CONTINUOUS
 62
               4
100
AcDbLine
 10
1.25
 20
0.0
 30
0.0
 11
1.25
 21
0.400135999999975
 31
0.0
  0
LINE
  5
40D
100
AcDbEntity
  8
0
  6
CONTINUOUS
 62
               4
100
AcDbLine
 10
1.25
 20
0.400135999999975
 30
0.0
 11
1.0499999999999545
 21
0.6001360000000204
 31
0.0
  0
LINE
  5
40E
100
AcDbEntity
  8
0
  6
CONTINUOUS
 62
             200
100
AcDbLine
 10
1.0499999999999545
 20
0.0
 30
0.0
 11
1.0499999999999545
 21
0.6001360000000204
 31
0.0
  0
LINE
  5
40F
100
AcDbEntity
  8
0
  6
CONTINUOUS
 62
             200
100
AcDbLine
 10
-1.0500000000000114
 20
0.0
 30
0.0
 11
-1.0500000000000114
 21
0.6001360000000204
 31
0.0
  0
LINE
  5
410
100
AcDbEntity
  8
0
  6
CONTINUOUS
 62
               4
100
AcDbLine
 10
2.0
 20
-3.0000000000000568
 30
0.0
 11
2.0
 21
-1.0497395833333485
 31
0.0
  0
LINE
  5
411
100
AcDbEntity
  8
0
  6
CONTINUOUS
 62
               4
100
AcDbLine
 10
-2.0
 20
-3.0000000000000568
 30
0.0
 11
-2.0
 21
-1.0500000000000114
 31
0.0
  0
ARC
  5
412
100
AcDbEntity
  8
0
  6
CONTINUOUS
 62
               4
100
AcDbCircle
 10
0.0
 20
-2.5500000000000114
 30
0.0
 40
2.0500000000000114
100
AcDbArc
 50
192.68038349182106
 51
347.31961650817891
  0
ENDBLK
  5
413
100
AcDbEntity
  8
0
100
AcDbBlockEnd
  0
BLOCK
  5
414
100
AcDbEntity
  8
0
100
AcDbBlockBegin
  2
RAG8-18
 70
               0
 10
0.0
 20
0.0
 30
0.0
  3
RAG8-18
  1

  0
LINE
  5
415
100
AcDbEntity
  8
0
  6
CONTINUOUS
 62
               4
100
AcDbLine
 10
0.0
 20
-2.0
 30
0.0
 11
15.500000004768381
 21
-2.0
 31
0.0
  0
LINE
  5
416
100
AcDbEntity
  8
0
  6
CONTINUOUS
 62
               4
100
AcDbLine
 10
0.0
 20
2.0
 30
0.0
 11
15.500000004768381
 21
2.0
 31
0.0
  0
LINE
  5
417
100
AcDbEntity
  8
0
  6
CONTINUOUS
 62
             200
100
AcDbLine
 10
-1.4104017530168846
 20
0.0
 30
0.0
 11
21.50288684079608
 21
0.0
 31
0.0
  0
LINE
  5
418
100
AcDbEntity
  8
0
  6
CONTINUOUS
 62
             200
100
AcDbLine
 10
17.752309473590557
 20
1.3000000000000114
 30
0.0
 11
19.25346420800166
 21
-1.3000000000000114
 31
0.0
  0
LINE
  5
419
100
AcDbEntity
  8
0
  6
CONTINUOUS
 62
               4
100
AcDbLine
 10
15.500000004768381
 20
-1.3000000000000114
 30
0.0
 11
19.253464208001631
 21
-1.3000000000000114
 31
0.0
  0
LINE
  5
41A
100
AcDbEntity
  8
0
  6
CONTINUOUS
 62
               4
100
AcDbLine
 10
15.500000004768381
 20
1.3000000000000114
 30
0.0
 11
17.752309473590529
 21
1.3000000000000114
 31
0.0
  0
LINE
  5
41B
100
AcDbEntity
  8
0
  6
CONTINUOUS
 62
             200
100
AcDbLine
 10
2.000000004768367
 20
2.9428571428571786
 30
0.0
 11
2.000000004768367
 21
-3.2999846734234666
 31
0.0
  0
LINE
  5
41C
100
AcDbEntity
  8
0
  6
CONTINUOUS
 62
               4
100
AcDbLine
 10
3.9000000047683585
 20
-1.5
 30
0.0
 11
3.9000000047683585
 21
1.5
 31
0.0
  0
LINE
  5
41D
100
AcDbEntity
  8
0
  6
CONTINUOUS
 62
               4
100
AcDbLine
 10
10.400000004768359
 20
-1.5
 30
0.0
 11
10.400000004768359
 21
1.5
 31
0.0
  0
LINE
  5
41E
100
AcDbEntity
  8
0
  6
CONTINUOUS
 62
               4
100
AcDbLine
 10
8.0000000047683812
 20
-0.6000000000000227
 30
0.0
 11
8.0000000047683812
 21
0.8999999999999773
 31
0.0
  0
LINE
  5
41F
100
AcDbEntity
  8
0
  6
CONTINUOUS
 62
               4
100
AcDbLine
 10
9.6000000047683756
 20
-0.6000000000000227
 30
0.0
 11
9.6000000047683756
 21
0.8999999999999773
 31
0.0
  0
LINE
  5
420
100
AcDbEntity
  8
0
  6
CONTINUOUS
 62
               4
100
AcDbLine
 10
0.0
 20
-2.0
 30
0.0
 11
0.0
 21
2.0
 31
0.0
  0
LINE
  5
421
100
AcDbEntity
  8
0
  6
CONTINUOUS
 62
               4
100
AcDbLine
 10
15.500000004768381
 20
-2.0
 30
0.0
 11
15.500000004768381
 21
2.0
 31
0.0
  0
LINE
  5
422
100
AcDbEntity
  8
0
  6
CONTINUOUS
 62
               4
100
AcDbLine
 10
0.0
 20
1.5
 30
0.0
 11
15.500000004768381
 21
1.5
 31
0.0
  0
LINE
  5
423
100
AcDbEntity
  8
0
  6
CONTINUOUS
 62
               4
100
AcDbLine
 10
0.0
 20
-1.5
 30
0.0
 11
15.500000004768381
 21
-1.5
 31
0.0
  0
CIRCLE
  5
424
100
AcDbEntity
  8
0
  6
CONTINUOUS
 62
               4
100
AcDbCircle
 10
2.000000004768367
 20
0.0
 30
0.0
 40
1.3999999999999997
  0
CIRCLE
  5
425
100
AcDbEntity
  8
0
  6
CONTINUOUS
 62
               4
100
AcDbCircle
 10
2.000000004768367
 20
0.0
 30
0.0
 40
1.25
  0
CIRCLE
  5
426
100
AcDbEntity
  8
0
  6
CONTINUOUS
 62
             200
100
AcDbCircle
 10
2.000000004768367
 20
0.0
 30
0.0
 40
1.05
  0
LINE
  5
427
100
AcDbEntity
  8
0
  6
CONTINUOUS
 62
               4
100
AcDbLine
 10
0.9571978986753322
 20
-0.6892486978790089
 30
0.0
 11
2.6892487026473901
 21
1.0428021060930632
 31
0.0
  0
LINE
  5
428
100
AcDbEntity
  8
0
  6
CONTINUOUS
 62
               4
100
AcDbLine
 10
1.3107513189315796
 20
-1.0428020722525844
 30
0.0
 11
3.0428021124431126
 21
0.6892487212589913
 31
0.0
  0
LINE
  5
429
100
AcDbEntity
  8
0
  6
CONTINUOUS
 62
               4
100
AcDbLine
 10
8.0000000047683812
 20
0.8999999999999773
 30
0.0
 11
9.6000000047683756
 21
0.8999999999999773
 31
0.0
  0
LINE
  5
42A
100
AcDbEntity
  8
0
  6
CONTINUOUS
 62
               4
100
AcDbLine
 10
8.0000000047683812
 20
-0.6000000000000227
 30
0.0
 11
9.6000000047683756
 21
-0.6000000000000227
 31
0.0
  0
ENDBLK
  5
42B
100
AcDbEntity
  8
0
100
AcDbBlockEnd
  0
BLOCK
  5
42C
100
AcDbEntity
  8
0
100
AcDbBlockBegin
  2
RAG8-19
 70
               0
 10
0.0
 20
0.0
 30
0.0
  3
RAG8-19
  1

  0
LINE
  5
42D
100
AcDbEntity
  8
0
  6
CONTINUOUS
 62
             200
100
AcDbLine
 10
11.200000004768413
 20
8.1445121127280231
 30
0.0
 11
13.800000004768435
 21
9.6456668471391254
 31
0.0
  0
LINE
  5
42E
100
AcDbEntity
  8
0
  6
CONTINUOUS
 62
               4
100
AcDbLine
 10
10.400000010217923
 20
0.9479762348989311
 30
0.0
 11
12.050955668063693
 21
1.4979762296661647
 31
0.0
  0
LINE
  5
42F
100
AcDbEntity
  8
0
  6
CONTINUOUS
 62
               4
100
AcDbLine
 10
12.050955668063693
 20
1.4979762296661647
 30
0.0
 11
12.050955668063693
 21
5.897976315961273
 31
0.0
  0
LINE
  5
430
100
AcDbEntity
  8
0
  6
CONTINUOUS
 62
               4
100
AcDbLine
 10
12.949044341473041
 20
4.8979763118740607
 30
0.0
 11
12.949044341473041
 21
5.8979763118740607
 31
0.0
  0
LINE
  5
431
100
AcDbEntity
  8
0
  6
CONTINUOUS
 62
               4
100
AcDbLine
 10
12.949044341473041
 20
4.897976315961273
 30
0.0
 11
15.000000004768367
 21
4.897976315961273
 31
0.0
  0
LINE
  5
432
100
AcDbEntity
  8
0
  6
CONTINUOUS
 62
               4
100
AcDbLine
 10
14.60000000476839
 20
4.897976315961273
 30
0.0
 11
14.60000000476839
 21
5.897976315961273
 31
0.0
  0
LINE
  5
433
100
AcDbEntity
  8
0
  6
CONTINUOUS
 62
               4
100
AcDbLine
 10
10.400000004768401
 20
-0.0020236840387611
 30
0.0
 11
10.400000004768401
 21
5.897976315961273
 31
0.0
  0
LINE
  5
434
100
AcDbEntity
  8
0
  6
CONTINUOUS
 62
               4
100
AcDbLine
 10
10.400000004768401
 20
5.897976315961273
 30
0.0
 11
14.60000000476839
 21
5.897976315961273
 31
0.0
  0
LINE
  5
435
100
AcDbEntity
  8
0
  6
CONTINUOUS
 62
               4
100
AcDbLine
 10
15.000000004768367
 20
3.897976315961273
 30
0.0
 11
10.400000004768401
 21
3.897976315961273
 31
0.0
  0
LINE
  5
436
100
AcDbEntity
  8
0
  6
CONTINUOUS
 62
             200
100
AcDbLine
 10
0.9500000047684125
 20
0.5979763159612617
 30
0.0
 11
0.9500000047684125
 21
-0.0020236840387611
 31
0.0
  0
LINE
  5
437
100
AcDbEntity
  8
0
  6
CONTINUOUS
 62
             200
100
AcDbLine
 10
3.0500000047684352
 20
0.5979763159612617
 30
0.0
 11
3.0500000047684352
 21
-0.0020236840387611
 31
0.0
  0
LINE
  5
438
100
AcDbEntity
  8
0
  6
CONTINUOUS
 62
               4
100
AcDbLine
 10
0.7514285761969859
 20
0.397976315961273
 30
0.0
 11
3.2514285761969859
 21
0.397976315961273
 31
0.0
  0
LINE
  5
439
100
AcDbEntity
  8
0
  6
CONTINUOUS
 62
               4
100
AcDbLine
 10
3.0514285761969404
 20
0.5979763159612617
 30
0.0
 11
3.2514285761969859
 21
0.397976315961273
 31
0.0
  0
LINE
  5
43A
100
AcDbEntity
  8
0
  6
CONTINUOUS
 62
               4
100
AcDbLine
 10
0.7514285761969859
 20
0.397976315961273
 30
0.0
 11
0.9514285761969745
 21
0.5979763159612617
 31
0.0
  0
LINE
  5
43B
100
AcDbEntity
  8
0
  6
CONTINUOUS
 62
               4
100
AcDbLine
 10
3.2514285761969859
 20
0.397976315961273
 30
0.0
 11
3.2514285761969859
 21
-0.0020236840387611
 31
0.0
  0
LINE
  5
43C
100
AcDbEntity
  8
0
  6
CONTINUOUS
 62
               4
100
AcDbLine
 10
0.7514285761969859
 20
-0.0020236840387611
 30
0.0
 11
0.7514285761969859
 21
0.397976315961273
 31
0.0
  0
LINE
  5
43D
100
AcDbEntity
  8
0
  6
CONTINUOUS
 62
             200
100
AcDbLine
 10
0.9500000047684125
 20
-2.602023684038727
 30
0.0
 11
0.9500000047684125
 21
-4.100595112610165
 31
0.0
  0
LINE
  5
43E
100
AcDbEntity
  8
0
  6
CONTINUOUS
 62
             200
100
AcDbLine
 10
3.0500000047684352
 20
-2.602023684038727
 30
0.0
 11
3.0500000047684352
 21
-4.1034522554673458
 31
0.0
  0
LINE
  5
43F
100
AcDbEntity
  8
0
  6
CONTINUOUS
 62
               4
100
AcDbLine
 10
0.9514285761969745
 20
0.5979763159612617
 30
0.0
 11
3.0514285761969404
 21
0.5979763159612617
 31
0.0
  0
LINE
  5
440
100
AcDbEntity
  8
0
  6
CONTINUOUS
 62
               4
100
AcDbLine
 10
0.000000004768367
 20
-1.8020236840387724
 30
0.0
 11
0.000000004768367
 21
0.0
 31
0.0
  0
LINE
  5
441
100
AcDbEntity
  8
0
  6
CONTINUOUS
 62
             200
100
AcDbLine
 10
2.000000004768367
 20
1.2843226271262438
 30
0.0
 11
2.000000004768367
 21
-6.1842448314454259
 31
0.0
  0
LINE
  5
442
100
AcDbEntity
  8
0
  6
CONTINUOUS
 62
               4
100
AcDbLine
 10
4.000000004768367
 20
-1.8020236840387724
 30
0.0
 11
4.000000004768367
 21
-2.602023684038727
 31
0.0
  0
LINE
  5
443
100
AcDbEntity
  8
0
  6
CONTINUOUS
 62
               4
100
AcDbLine
 10
0.000000004768367
 20
-1.8020236840387724
 30
0.0
 11
0.000000004768367
 21
-2.602023684038727
 31
0.0
  0
LINE
  5
444
100
AcDbEntity
  8
0
  6
CONTINUOUS
 62
               4
100
AcDbLine
 10
0.7514285761969859
 20
-2.602023684038727
 30
0.0
 11
0.7514285761969859
 21
-3.9020236840387383
 31
0.0
  0
LINE
  5
445
100
AcDbEntity
  8
0
  6
CONTINUOUS
 62
             200
100
AcDbLine
 10
0.7514285761969859
 20
-3.9020236840387383
 30
0.0
 11
3.2514285761969859
 21
-3.9020236840387383
 31
0.0
  0
LINE
  5
446
100
AcDbEntity
  8
0
  6
CONTINUOUS
 62
               4
100
AcDbLine
 10
1.2514285761969859
 20
-4.4020236840387383
 30
0.0
 11
0.7514285761969859
 21
-3.9020236840387383
 31
0.0
  0
LINE
  5
447
100
AcDbEntity
  8
0
  6
CONTINUOUS
 62
               4
100
AcDbLine
 10
1.2514285761969859
 20
-4.4020236840387383
 30
0.0
 11
2.7514285761969859
 21
-4.4020236840387383
 31
0.0
  0
LINE
  5
448
100
AcDbEntity
  8
0
  6
CONTINUOUS
 62
               4
100
AcDbLine
 10
3.2514285761969859
 20
-3.9020236840387383
 30
0.0
 11
2.7514285761969859
 21
-4.4020236840387383
 31
0.0
  0
LINE
  5
449
100
AcDbEntity
  8
0
  6
CONTINUOUS
 62
               4
100
AcDbLine
 10
3.2514285761969859
 20
-2.602023684038727
 30
0.0
 11
3.2514285761969859
 21
-3.9020236840387383
 31
0.0
  0
LINE
  5
44A
100
AcDbEntity
  8
0
  6
CONTINUOUS
 62
               4
100
AcDbLine
 10
4.3000000047684352
 20
-1.8000000000000114
 30
0.0
 11
4.3000000047684352
 21
-4.6000000000000227
 31
0.0
  0
LINE
  5
44B
100
AcDbEntity
  8
0
  6
CONTINUOUS
 62
               4
100
AcDbLine
 10
15.000000004768367
 20
-4.6000000000000227
 30
0.0
 11
15.000000004768367
 21
4.897976315961273
 31
0.0
  0
LINE
  5
44C
100
AcDbEntity
  8
0
  6
CONTINUOUS
 62
               4
100
AcDbLine
 10
11.200000004768413
 20
5.897976315961273
 30
0.0
 11
11.200000004768413
 21
8.1445121127279663
 31
0.0
  0
LINE
  5
44D
100
AcDbEntity
  8
0
  6
CONTINUOUS
 62
               4
100
AcDbLine
 10
13.800000004768435
 20
5.897976315961273
 30
0.0
 11
13.800000004768435
 21
9.6456668471390685
 31
0.0
  0
LINE
  5
44E
100
AcDbEntity
  8
0
  6
CONTINUOUS
 62
               4
100
AcDbLine
 10
4.3000000034060122
 20
-4.6000000000000227
 30
0.0
 11
15.0
 21
-4.6000000000000227
 31
0.0
  0
LINE
  5
44F
100
AcDbEntity
  8
0
  6
CONTINUOUS
 62
               4
100
AcDbLine
 10
0.0
 20
0.0
 30
0.0
 11
15.0
 21
0.0
 31
0.0
  0
LINE
  5
450
100
AcDbEntity
  8
0
  6
CONTINUOUS
 62
               4
100
AcDbLine
 10
0.000000004768367
 20
-1.8000000000000114
 30
0.0
 11
4.3000000047684352
 21
-1.8000000000000114
 31
0.0
  0
LINE
  5
451
100
AcDbEntity
  8
0
  6
CONTINUOUS
 62
               4
100
AcDbLine
 10
0.0
 20
-2.6000000000000227
 30
0.0
 11
4.0
 21
-2.6000000000000227
 31
0.0
  0
LINE
  5
452
100
AcDbEntity
  8
0
  6
CONTINUOUS
 62
               4
100
AcDbLine
 10
0.0
 20
-1.1000000082564156
 30
0.0
 11
15.0
 21
-1.1000000082564156
 31
0.0
  0
LINE
  5
453
100
AcDbEntity
  8
0
  6
CONTINUOUS
 62
               4
100
AcDbLine
 10
0.0
 20
-0.5500000000000114
 30
0.0
 11
15.000000004768367
 21
-0.5500000000000114
 31
0.0
  0
LINE
  5
454
100
AcDbEntity
  8
0
  6
CONTINUOUS
 62
               4
100
AcDbLine
 10
10.399999993188089
 20
0.9479762301305641
 30
0.0
 11
15.0
 21
0.9479762301305641
 31
0.0
  0
LINE
  5
455
100
AcDbEntity
  8
0
  6
CONTINUOUS
 62
               4
100
AcDbLine
 10
10.400000010217923
 20
1.4979762335365194
 30
0.0
 11
15.000000004768367
 21
1.4979762335365194
 31
0.0
  0
ENDBLK
  5
456
100
AcDbEntity
  8
0
100
AcDbBlockEnd
  0
BLOCK
  5
457
100
AcDbEntity
  8
0
100
AcDbBlockBegin
  2
RAG8-20
 70
               0
 10
0.0
 20
0.0
 30
0.0
  3
RAG8-20
  1

  0
ARC
  5
458
100
AcDbEntity
  8
0
  6
CONTINUOUS
 62
               4
100
AcDbCircle
 10
0.0
 20
-2.5500000000000114
 30
0.0
 40
2.0500000000000114
100
AcDbArc
 50
192.68038349182106
 51
347.31961650817891
  0
LINE
  5
459
100
AcDbEntity
  8
0
  6
CONTINUOUS
 62
               4
100
AcDbLine
 10
2.0
 20
1.4479762320920599
 30
0.0
 11
2.0
 21
5.8979762296661988
 31
0.0
  0
LINE
  5
45A
100
AcDbEntity
  8
0
  6
CONTINUOUS
 62
               4
100
AcDbLine
 10
-2.0
 20
1.4479762281690114
 30
0.0
 11
-2.0
 21
5.8979762296661988
 31
0.0
  0
LINE
  5
45B
100
AcDbEntity
  8
0
  6
CONTINUOUS
 62
               4
100
AcDbLine
 10
2.0
 20
-3.0000000000000568
 30
0.0
 11
2.0
 21
-1.0500000000000114
 31
0.0
  0
LINE
  5
45C
100
AcDbEntity
  8
0
  6
CONTINUOUS
 62
               4
100
AcDbLine
 10
-2.0
 20
-3.0000000000000568
 30
0.0
 11
-2.0
 21
-1.0537974914318511
 31
0.0
  0
LINE
  5
45D
100
AcDbEntity
  8
0
  6
CONTINUOUS
 62
             200
100
AcDbLine
 10
-1.3000000000000114
 20
8.1445120264329489
 30
0.0
 11
1.3000000000000114
 21
9.6456667608440512
 31
0.0
  0
LINE
  5
45E
100
AcDbEntity
  8
0
  6
CONTINUOUS
 62
               4
100
AcDbLine
 10
-2.0
 20
5.8979762296661988
 30
0.0
 11
2.0
 21
5.8979762296661988
 31
0.0
  0
LINE
  5
45F
100
AcDbEntity
  8
0
  6
CONTINUOUS
 62
               4
100
AcDbLine
 10
-2.0
 20
3.8979762296661988
 30
0.0
 11
2.0
 21
3.8979762296661988
 31
0.0
  0
LINE
  5
460
100
AcDbEntity
  8
0
  6
CONTINUOUS
 62
               4
100
AcDbLine
 10
-1.0500000000000114
 20
0.5979763159612617
 30
0.0
 11
1.0499999999999829
 21
0.5979763159612617
 31
0.0
  0
LINE
  5
461
100
AcDbEntity
  8
0
  6
CONTINUOUS
 62
               4
100
AcDbLine
 10
-1.25
 20
0.397976315961273
 30
0.0
 11
-1.0500000000000114
 21
0.5979763159612617
 31
0.0
  0
LINE
  5
462
100
AcDbEntity
  8
0
  6
CONTINUOUS
 62
               4
100
AcDbLine
 10
1.0499999999999829
 20
0.5979763159612617
 30
0.0
 11
1.25
 21
0.397976315961273
 31
0.0
  0
LINE
  5
463
100
AcDbEntity
  8
0
  6
CONTINUOUS
 62
               4
100
AcDbLine
 10
-1.25
 20
0.397976315961273
 30
0.0
 11
1.25
 21
0.397976315961273
 31
0.0
  0
LINE
  5
464
100
AcDbEntity
  8
0
  6
CONTINUOUS
 62
               4
100
AcDbLine
 10
1.25
 20
0.397976315961273
 30
0.0
 11
1.25
 21
0.0
 31
0.0
  0
LINE
  5
465
100
AcDbEntity
  8
0
  6
CONTINUOUS
 62
               4
100
AcDbLine
 10
-1.25
 20
0.0
 30
0.0
 11
-1.25
 21
0.397976315961273
 31
0.0
  0
LINE
  5
466
100
AcDbEntity
  8
0
  6
CONTINUOUS
 62
               4
100
AcDbLine
 10
-2.0
 20
-1.0537974914318511
 30
0.0
 11
-1.5
 21
-0.5511933247652223
 31
0.0
  0
LINE
  5
467
100
AcDbEntity
  8
0
  6
CONTINUOUS
 62
               4
100
AcDbLine
 10
2.0
 20
-1.0500000000000114
 30
0.0
 11
1.5
 21
-0.5500000000000114
 31
0.0
  0
LINE
  5
468
100
AcDbEntity
  8
0
  6
CONTINUOUS
 62
               4
100
AcDbLine
 10
1.25
 20
-2.6000000000000227
 30
0.0
 11
1.25
 21
-3.8991665411816143
 31
0.0
  0
LINE
  5
469
100
AcDbEntity
  8
0
  6
CONTINUOUS
 62
               4
100
AcDbLine
 10
-1.25
 20
-2.6000000000000227
 30
0.0
 11
-1.25
 21
-3.8991665411816143
 31
0.0
  0
LINE
  5
46A
100
AcDbEntity
  8
0
  6
CONTINUOUS
 62
               4
100
AcDbLine
 10
-1.25
 20
-3.8991665411816143
 30
0.0
 11
1.25
 21
-3.8991665411816143
 31
0.0
  0
LINE
  5
46B
100
AcDbEntity
  8
0
  6
CONTINUOUS
 62
               4
100
AcDbLine
 10
1.25
 20
-3.8991665411816143
 30
0.0
 11
0.7471428571428476
 21
-4.4020236840387383
 31
0.0
  0
LINE
  5
46C
100
AcDbEntity
  8
0
  6
CONTINUOUS
 62
               4
100
AcDbLine
 10
-0.7471428571428476
 20
-4.4020236840387383
 30
0.0
 11
-1.25
 21
-3.8991665411816143
 31
0.0
  0
LINE
  5
46D
100
AcDbEntity
  8
0
  6
CONTINUOUS
 62
               4
100
AcDbLine
 10
-0.7471428571428476
 20
-4.4020236840387383
 30
0.0
 11
0.7471428571428476
 21
-4.4020236840387383
 31
0.0
  0
LINE
  5
46E
100
AcDbEntity
  8
0
  6
CONTINUOUS
 62
               4
100
AcDbLine
 10
1.5
 20
0.9479762320920599
 30
0.0
 11
2.0
 21
1.4479762320920599
 31
0.0
  0
LINE
  5
46F
100
AcDbEntity
  8
0
  6
CONTINUOUS
 62
               4
100
AcDbLine
 10
-2.0
 20
1.4479762281690114
 30
0.0
 11
-1.5
 21
0.9479762281690114
 31
0.0
  0
LINE
  5
470
100
AcDbEntity
  8
0
  6
CONTINUOUS
 62
               4
100
AcDbLine
 10
-1.5
 20
-0.5511933238986444
 30
0.0
 11
-1.5
 21
0.9479762301305641
 31
0.0
  0
LINE
  5
471
100
AcDbEntity
  8
0
  6
CONTINUOUS
 62
               4
100
AcDbLine
 10
1.5
 20
-0.5500000048504035
 30
0.0
 11
1.5
 21
0.9479762301305641
 31
0.0
  0
LINE
  5
472
100
AcDbEntity
  8
0
  6
CONTINUOUS
 62
               4
100
AcDbLine
 10
-1.5000000019615243
 20
0.0
 30
0.0
 11
1.4999999980384757
 21
0.0
 31
0.0
  0
LINE
  5
473
100
AcDbEntity
  8
0
  6
CONTINUOUS
 62
               4
100
AcDbLine
 10
-2.0
 20
-1.8000000000000114
 30
0.0
 11
2.0
 21
-1.8000000000000114
 31
0.0
  0
LINE
  5
474
100
AcDbEntity
  8
0
  6
CONTINUOUS
 62
               4
100
AcDbLine
 10
-2.0
 20
-2.6000000000000227
 30
0.0
 11
2.0
 21
-2.6000000000000227
 31
0.0
  0
LINE
  5
475
100
AcDbEntity
  8
0
  6
CONTINUOUS
 62
               4
100
AcDbLine
 10
-1.3000000000000114
 20
5.8979762296661988
 30
0.0
 11
-1.3000000000000114
 21
8.1445120264329489
 31
0.0
  0
LINE
  5
476
100
AcDbEntity
  8
0
  6
CONTINUOUS
 62
               4
100
AcDbLine
 10
1.2999999999999829
 20
5.8979762296661988
 30
0.0
 11
1.2999999999999829
 21
9.6456667608439943
 31
0.0
  0
LINE
  5
477
100
AcDbEntity
  8
0
  6
CONTINUOUS
 62
             200
100
AcDbLine
 10
0.0
 20
-6.1842448314454259
 30
0.0
 11
0.0
 21
11.380814644204406
 31
0.0
  0
LINE
  5
478
100
AcDbEntity
  8
0
  6
CONTINUOUS
 62
             200
100
AcDbLine
 10
-1.0250000000000057
 20
-4.1241665411815802
 30
0.0
 11
-1.0250000000000057
 21
-2.6000000000000227
 31
0.0
  0
LINE
  5
479
100
AcDbEntity
  8
0
  6
CONTINUOUS
 62
             200
100
AcDbLine
 10
1.0250000000000057
 20
-4.1241665411815802
 30
0.0
 11
1.0250000000000057
 21
-2.6000000000000227
 31
0.0
  0
LINE
  5
47A
100
AcDbEntity
  8
0
  6
CONTINUOUS
 62
             200
100
AcDbLine
 10
1.0250000000000057
 20
-0.0000000014444481
 30
0.0
 11
1.0250000000000057
 21
0.5979763159612617
 31
0.0
  0
LINE
  5
47B
100
AcDbEntity
  8
0
  6
CONTINUOUS
 62
             200
100
AcDbLine
 10
-1.0250000000000057
 20
-0.0000000014444481
 30
0.0
 11
-1.0250000000000057
 21
0.5979763159612617
 31
0.0
  0
ENDBLK
  5
47C
100
AcDbEntity
  8
0
100
AcDbBlockEnd
  0
BLOCK
  5
47D
100
AcDbEntity
  8
0
100
AcDbBlockBegin
  2
RAG8-21
 70
               0
 10
0.0
 20
0.0
 30
0.0
  3
RAG8-21
  1

  0
LINE
  5
47E
100
AcDbEntity
  8
0
  6
CONTINUOUS
 62
               4
100
AcDbLine
 10
2.0
 20
4.8979762296662273
 30
0.0
 11
-2.0
 21
4.8979762296662273
 31
0.0
  0
LINE
  5
47F
100
AcDbEntity
  8
0
  6
CONTINUOUS
 62
             200
100
AcDbLine
 10
-1.3000000000000114
 20
8.1445120264329773
 30
0.0
 11
1.3000000000000114
 21
9.6456667608440796
 31
0.0
  0
LINE
  5
480
100
AcDbEntity
  8
0
  6
CONTINUOUS
 62
             200
100
AcDbLine
 10
0.0
 20
-6.1842448314453975
 30
0.0
 11
0.0
 21
11.380814644204435
 31
0.0
  0
LINE
  5
481
100
AcDbEntity
  8
0
  6
CONTINUOUS
 62
               4
100
AcDbLine
 10
-1.3000000000000114
 20
5.8979762296662273
 30
0.0
 11
-1.3000000000000114
 21
8.1445120264329773
 31
0.0
  0
LINE
  5
482
100
AcDbEntity
  8
0
  6
CONTINUOUS
 62
               4
100
AcDbLine
 10
1.3000000000000114
 20
5.8979762296662273
 30
0.0
 11
1.3000000000000114
 21
9.6456667608440796
 31
0.0
  0
LINE
  5
483
100
AcDbEntity
  8
0
  6
CONTINUOUS
 62
               4
100
AcDbLine
 10
-1.5
 20
-0.550000004850375
 30
0.0
 11
-1.5
 21
0.9479762301305925
 31
0.0
  0
LINE
  5
484
100
AcDbEntity
  8
0
  6
CONTINUOUS
 62
               4
100
AcDbLine
 10
1.5
 20
-0.551193323898616
 30
0.0
 11
1.5
 21
0.9479762301305925
 31
0.0
  0
LINE
  5
485
100
AcDbEntity
  8
0
  6
CONTINUOUS
 62
               4
100
AcDbLine
 10
2.0
 20
1.4479762281690398
 30
0.0
 11
1.5
 21
0.9479762281690398
 31
0.0
  0
LINE
  5
486
100
AcDbEntity
  8
0
  6
CONTINUOUS
 62
               4
100
AcDbLine
 10
-1.5
 20
0.9479762320920884
 30
0.0
 11
-2.0
 21
1.4479762320920884
 31
0.0
  0
LINE
  5
487
100
AcDbEntity
  8
0
  6
CONTINUOUS
 62
               4
100
AcDbLine
 10
-2.0
 20
-1.0499999999999829
 30
0.0
 11
-1.5
 21
-0.549999999999983
 31
0.0
  0
LINE
  5
488
100
AcDbEntity
  8
0
  6
CONTINUOUS
 62
               4
100
AcDbLine
 10
2.0
 20
-1.0537974914318227
 30
0.0
 11
1.5
 21
-0.5511933247651939
 31
0.0
  0
LINE
  5
489
100
AcDbEntity
  8
0
  6
CONTINUOUS
 62
               4
100
AcDbLine
 10
2.0
 20
3.8979762296662273
 30
0.0
 11
-2.0
 21
3.8979762296662273
 31
0.0
  0
LINE
  5
48A
100
AcDbEntity
  8
0
  6
CONTINUOUS
 62
               4
100
AcDbLine
 10
2.0
 20
5.8979762296662273
 30
0.0
 11
-2.0
 21
5.8979762296662273
 31
0.0
  0
LINE
  5
48B
100
AcDbEntity
  8
0
  6
CONTINUOUS
 62
               4
100
AcDbLine
 10
2.0
 20
-3.0000000000000284
 30
0.0
 11
2.0
 21
-1.0537974914318227
 31
0.0
  0
LINE
  5
48C
100
AcDbEntity
  8
0
  6
CONTINUOUS
 62
               4
100
AcDbLine
 10
-2.0
 20
-3.0000000000000284
 30
0.0
 11
-2.0
 21
-1.0499999999999829
 31
0.0
  0
LINE
  5
48D
100
AcDbEntity
  8
0
  6
CONTINUOUS
 62
               4
100
AcDbLine
 10
2.0
 20
1.4479762281690398
 30
0.0
 11
2.0
 21
5.8979762296662273
 31
0.0
  0
LINE
  5
48E
100
AcDbEntity
  8
0
  6
CONTINUOUS
 62
               4
100
AcDbLine
 10
-2.0
 20
1.4479762320920884
 30
0.0
 11
-2.0
 21
5.8979762296662273
 31
0.0
  0
ARC
  5
48F
100
AcDbEntity
  8
0
  6
CONTINUOUS
 62
               4
100
AcDbCircle
 10
0.0
 20
-2.5499999999999829
 30
0.0
 40
2.0500000000000114
100
AcDbArc
 50
192.68038349182106
 51
347.31961650817891
  0
ENDBLK
  5
490
100
AcDbEntity
  8
0
100
AcDbBlockEnd
  0
BLOCK
  5
491
100
AcDbEntity
  8
0
100
AcDbBlockBegin
  2
RAG8-22
 70
               0
 10
0.0
 20
0.0
 30
0.0
  3
RAG8-22
  1

  0
LINE
  5
492
100
AcDbEntity
  8
0
  6
CONTINUOUS
 62
               4
100
AcDbLine
 10
0.0
 20
-2.0
 30
0.0
 11
15.0
 21
-2.0
 31
0.0
  0
LINE
  5
493
100
AcDbEntity
  8
0
  6
CONTINUOUS
 62
               4
100
AcDbLine
 10
0.0
 20
2.0
 30
0.0
 11
15.0
 21
2.0
 31
0.0
  0
CIRCLE
  5
494
100
AcDbEntity
  8
0
  6
CONTINUOUS
 62
               4
100
AcDbCircle
 10
12.5
 20
0.0
 30
0.0
 40
1.3
  0
ARC
  5
495
100
AcDbEntity
  8
0
  6
CONTINUOUS
 62
               4
100
AcDbCircle
 10
12.5
 20
0.0
 30
0.0
 40
2.1000000000000001
100
AcDbArc
 50
287.75279016194662
 51
72.247209838053379
  0
ARC
  5
496
100
AcDbEntity
  8
0
  6
CONTINUOUS
 62
               4
100
AcDbCircle
 10
12.5
 20
0.0
 30
0.0
 40
2.1000000000000001
100
AcDbArc
 50
107.75279016194661
 51
252.24720983805338
  0
LINE
  5
497
100
AcDbEntity
  8
0
  6
CONTINUOUS
 62
             200
100
AcDbLine
 10
-2.9259109009290682
 20
0.0
 30
0.0
 11
17.074089099070932
 21
0.0
 31
0.0
  0
LINE
  5
498
100
AcDbEntity
  8
0
  6
CONTINUOUS
 62
               4
100
AcDbLine
 10
0.0
 20
1.5
 30
0.0
 11
11.030306154330106
 21
1.5
 31
0.0
  0
LINE
  5
499
100
AcDbEntity
  8
0
  6
CONTINUOUS
 62
               4
100
AcDbLine
 10
0.0
 20
2.0
 30
0.0
 11
0.0
 21
-2.0
 31
0.0
  0
LINE
  5
49A
100
AcDbEntity
  8
0
  6
CONTINUOUS
 62
               4
100
AcDbLine
 10
15.0
 20
2.0
 30
0.0
 11
15.0
 21
-2.0
 31
0.0
  0
LINE
  5
49B
100
AcDbEntity
  8
0
  6
CONTINUOUS
 62
             200
100
AcDbLine
 10
2.0
 20
2.834285714285727
 30
0.0
 11
2.0
 21
-3.35141324485204
 31
0.0
  0
LINE
  5
49C
100
AcDbEntity
  8
0
  6
CONTINUOUS
 62
               4
100
AcDbLine
 10
0.9571428571429124
 20
-0.7142857142857224
 30
0.0
 11
2.6885714285714357
 21
1.0199999999999818
 31
0.0
  0
LINE
  5
49D
100
AcDbEntity
  8
0
  6
CONTINUOUS
 62
               4
100
AcDbLine
 10
1.3085714285714403
 20
-1.0685714285714312
 30
0.0
 11
3.0519930369715098
 21
0.6748501798286384
 31
0.0
  0
LINE
  5
49E
100
AcDbEntity
  8
0
  6
CONTINUOUS
 62
               4
100
AcDbLine
 10
3.9000000000000341
 20
-1.5028571503502803
 30
0.0
 11
3.9000000000000341
 21
1.5000000068119448
 31
0.0
  0
LINE
  5
49F
100
AcDbEntity
  8
0
  6
CONTINUOUS
 62
               4
100
AcDbLine
 10
10.400000000000034
 20
-1.5028571503502803
 30
0.0
 11
10.400000000000034
 21
1.5000000068119448
 31
0.0
  0
LINE
  5
4A0
100
AcDbEntity
  8
0
  6
CONTINUOUS
 62
               4
100
AcDbLine
 10
8.0
 20
-0.7000000068119334
 30
0.0
 11
8.0
 21
0.8999999999999773
 31
0.0
  0
LINE
  5
4A1
100
AcDbEntity
  8
0
  6
CONTINUOUS
 62
               4
100
AcDbLine
 10
9.6000000000000227
 20
-0.7000000068119334
 30
0.0
 11
9.6000000000000227
 21
0.8999999999999773
 31
0.0
  0
LINE
  5
4A2
100
AcDbEntity
  8
0
  6
CONTINUOUS
 62
               4
100
AcDbLine
 10
8.0
 20
0.8999999999999773
 30
0.0
 11
9.6000000000000227
 21
0.8999999999999773
 31
0.0
  0
LINE
  5
4A3
100
AcDbEntity
  8
0
  6
CONTINUOUS
 62
               4
100
AcDbLine
 10
8.0
 20
-0.6999999999999886
 30
0.0
 11
9.6000000000000227
 21
-0.6999999999999886
 31
0.0
  0
LINE
  5
4A4
100
AcDbEntity
  8
0
  6
CONTINUOUS
 62
               4
100
AcDbLine
 10
0.0
 20
-1.5
 30
0.0
 11
11.030306154330106
 21
-1.5
 31
0.0
  0
CIRCLE
  5
4A5
100
AcDbEntity
  8
0
  6
CONTINUOUS
 62
               4
100
AcDbCircle
 10
2.0
 20
0.0
 30
0.0
 40
1.3999999999999997
  0
CIRCLE
  5
4A6
100
AcDbEntity
  8
0
  6
CONTINUOUS
 62
             200
100
AcDbCircle
 10
2.0
 20
0.0
 30
0.0
 40
1.05
  0
CIRCLE
  5
4A7
100
AcDbEntity
  8
0
  6
CONTINUOUS
 62
               4
100
AcDbCircle
 10
2.0
 20
0.0
 30
0.0
 40
1.25
  0
CIRCLE
  5
4A8
100
AcDbEntity
  8
0
  6
CONTINUOUS
 62
               4
100
AcDbCircle
 10
13.150000002724823
 20
0.0
 30
0.0
 40
0.5
  0
CIRCLE
  5
4A9
100
AcDbEntity
  8
0
  6
CONTINUOUS
 62
               4
100
AcDbCircle
 10
11.84999999727529
 20
0.0
 30
0.0
 40
0.5
  0
CIRCLE
  5
4AA
100
AcDbEntity
  8
0
  6
CONTINUOUS
 62
               4
100
AcDbCircle
 10
13.150000002724823
 20
0.0
 30
0.0
 40
0.29
  0
CIRCLE
  5
4AB
100
AcDbEntity
  8
0
  6
CONTINUOUS
 62
               4
100
AcDbCircle
 10
11.84999999727529
 20
0.0
 30
0.0
 40
0.29
  0
ENDBLK
  5
4AC
100
AcDbEntity
  8
0
100
AcDbBlockEnd
  0
ENDSEC
  0
SECTION
  2
ENTITIES
  0
INSERT
  5
4AD
100
AcDbEntity
  8
0
  6
ByBlock
100
AcDbBlockReference
  2
RAG8-22
 10
192.92591090092907
 20
-120.0
 30
0.0
  0
INSERT
  5
4AE
100
AcDbEntity
  8
0
  6
ByBlock
100
AcDbBlockReference
  2
RAG8-21
 10
250.52650602307608
 20
-158.71101752578218
 30
0.0
  0
INSERT
  5
4AF
100
AcDbEntity
  8
0
  6
ByBlock
100
AcDbBlockReference
  2
RAG8-20
 10
155.92531578831893
 20
-158.71101752578218
 30
0.0
  0
INSERT
  5
4B0
100
AcDbEntity
  8
0
  6
ByBlock
100
AcDbBlockReference
  2
RAG8-19
 10
192.92591090569744
 20
-158.71101752578218
 30
0.0
  0
INSERT
  5
4B1
100
AcDbEntity
  8
0
  6
ByBlock
100
AcDbBlockReference
  2
RAG8-18
 10
54.40143736678246
 20
-119.99999986155198
 30
0.0
  0
INSERT
  5
4B2
100
AcDbEntity
  8
0
  6
ByBlock
100
AcDbBlockReference
  2
RAG8-17
 10
108.0
 20
-166.88702644544594
 30
0.0
  0
INSERT
  5
4B3
100
AcDbEntity
  8
0
  6
ByBlock
100
AcDbBlockReference
  2
RAG8-16
 10
14.0
 20
-166.88702644544594
 30
0.0
  0
INSERT
  5
4B4
100
AcDbEntity
  8
0
  6
ByBlock
100
AcDbBlockReference
  2
RAG8-15
 10
54.401428561891748
 20
-166.88702645099983
 30
0.0
  0
INSERT
  5
4B5
100
AcDbEntity
  8
0
  6
ByBlock
100
AcDbBlockReference
  2
RAG8-14
 10
-90.680000000000007
 20
-120.0
 30
0.0
  0
INSERT
  5
4B6
100
AcDbEntity
  8
0
  6
ByBlock
100
AcDbBlockReference
  2
RAG8-13
 10
-32.0
 20
-167.60002136230469
 30
0.0
 50
360.0
  0
INSERT
  5
4B7
100
AcDbEntity
  8
0
  6
ByBlock
100
AcDbBlockReference
  2
RAG8-12
 10
-126.0
 20
-167.60002136230469
 30
0.0
  0
INSERT
  5
4B8
100
AcDbEntity
  8
0
  6
ByBlock
100
AcDbBlockReference
  2
RAG8-11
 10
-90.680000000000007
 20
-167.60002136230469
 30
0.0
  0
INSERT
  5
4B9
100
AcDbEntity
  8
0
  6
ByBlock
100
AcDbBlockReference
  2
RAG8-10
 10
-233.10561314783112
 20
-119.93797212953092
 30
0.0
  0
INSERT
  5
4BA
100
AcDbEntity
  8
0
  6
ByBlock
100
AcDbBlockReference
  2
RAG8-9
 10
-174.16288853845614
 20
-167.53797823304654
 30
0.0
  0
INSERT
  5
4BB
100
AcDbEntity
  8
0
  6
ByBlock
100
AcDbBlockReference
  2
RAG8-8
 10
-267.64833775720615
 20
-167.53797823304654
 30
0.0
  0
INSERT
  5
4BC
100
AcDbEntity
  8
0
  6
ByBlock
100
AcDbBlockReference
  2
RAG8-7
 10
-233.10561314783112
 20
-167.53797823304654
 30
0.0
  0
INSERT
  5
4BD
100
AcDbEntity
  8
0
  6
ByBlock
100
AcDbBlockReference
  2
RAG8-6
 10
210.0
 20
94.0
 30
0.0
  0
INSERT
  5
4BE
100
AcDbEntity
  8
0
  6
ByBlock
100
AcDbBlockReference
  2
RAG8-5
 10
-50.0
 20
-60.0
 30
0.0
  0
INSERT
  5
4BF
100
AcDbEntity
  8
0
  6
ByBlock
100
AcDbBlockReference
  2
RAG8-4
 10
-50.0
 20
150.0
 30
0.0
  0
INSERT
  5
4C0
100
AcDbEntity
  8
0
  6
ByBlock
100
AcDbBlockReference
  2
RAG8-3
 10
90.000000000000256
 20
94.0
 30
0.0
  0
INSERT
  5
4C1
100
AcDbEntity
  8
0
  6
ByBlock
100
AcDbBlockReference
  2
RAG8-2
 10
-179.99999999999989
 20
94.000000000000114
 30
0.0
  0
INSERT
  5
4C2
100
AcDbEntity
  8
0
  6
ByBlock
100
AcDbBlockReference
  2
RAG8-1
 10
-50.0
 20
94.0
 30
0.0
  0
MTEXT
  5
4C3
100
AcDbEntity
  8
0
  6
CONTINUOUS
 62
               7
100
AcDbMText
 10
-232.80000034968057
 20
180.5
 30
0.0
 40
6.3000001907348633
 41
0.0
 71
               4
 72
               1
  1
\A1;RAG8
  0
LINE
  5
4C4
100
AcDbEntity
  8
0
  6
CONTINUOUS
 62
               7
100
AcDbLine
 10
-161.25
 20
195.5
 30
0.0
 11
-161.25
 21
175.5
 31
0.0
  0
MTEXT
  5
4C5
100
AcDbEntity
  8
0
  6
CONTINUOUS
 62
               7
100
AcDbMText
 10
-267.42123427456374
 20
190.5
 30
0.0
 40
6.3000001907348633
 41
0.0
 71
               4
 72
               1
  1
\W1.027;\A1;ROTARY ACTUATOR
  0
LINE
  5
4C6
100
AcDbEntity
  8
0
  6
CONTINUOUS
 62
               7
100
AcDbLine
 10
-281.25
 20
175.5
 30
0.0
 11
-161.25
 21
175.5
 31
0.0
  0
MTEXT
  5
4C7
100
AcDbEntity
  8
0
  6
CONTINUOUS
 62
               7
100
AcDbMText
 10
-230.4882342114168
 20
130.5
 30
0.0
 40
6.3000001907348633
 41
0.0
 71
               4
 72
               1
  1
\W1.059;\A1;RAGS8-180
  0
MTEXT
  5
4C8
100
AcDbEntity
  8
0
  6
CONTINUOUS
 62
               7
100
AcDbMText
 10
-230.52765849024098
 20
140.5
 30
0.0
 40
6.3000001907348633
 41
0.0
 71
               4
 72
               1
  1
\W1.021;\A1;RAGS8-90
  0
MTEXT
  5
4C9
100
AcDbEntity
  8
0
  6
CONTINUOUS
 62
               7
100
AcDbMText
 10
-230.47999891704984
 20
150.5
 30
0.0
 40
6.3000001907348633
 41
0.0
 71
               4
 72
               1
  1
\W1.067;\A1;RAG8-180
  0
MTEXT
  5
4CA
100
AcDbEntity
  8
0
  6
CONTINUOUS
 62
               7
100
AcDbMText
 10
-135.5628207858912
 20
-102.89111220400738
 30
0.0
 40
6.3000001907348633
 41
0.0
 71
               1
 72
               1
  1
\W1.111;\A1;ZE201
  0
MTEXT
  5
4CB
100
AcDbEntity
  8
0
  6
CONTINUOUS
 62
               7
100
AcDbMText
 10
-135.64328055397706
 20
-109.8341749055555
 30
0.0
 40
6.3000001907348633
 41
0.0
 71
               1
 72
               1
  1
\W1.034;\A1;ZE202
  0
MTEXT
  5
4CC
100
AcDbEntity
  8
0
  6
CONTINUOUS
 62
               7
100
AcDbMText
 10
4.2738351480297876
 20
-103.35219774216833
 30
0.0
 40
6.3000001907348633
 41
0.0
 71
               1
 72
               1
  1
\W1.071;\A1;ZE135
  0
MTEXT
  5
4CD
100
AcDbEntity
  8
0
  6
CONTINUOUS
 62
               7
100
AcDbMText
 10
4.2738351480297876
 20
-110.29526044371644
 30
0.0
 40
6.3000001907348633
 41
0.0
 71
               1
 72
               1
  1
\W1.071;\A1;ZE155
  0
MTEXT
  5
4CE
100
AcDbEntity
  8
0
  6
CONTINUOUS
 62
               7
100
AcDbMText
 10
144.83076670695019
 20
-103.61154184334794
 30
0.0
 40
6.3000001907348633
 41
0.0
 71
               1
 72
               1
  1
\A1;ZE235
  0
MTEXT
  5
4CF
100
AcDbEntity
  8
0
  6
CONTINUOUS
 62
               7
100
AcDbMText
 10
144.83076670695019
 20
-110.55460454489605
 30
0.0
 40
6.3000001907348633
 41
0.0
 71
               1
 72
               1
  1
\A1;ZE255
  0
LINE
  5
4D0
100
AcDbEntity
  8
0
  6
CONTINUOUS
 62
               7
100
AcDbLine
 10
140.0
 20
-100.0
 30
0.0
 11
140.0
 21
-195.0
 31
0.0
  0
LINE
  5
4D1
100
AcDbEntity
  8
0
  6
CONTINUOUS
 62
               7
100
AcDbLine
 10
0.0
 20
-100.0
 30
0.0
 11
0.0
 21
-195.0
 31
0.0
  0
MTEXT
  5
4D2
100
AcDbEntity
  8
0
  6
CONTINUOUS
 62
               7
100
AcDbMText
 10
-277.48658376104578
 20
-109.63688193075762
 30
0.0
 40
6.3000001907348633
 41
0.0
 71
               1
 72
               1
  1
\W1.111;\A1;ZE102
  0
MTEXT
  5
4D3
100
AcDbEntity
  8
0
  6
CONTINUOUS
 62
               7
100
AcDbMText
 10
-277.39325043089491
 20
-102.69381922920951
 30
0.0
 40
6.3000001907348633
 41
0.0
 71
               1
 72
               1
  1
\W1.200;\A1;ZE101
  0
LINE
  5
4D4
100
AcDbEntity
  8
0
  6
CONTINUOUS
 62
               7
100
AcDbLine
 10
-140.0
 20
-100.0
 30
0.0
 11
-140.0
 21
-195.0
 31
0.0
  0
LINE
  5
4D5
100
AcDbEntity
  8
0
  6
CONTINUOUS
 62
               7
100
AcDbLine
 10
-281.25
 20
-100.0
 30
0.0
 11
282.099853515625
 21
-100.0
 31
0.0
  0
LINE
  5
4D6
100
AcDbEntity
  8
0
  6
CONTINUOUS
 62
               7
100
AcDbLine
 10
162.0999755859375
 20
-175.0
 30
0.0
 11
162.0999755859375
 21
-195.0
 31
0.0
  0
LINE
  5
4D7
100
AcDbEntity
  8
0
  6
CONTINUOUS
 62
               7
100
AcDbLine
 10
162.0999755859375
 20
-175.0
 30
0.0
 11
282.099853515625
 21
-175.0
 31
0.0
  0
MTEXT
  5
4D8
100
AcDbEntity
  8
0
  6
CONTINUOUS
 62
               7
100
AcDbMText
 10
170.2809980228688
 20
-185.0
 30
0.0
 40
9.0
 41
0.0
 71
               4
 72
               1
  1
\W1.121;\A1;KOGANEI CORP.
  0
MTEXT
  5
4D9
100
AcDbEntity
  8
0
  6
CONTINUOUS
 62
               7
100
AcDbMText
 10
198.2770240315611
 20
185.5
 30
0.0
 40
6.3000001907348633
 41
0.0
 71
               4
 72
               1
  1
\W1.311;\A1;Ver. 1.0
  0
LINE
  5
4DA
100
AcDbEntity
  8
0
  6
CONTINUOUS
 62
               7
100
AcDbLine
 10
162.0999755859375
 20
175.5
 30
0.0
 11
282.099853515625
 21
175.5
 31
0.0
  0
LINE
  5
4DB
100
AcDbEntity
  8
0
  6
CONTINUOUS
 62
               7
100
AcDbLine
 10
162.0999755859375
 20
195.5
 30
0.0
 11
162.0999755859375
 21
175.5
 31
0.0
  0
LINE
  5
4DC
100
AcDbEntity
  8
0
  6
CONTINUOUS
 62
               7
100
AcDbLine
 10
282.099853515625
 20
195.5
 30
0.0
 11
282.099853515625
 21
-195.0
 31
0.0
  0
LINE
  5
4DD
100
AcDbEntity
  8
0
  6
CONTINUOUS
 62
               7
100
AcDbLine
 10
-281.25
 20
195.5
 30
0.0
 11
282.099853515625
 21
195.5
 31
0.0
  0
LINE
  5
4DE
100
AcDbEntity
  8
0
  6
CONTINUOUS
 62
               7
100
AcDbLine
 10
-281.25
 20
195.5
 30
0.0
 11
-281.25
 21
-195.0
 31
0.0
  0
LINE
  5
4DF
100
AcDbEntity
  8
0
  6
CONTINUOUS
 62
               7
100
AcDbLine
 10
-281.25
 20
-195.0
 30
0.0
 11
282.099853515625
 21
-195.0
 31
0.0
  0
MTEXT
  5
4E0
100
AcDbEntity
  8
0
  6
CONTINUOUS
 62
               7
100
AcDbMText
 10
-268.27808225226573
 20
160.5
 30
0.0
 40
6.3000001907348633
 41
0.0
 71
               4
 72
               1
  1
\W1.068;\A1;MODEL:RAG8-90
  0
ENDSEC
  0
SECTION
  2
OBJECTS
  0
DICTIONARY
  5
19
100
AcDbDictionary
  3
ACAD_GROUP
350
1A
  3
ACAD_MLINESTYLE
350
1B
  0
DICTIONARY
  5
1A
102
{ACAD_REACTORS
330
19
102
}
100
AcDbDictionary
  0
DICTIONARY
  5
1B
102
{ACAD_REACTORS
330
19
102
}
100
AcDbDictionary
  3
STANDARD
350
1C
  0
MLINESTYLE
  5
1C
102
{ACAD_REACTORS
330
1B
102
}
100
AcDbMlineStyle
  2
Standard
 70
               0
  3

 62
               0
 51
90.0
 52
90.0
 71
               2
 49
0.5
 62
             256
  6
ByLayer
 49
-0.5
 62
             256
  6
ByLayer
  0
ENDSEC
  0
EOF
